  0
SECTION
  2
HEADER
  9
$ACADVER
  1
AC1009
  9
$INSBASE
 10
0.0
 20
0.0
 30
0.0
  9
$EXTMIN
 10
-146.5
 20
-346.5
 30
-0.0000000000000688
  9
$EXTMAX
 10
146.5000000000001137
 20
301.3000000000000114
 30
0.0000000000000568
  9
$LIMMIN
 10
0.0
 20
0.0
  9
$LIMMAX
 10
594.0
 20
840.0
  9
$ORTHOMODE
 70
     1
  9
$REGENMODE
 70
     1
  9
$FILLMODE
 70
     1
  9
$QTEXTMODE
 70
     0
  9
$MIRRTEXT
 70
     1
  9
$DRAGMODE
 70
     2
  9
$LTSCALE
 40
10.0
  9
$OSMODE
 70
   511
  9
$ATTMODE
 70
     1
  9
$TEXTSIZE
 40
3.5
  9
$TRACEWID
 40
1.0
  9
$TEXTSTYLE
  7
STANDARD
  9
$CLAYER
  8
STEMPEL
  9
$CELTYPE
  6
BYLAYER
  9
$CECOLOR
 62
   256
  9
$DIMSCALE
 40
1.0
  9
$DIMASZ
 40
3.5
  9
$DIMEXO
 40
1.0
  9
$DIMDLI
 40
0.38
  9
$DIMRND
 40
0.0
  9
$DIMDLE
 40
0.0
  9
$DIMEXE
 40
1.0
  9
$DIMTP
 40
0.0
  9
$DIMTM
 40
0.000000001
  9
$DIMTXT
 40
3.5
  9
$DIMCEN
 40
0.09
  9
$DIMTSZ
 40
0.0
  9
$DIMTOL
 70
     0
  9
$DIMLIM
 70
     0
  9
$DIMTIH
 70
     0
  9
$DIMTOH
 70
     0
  9
$DIMSE1
 70
     0
  9
$DIMSE2
 70
     0
  9
$DIMTAD
 70
     1
  9
$DIMZIN
 70
     8
  9
$DIMBLK
  1

  9
$DIMASO
 70
     1
  9
$DIMSHO
 70
     0
  9
$DIMPOST
  1

  9
$DIMAPOST
  1

  9
$DIMALT
 70
     0
  9
$DIMALTD
 70
     2
  9
$DIMALTF
 40
25.3999999999999986
  9
$DIMLFAC
 40
2.0
  9
$DIMTOFL
 70
     1
  9
$DIMTVP
 40
0.0
  9
$DIMTIX
 70
     0
  9
$DIMSOXD
 70
     0
  9
$DIMSAH
 70
     0
  9
$DIMBLK1
  1

  9
$DIMBLK2
  1

  9
$DIMSTYLE
  2
LORO
  9
$DIMCLRD
 70
     0
  9
$DIMCLRE
 70
     0
  9
$DIMCLRT
 70
     1
  9
$DIMTFAC
 40
0.5
  9
$DIMGAP
 40
1.5
  9
$LUNITS
 70
     2
  9
$LUPREC
 70
     2
  9
$SKETCHINC
 40
1.0
  9
$FILLETRAD
 40
0.5
  9
$AUNITS
 70
     0
  9
$AUPREC
 70
     0
  9
$MENU
  1
ACAD
  9
$ELEVATION
 40
0.0
  9
$PELEVATION
 40
0.0
  9
$THICKNESS
 40
0.0
  9
$LIMCHECK
 70
     0
  9
$BLIPMODE
 70
     0
  9
$CHAMFERA
 40
0.0
  9
$CHAMFERB
 40
0.0
  9
$SKPOLY
 70
     0
  9
$TDCREATE
 40
2455397.867048610933125
  9
$TDUPDATE
 40
2460412.3275000001303852
  9
$TDINDWG
 40
1.3577146065000001
  9
$TDUSRTIMER
 40
1.3577146065000001
  9
$USRTIMER
 70
     1
  9
$ANGBASE
 50
0.0
  9
$ANGDIR
 70
     0
  9
$PDMODE
 70
     0
  9
$PDSIZE
 40
0.0
  9
$PLINEWID
 40
0.0
  9
$COORDS
 70
     1
  9
$SPLFRAME
 70
     0
  9
$SPLINETYPE
 70
     6
  9
$SPLINESEGS
 70
     8
  9
$ATTDIA
 70
     1
  9
$ATTREQ
 70
     1
  9
$HANDLING
 70
     1
  9
$HANDSEED
  5
F422
  9
$SURFTAB1
 70
     6
  9
$SURFTAB2
 70
     6
  9
$SURFTYPE
 70
     6
  9
$SURFU
 70
     6
  9
$SURFV
 70
     6
  9
$UCSNAME
  2

  9
$UCSORG
 10
0.0
 20
0.0
 30
0.0
  9
$UCSXDIR
 10
1.0
 20
0.0
 30
0.0
  9
$UCSYDIR
 10
0.0
 20
1.0
 30
0.0
  9
$PUCSNAME
  2

  9
$PUCSORG
 10
0.0
 20
0.0
 30
0.0
  9
$PUCSXDIR
 10
1.0
 20
0.0
 30
0.0
  9
$PUCSYDIR
 10
0.0
 20
1.0
 30
0.0
  9
$USERI1
 70
     0
  9
$USERI2
 70
     0
  9
$USERI3
 70
     0
  9
$USERI4
 70
     0
  9
$USERI5
 70
     0
  9
$USERR1
 40
0.0
  9
$USERR2
 40
0.0
  9
$USERR3
 40
0.0
  9
$USERR4
 40
0.0
  9
$USERR5
 40
0.0
  9
$WORLDVIEW
 70
     1
  9
$SHADEDGE
 70
     3
  9
$SHADEDIF
 70
    70
  9
$TILEMODE
 70
     1
  9
$MAXACTVP
 70
    16
  9
$PLIMCHECK
 70
     0
  9
$PEXTMIN
 10
1.0000000000000000E+20
 20
1.0000000000000000E+20
 30
1.0000000000000000E+20
  9
$PEXTMAX
 10
-1.0000000000000000E+20
 20
-1.0000000000000000E+20
 30
-1.0000000000000000E+20
  9
$PLIMMIN
 10
-0.2352074142166032
 20
-0.2631662012005905
  9
$PLIMMAX
 10
296.7647925857834252
 20
419.7368337987994096
  9
$UNITMODE
 70
     0
  9
$VISRETAIN
 70
     0
  9
$PLINEGEN
 70
     0
  9
$PSLTSCALE
 70
     0
  0
ENDSEC
  0
SECTION
  2
TABLES
  0
TABLE
  2
VPORT
 70
     1
  0
VPORT
  2
*ACTIVE
 70
     0
 10
0.0
 20
0.0
 11
1.0
 21
1.0
 12
-0.0000000000000568
 22
-99.9999938964843551
 13
0.0
 23
0.0
 14
1.0
 24
1.0
 15
10.0
 25
10.0
 16
-0.0000000000003174
 26
0.0
 36
1429.3159574673470615
 17
0.0
 27
77.399993896484375
 37
-0.000000000000005
 40
651.1135549872122965
 41
1.872013651877132
 42
50.0
 43
0.0
 44
0.0
 50
0.0
 51
0.0
 71
     0
 72
  1500
 73
     1
 74
     0
 75
     0
 76
     0
 77
     0
 78
     0
  0
ENDTAB
  0
TABLE
  2
LTYPE
 70
     3
  0
LTYPE
  2
CONTINUOUS
 70
     0
  3
Solid line
 72
    65
 73
     0
 40
0.0
  0
LTYPE
  2
STRICHPUNKT
 70
     0
  3
__ . __ . __ . __ . __ . __ . __ . __ . __ . __
 72
    65
 73
     4
 40
1.0
 49
0.5
 49
-0.25
 49
0.0
 49
-0.25
  0
LTYPE
  2
VERDECKT
 70
     0
  3
Verdeckt __ __ __ __ __ __ __ __ __ __ __ __ __
 72
    65
 73
     2
 40
0.375
 49
0.25
 49
-0.125
  0
ENDTAB
  0
TABLE
  2
LAYER
 70
     6
  0
LAYER
  2
0
 70
     0
 62
     7
  6
CONTINUOUS
  0
LAYER
  2
STEMPEL
 70
     0
 62
     3
  6
CONTINUOUS
  0
LAYER
  2
ADSK_ASSOC_ENTITY_BACKUPS
 70
     1
 62
    -7
  6
CONTINUOUS
  0
ENDTAB
  0
TABLE
  2
STYLE
 70
     1
  0
STYLE
  2
STANDARD
 70
     0
 40
0.0
 41
0.8
 50
0.0
 71
     0
 42
3.5
  3
simplex.shx
  4

  0
ENDTAB
  0
TABLE
  2
VIEW
 70
     0
  0
ENDTAB
  0
TABLE
  2
UCS
 70
     0
  0
ENDTAB
  0
TABLE
  2
APPID
 70
    27
  0
APPID
  2
ACAD
 70
     0
  0
APPID
  2
ACAECLAYERSTANDARD
 70
     0
  0
APPID
  2
ACCMTRANSPARENCY
 70
     0
  0
APPID
  2
ACAD_NAV_VCDISPLAY
 70
     0
  0
APPID
  2
ACAD_PSEXT
 70
     0
  0
APPID
  2
ACAD_STEPID
 70
     0
  0
APPID
  2
ACAD_EXEMPT_FROM_CAD_STANDARDS
 70
     0
  0
APPID
  2
ACSYNERGY
 70
     0
  0
APPID
  2
SYNERGY_BODY_TBR_ID
 70
     0
  0
APPID
  2
ACAD_VIEW_EDGE_ID
 70
     0
  0
APPID
  2
GRADIENTCOLOR1ACI
 70
     0
  0
APPID
  2
GRADIENTCOLOR2ACI
 70
     0
  0
APPID
  2
ACAD_DSTYLE_DIMRADIAL_EXTENSION
 70
     0
  0
APPID
  2
ACADANNOMONITORALERTICONDI
 70
     0
  0
APPID
  2
ACAD_MLEADERVER
 70
     0
  0
APPID
  2
ACSYNERGYSKETCH
 70
     0
  0
APPID
  2
ACAD_MODELDOC_XFORM
 70
     0
  0
APPID
  2
ACDBDYNAMICBLOCKGUID
 70
     0
  0
APPID
  2
ACAD_DSTYLE_DIMJAG
 70
     0
  0
APPID
  2
ACAD_DSTYLE_DIMBREAK
 70
     0
  0
APPID
  2
ACAD_DSTYLE_DIMTALN
 70
     0
  0
APPID
  2
ACADANNOPO
 70
     0
  0
APPID
  2
PLOTTRANSPARENCY
 70
     0
  0
APPID
  2
ACADANNOTATIVE
 70
     0
  0
APPID
  2
ACAD_DIMASSOC_CALC_DIMLFAC
 70
     0
  0
APPID
  2
ACAD_DIMASSOC_DIMLFAC
 70
     0
  0
APPID
  2
ACAD_DIMASSOC_OVERRIDDEN_D
 70
     0
  0
ENDTAB
  0
TABLE
  2
DIMSTYLE
 70
     3
  0
DIMSTYLE
  2
LORO
 70
     0
  3

  4

  5

  6

  7

 40
1.0
 41
3.5
 42
1.0
 43
0.38
 44
1.0
 45
0.0
 46
0.0
 47
0.0
 48
0.000000001
140
3.5
141
0.09
142
0.0
143
25.3999999999999986
144
2.0
145
0.0
146
0.5
147
1.5
 71
     0
 72
     0
 73
     0
 74
     0
 75
     0
 76
     0
 77
     1
 78
     8
170
     0
171
     2
172
     1
173
     0
174
     0
175
     0
176
     0
177
     0
178
     1
  0
ENDTAB
  0
ENDSEC
  0
SECTION
  2
BLOCKS
  0
BLOCK
  8
0
  2
$MODEL_SPACE
 70
     0
 10
0.0
 20
0.0
 30
0.0
  3
$MODEL_SPACE
  1

  0
ENDBLK
  5
38
  8
0
  0
BLOCK
 67
     1
  8
0
  2
$PAPER_SPACE
 70
     0
 10
0.0
 20
0.0
 30
0.0
  3
$PAPER_SPACE
  1

  0
ENDBLK
  5
36
 67
     1
  8
0
  0
BLOCK
  8
0
  2
*S0
 70
     1
 10
0.0
 20
0.0
 30
0.0
  3
*S0
  1

  0
ENDBLK
  5
7128
  8
0
  0
BLOCK
  8
0
  2
A$C98EDAE82
 70
     0
 10
0.0
 20
0.0
 30
0.0
  3
A$C98EDAE82
  1

  0
CIRCLE
  5
F30E
  8
0
  6
CONTINUOUS
 62
     3
 10
0.0
 20
0.0
 30
0.0
 40
34.6921457176084687
  0
LINE
  5
F30F
  8
0
  6
CONTINUOUS
 62
     3
 10
-126.5
 20
-146.5
 30
0.0
 11
126.5000000000000995
 21
-146.5
 31
0.0000000000000562
  0
CIRCLE
  5
F310
  8
0
  6
CONTINUOUS
 62
     3
 10
-126.4999999999999005
 20
-126.4999999999999005
 30
0.0
 40
3.0000000000000049
  0
ARC
  5
F311
  8
0
  6
CONTINUOUS
 62
     3
 10
-126.4999999999999005
 20
-126.5
 30
0.0
 40
20.0
 50
180.0
 51
270.0
  0
CIRCLE
  5
F312
  8
0
  6
CONTINUOUS
 62
     3
 10
126.5000000000000995
 20
-126.4999999999999005
 30
0.0
 40
3.0000000000000049
  0
ARC
  5
F313
  8
0
  6
CONTINUOUS
 62
     3
 10
126.5000000000000995
 20
-126.5
 30
0.0
 40
20.0
 50
270.0
 51
0.0
  0
CIRCLE
  5
F314
  8
0
  6
CONTINUOUS
 62
     3
 10
-126.4999999999999005
 20
126.5
 30
0.0
 40
3.0000000000000049
  0
ARC
  5
F315
  8
0
  6
CONTINUOUS
 62
     3
 10
-126.5
 20
126.5
 30
0.0
 40
20.0
 50
90.0
 51
180.0
  0
LINE
  5
F316
  8
0
  6
CONTINUOUS
 62
     3
 10
-126.5
 20
146.5
 30
0.0
 11
126.500000000000199
 21
146.5
 31
0.0000000000000562
  0
CIRCLE
  5
F317
  8
0
  6
CONTINUOUS
 62
     3
 10
126.5
 20
126.5
 30
0.0
 40
3.0000000000000049
  0
ARC
  5
F318
  8
0
  6
CONTINUOUS
 62
     3
 10
126.5000000000000995
 20
126.5
 30
0.0
 40
20.0
 50
0.0
 51
90.0
  0
LINE
  5
F319
  8
0
  6
CONTINUOUS
 62
     3
 10
146.5
 20
-126.5
 30
0.0000000000000568
 11
146.5000000000001137
 21
126.5
 31
0.0000000000000568
  0
LINE
  5
F31A
  8
0
  6
CONTINUOUS
 62
     3
 10
-146.4999999999998863
 20
-126.5
 30
-0.0000000000000568
 11
-146.5
 21
126.5
 31
-0.0000000000000568
  0
CIRCLE
  5
F31B
  8
0
  6
CONTINUOUS
 62
     3
 10
0.0000000000002653
 20
-0.0000000000000401
 30
0.0
 40
40.0167129391754131
  0
CIRCLE
  5
F31C
  8
0
  6
CONTINUOUS
 62
     3
 10
0.0000000000000534
 20
0.0000000000000079
 30
0.0
 40
35.2999999999999616
  0
CIRCLE
  5
F31D
  8
0
  6
CONTINUOUS
 62
     3
 10
0.0000000000000666
 20
0.0000000000000116
 30
0.0
 40
39.2594616805545229
  0
CIRCLE
  5
F31E
  8
0
  6
CONTINUOUS
 62
     3
 10
0.0000000000000665
 20
0.0000000000000116
 30
0.0
 40
38.1718923361102114
  0
CIRCLE
  5
F31F
  8
0
  6
VERDECKT
 62
     1
 10
0.0
 20
0.0
 30
0.0
 40
35.8875793553185076
  0
CIRCLE
  5
F320
  8
0
  6
VERDECKT
 62
     1
 10
0.0000000000002875
 20
-0.0000000000000426
 30
0.0
 40
40.5999999999996533
  0
CIRCLE
  5
F321
  8
0
  6
VERDECKT
 62
     1
 10
0.0000000000002915
 20
-0.0000000000000426
 30
0.0
 40
44.9000000000014765
  0
CIRCLE
  5
F322
  8
0
  6
VERDECKT
 62
     1
 10
0.0000000000002937
 20
-0.0000000000000426
 30
0.0
 40
43.0939456325763999
  0
CIRCLE
  5
F323
  8
0
  6
VERDECKT
 62
     1
 10
0.0000000000002936
 20
-0.0000000000000426
 30
0.0
 40
41.9722036734502666
  0
CIRCLE
  5
F324
  8
0
  6
VERDECKT
 62
     1
 10
0.0000000000002915
 20
-0.0000000000000426
 30
0.0
 40
43.7000000000014879
  0
CIRCLE
  5
F325
  8
0
  6
VERDECKT
 62
     1
 10
0.0000000000002929
 20
-0.0000000000000174
 30
0.0
 40
45.4355827223203619
  0
CIRCLE
  5
F326
  8
0
  6
VERDECKT
 62
     1
 10
0.0000000000002928
 20
-0.0000000000000175
 30
0.0
 40
44.2626029625304511
  0
CIRCLE
  5
F327
  8
0
  6
VERDECKT
 62
     1
 10
0.0000000000002937
 20
-0.0000000000000162
 30
0.0
 40
43.0939456325763999
  0
CIRCLE
  5
F328
  8
0
  6
VERDECKT
 62
     1
 10
0.0000000000002936
 20
-0.0000000000000164
 30
0.0
 40
41.9722036734495418
  0
CIRCLE
  5
F329
  8
0
  6
VERDECKT
 62
     1
 10
0.0000000000002918
 20
-0.0000000000000189
 30
0.0
 40
43.6737861270447567
  0
CIRCLE
  5
F32A
  8
0
  6
VERDECKT
 62
     1
 10
0.0000000000002918
 20
-0.0000000000000189
 30
0.0
 40
43.1732853564722632
  0
CIRCLE
  5
F32B
  8
0
  6
VERDECKT
 62
     1
 10
0.0000000000002937
 20
-0.0000000000000162
 30
0.0
 40
41.3167129391743515
  0
CIRCLE
  5
F32C
  8
0
  6
VERDECKT
 62
     1
 10
0.0000000000002636
 20
-0.0000000000000406
 30
0.0
 40
43.0797559285610419
  0
CIRCLE
  5
F32D
  8
0
  6
VERDECKT
 62
     1
 10
0.0000000000002636
 20
-0.0000000000000406
 30
0.0
 40
41.7857222374492778
  0
CIRCLE
  5
F32E
  8
0
  6
VERDECKT
 62
     1
 10
0.0000000000002653
 20
-0.0000000000000401
 30
0.0
 40
41.3167129391752326
  0
CIRCLE
  5
F32F
  8
0
  6
VERDECKT
 62
     1
 10
0.0000000000000534
 20
0.0000000000000079
 30
0.0
 40
36.5
  0
CIRCLE
  5
F330
  8
0
  6
VERDECKT
 62
     1
 10
0.0000000000000641
 20
0.0000000000000109
 30
0.0
 40
40.6999999999995907
  0
CIRCLE
  5
F331
  8
0
  6
VERDECKT
 62
     1
 10
0.0000000000000602
 20
0.0000000000000098
 30
0.0
 40
38.1999999999995907
  0
CIRCLE
  5
F332
  8
0
  6
VERDECKT
 62
     1
 10
0.0000000000000602
 20
0.0000000000000098
 30
0.0
 40
39.3999999999996433
  0
CIRCLE
  5
F333
  8
0
  6
VERDECKT
 62
     1
 10
0.0000000000000641
 20
0.0000000000000109
 30
0.0
 40
41.8999999999996291
  0
CIRCLE
  5
F334
  8
0
  6
VERDECKT
 62
     1
 10
0.0000000000000632
 20
0.0000000000000106
 30
0.0
 40
40.7000862159353431
  0
CIRCLE
  5
F335
  8
0
  6
VERDECKT
 62
     1
 10
0.0000000000000632
 20
0.0000000000000106
 30
0.0
 40
41.9000862159354028
  0
ENDBLK
  5
F337
  8
0
  0
BLOCK
  8
0
  2
A$C9A425BAA
 70
     0
 10
0.0
 20
0.0
 30
0.0
  3
A$C9A425BAA
  1

  0
LINE
  5
F33B
  8
0
  6
CONTINUOUS
 62
     3
 10
-35.8875793553185076
 20
0.0
 30
0.0
 11
35.8875793553185076
 21
0.0
 31
0.0
210
0.0
220
1.0
230
-0.0000000000000002
  0
ARC
  5
F33C
  8
0
  6
CONTINUOUS
 62
     3
 10
35.4999999999993392
 20
7.0436609429074153
 30
0.0
 40
1.0000000000006599
210
0.0
220
-0.0000000000000002
230
-1.0
 50
355.0000000000038085
 51
0.0000000000005216
  0
ARC
  5
F33D
  8
0
  6
CONTINUOUS
 62
     3
 10
-35.4999999999992966
 20
7.0436609429074153
 30
0.0
 40
1.0000000000006961
210
0.0
220
-0.0000000000000002
230
-1.0
 50
179.9999999999994884
 51
184.9999999999959925
  0
LINE
  5
F33E
  8
0
  6
CONTINUOUS
 62
     3
 10
-35.8875793553184579
 20
0.000000000000004
 30
0.0
 11
-36.4961946980917489
 21
6.956505200159766
 31
-0.0000000000000015
210
0.0
220
1.0
230
-0.0000000000000002
  0
LINE
  5
F33F
  8
0
  6
CONTINUOUS
 62
     3
 10
35.8875793553184579
 20
0.000000000000004
 30
0.0
 11
36.4961946980917489
 21
6.956505200159766
 31
-0.0000000000000015
210
0.0
220
1.0
230
-0.0000000000000002
  0
LINE
  5
F340
  8
0
  6
CONTINUOUS
 62
     3
 10
36.5
 20
231.1793635296540117
 30
-0.0000000000000513
 11
36.5
 21
7.0436609429074242
 31
-0.0000000000000016
210
0.0
220
1.0
230
-0.0000000000000002
  0
LINE
  5
F341
  8
0
  6
CONTINUOUS
 62
     3
 10
-36.5
 20
231.1793635296540117
 30
-0.0000000000000513
 11
-36.5
 21
7.0436609429074242
 31
-0.0000000000000016
210
0.0
220
1.0
230
-0.0000000000000002
  0
ARC
  5
F342
  8
0
  6
CONTINUOUS
 62
     3
 10
-48.4000000000079922
 20
231.1793635296515959
 30
0.0
 40
11.9000000000077293
210
0.0
220
-0.0000000000000002
230
-1.0
 50
0.0000000000120479
 51
14.7365183092985692
  0
ARC
  5
F343
  8
0
  6
CONTINUOUS
 62
     3
 10
48.4000000000075303
 20
231.1793635296515959
 30
0.0
 40
11.9000000000077293
210
0.0
220
-0.0000000000000002
230
-1.0
 50
165.2634816907014113
 51
179.9999999999878924
  0
LINE
  5
F344
  8
0
  6
CONTINUOUS
 62
     3
 10
-36.8914407425543516
 20
234.2064188343780131
 30
-0.000000000000052
 11
-40.1699550284157709
 21
246.6709998006822957
 31
-0.0000000000000548
210
0.0
220
1.0
230
-0.0000000000000002
  0
LINE
  5
F345
  8
0
  6
CONTINUOUS
 62
     3
 10
36.8914407425548134
 20
234.2064188343780131
 30
-0.000000000000052
 11
40.1699550284162328
 21
246.6709998006822957
 31
-0.0000000000000548
210
0.0
220
1.0
230
-0.0000000000000002
  0
ARC
  5
F346
  8
0
  6
CONTINUOUS
 62
     3
 10
-27.4999999999910685
 20
249.9999995870919918
 30
0.0
 40
13.1000000000088299
210
0.0
220
-0.0000000000000002
230
-1.0
 50
180.0000000000003979
 51
194.7215729391676007
  0
ARC
  5
F347
  8
0
  6
CONTINUOUS
 62
     3
 10
27.4999999999903011
 20
249.9999995870919918
 30
0.0
 40
13.1000000000091408
210
0.0
220
-0.0000000000000002
230
-1.0
 50
345.2784270608324277
 51
359.9999999999992042
  0
LINE
  5
F348
  8
0
  6
CONTINUOUS
 62
     3
 10
-40.5999999999994401
 20
249.9999995870917928
 30
-0.0000000000000555
 11
-40.5999999999994401
 21
270.9399594521572112
 31
-0.0000000000000602
210
0.0
220
1.0
230
-0.0000000000000002
  0
LINE
  5
F349
  8
0
  6
CONTINUOUS
 62
     3
 10
40.5999999999998877
 20
249.9999995870917928
 30
-0.0000000000000555
 11
40.5999999999998877
 21
270.9399594521572112
 31
-0.0000000000000602
210
0.0
220
1.0
230
-0.0000000000000002
  0
ARC
  5
F34A
  8
0
  6
CONTINUOUS
 62
     3
 10
-51.9000000000698378
 20
270.9399594521570975
 30
0.0
 40
11.3000000000699607
210
0.0
220
-0.0000000000000002
230
-1.0
 50
0.0000000000002926
 51
27.9825224718976884
  0
ARC
  5
F34B
  8
0
  6
CONTINUOUS
 62
     3
 10
51.9000000000693831
 20
270.9399594521570975
 30
0.0
 40
11.3000000000699501
210
0.0
220
-0.0000000000000002
230
-1.0
 50
152.0174775281022903
 51
179.9999999999996874
  0
LINE
  5
F34C
  8
0
  6
CONTINUOUS
 62
     3
 10
-41.921074416799371
 20
276.241944382835527
 30
-0.0000000000000613
 11
-43.5906165072518803
 21
279.3842083644553895
 31
-0.000000000000062
210
0.0
220
1.0
230
-0.0000000000000002
  0
LINE
  5
F34D
  8
0
  6
CONTINUOUS
 62
     3
 10
41.9210744167998186
 20
276.241944382835527
 30
-0.0000000000000613
 11
43.5906165072523422
 21
279.3842083644553895
 31
-0.000000000000062
210
0.0
220
1.0
230
-0.0000000000000002
  0
ARC
  5
F34E
  8
0
  6
CONTINUOUS
 62
     3
 10
-33.7000000000010971
 20
284.6392730744760797
 30
0.0
 40
11.2000000000006494
210
0.0
220
-0.0000000000000002
230
-1.0
 50
179.9999999999994031
 51
207.9825224718977097
  0
ARC
  5
F34F
  8
0
  6
CONTINUOUS
 62
     3
 10
33.7000000000008697
 20
284.6392730744760229
 30
0.0
 40
11.2000000000004203
210
0.0
220
-0.0000000000000002
230
-1.0
 50
332.0174775281020061
 51
0.0000000000008778
  0
LINE
  5
F350
  8
0
  6
CONTINUOUS
 62
     3
 10
-44.9000000000012776
 20
284.6392730744761934
 30
-0.0000000000000632
 11
-44.9000000000012776
 21
288.817149787342089
 31
-0.0000000000000641
210
0.0
220
1.0
230
-0.0000000000000002
  0
LINE
  5
F351
  8
0
  6
CONTINUOUS
 62
     3
 10
44.9000000000017394
 20
284.6392730744761934
 30
-0.0000000000000632
 11
44.9000000000017394
 21
288.817149787342089
 31
-0.0000000000000641
210
0.0
220
1.0
230
-0.0000000000000002
  0
ARC
  5
F352
  8
0
  6
CONTINUOUS
 62
     3
 10
-16.9999999999334506
 20
288.8171497873418048
 30
0.0
 40
27.9000000000682711
210
0.0
220
-0.0000000000000002
230
-1.0
 50
167.7292572916337861
 51
179.9999999999994031
  0
ARC
  5
F353
  8
0
  6
CONTINUOUS
 62
     3
 10
16.9999999999329887
 20
288.8171497873418048
 30
0.0
 40
27.9000000000682604
210
0.0
220
-0.0000000000000002
230
-1.0
 50
0.0000000000005852
 51
12.2707427083662104
  0
LINE
  5
F354
  8
0
  6
CONTINUOUS
 62
     3
 10
-45.4355827223201274
 20
294.9999998778948793
 30
-0.0000000000000655
 11
45.4355827223205893
 21
294.9999998778948793
 31
-0.0000000000000655
210
0.0
220
1.0
230
-0.0000000000000002
  0
LINE
  5
F355
  8
0
  6
CONTINUOUS
 62
     3
 10
-44.2626029625302166
 20
294.7467770696923139
 30
-0.0000000000000654
 11
44.2626029625306714
 21
294.7467770696923139
 31
-0.0000000000000654
210
0.0
220
1.0
230
-0.0000000000000002
  0
ARC
  5
F356
  8
0
  6
CONTINUOUS
 62
     3
 10
16.9999999999211191
 20
288.8171497873385078
 30
0.0
 40
29.1000000000805912
210
0.0
220
-0.0000000000000002
230
-1.0
 50
12.2670857329066898
 51
21.2517746444418094
  0
ARC
  5
F357
  8
0
  6
CONTINUOUS
 62
     3
 10
-16.99999999992475
 20
288.8171497873394742
 30
0.0
 40
29.1000000000772694
210
0.0
220
-0.0000000000000002
230
-1.0
 50
158.7482253555577927
 51
167.732914267094003
  0
LINE
  5
F358
  8
0
  6
CONTINUOUS
 62
     3
 10
-44.2626029625302095
 20
294.7467770696923139
 30
-0.0000000000000654
 11
-45.4355827223201416
 21
294.9999998778948793
 31
-0.0000000000000655
210
0.0
220
1.0
230
-0.0000000000000002
  0
LINE
  5
F359
  8
0
  6
CONTINUOUS
 62
     3
 10
44.2626029625306785
 20
294.7467770696923139
 30
-0.0000000000000654
 11
45.4355827223205893
 21
294.9999998778948793
 31
-0.0000000000000655
210
0.0
220
1.0
230
-0.0000000000000002
  0
ARC
  5
F35A
  8
0
  6
CONTINUOUS
 62
     3
 10
43.1900701525907991
 20
298.9999995870875864
 30
0.0
 40
0.9999999999992938
210
0.0
220
-0.0000000000000002
230
-1.0
 50
21.4037149725435292
 51
89.999999999958888
  0
ARC
  5
F35B
  8
0
  6
CONTINUOUS
 62
     3
 10
-43.1900701525911614
 20
298.9999995870875864
 30
0.0
 40
0.9999999999993747
210
0.0
220
-0.0000000000000002
230
-1.0
 50
90.0000000000460005
 51
158.5962850274586913
  0
LINE
  5
F35C
  8
0
  6
CONTINUOUS
 62
     3
 10
-126.5
 20
301.2999999999998977
 30
-0.0000000000000669
 11
126.5
 21
301.2999999999998977
 31
-0.0000000000000669
210
0.0
220
1.0
230
-0.0000000000000002
  0
LINE
  5
F35D
  8
0
  6
CONTINUOUS
 62
     3
 10
-126.5
 20
300.0
 30
-0.0000000000000666
 11
126.5
 21
300.0
 31
-0.0000000000000666
210
0.0
220
1.0
230
-0.0000000000000002
  0
LINE
  5
F35E
  8
0
  6
CONTINUOUS
 62
     3
 10
-146.5
 20
301.3000000000000114
 30
-0.0000000000000669
 11
-126.5
 21
301.3000000000000114
 31
-0.0000000000000669
210
0.0
220
1.0
230
-0.0000000000000002
  0
LINE
  5
F35F
  8
0
  6
CONTINUOUS
 62
     3
 10
-146.5
 20
300.0
 30
-0.0000000000000666
 11
-146.5
 21
301.3000000000000114
 31
-0.0000000000000669
210
0.0
220
1.0
230
-0.0000000000000002
  0
LINE
  5
F360
  8
0
  6
CONTINUOUS
 62
     3
 10
-146.5
 20
300.0
 30
-0.0000000000000666
 11
-126.5
 21
300.0
 31
-0.0000000000000666
210
0.0
220
1.0
230
-0.0000000000000002
  0
LINE
  5
F361
  8
0
  6
CONTINUOUS
 62
     3
 10
146.5
 20
301.2999999999998977
 30
-0.0000000000000669
 11
126.5
 21
301.2999999999998977
 31
-0.0000000000000669
210
0.0
220
1.0
230
-0.0000000000000002
  0
LINE
  5
F362
  8
0
  6
CONTINUOUS
 62
     3
 10
146.5
 20
300.0
 30
-0.0000000000000666
 11
126.5
 21
300.0
 31
-0.0000000000000666
210
0.0
220
1.0
230
-0.0000000000000002
  0
LINE
  5
F363
  8
0
  6
CONTINUOUS
 62
     3
 10
146.5
 20
300.0
 30
-0.0000000000000666
 11
146.5
 21
301.2999999999998977
 31
-0.0000000000000669
210
0.0
220
1.0
230
-0.0000000000000002
  0
LINE
  5
F364
  8
0
  6
VERDECKT
 62
     1
 10
-34.6921457176084687
 20
0.104586891297231
 30
0.0
 11
34.6921457176084687
 21
0.104586891297231
 31
0.0
210
0.0
220
1.0
230
-0.0000000000000002
  0
LINE
  5
F365
  8
0
  6
VERDECKT
 62
     1
 10
43.093945632576613
 20
298.6921688417270957
 30
-0.0000000000000663
 11
-43.093945632576137
 21
298.6921688417270957
 31
-0.0000000000000663
210
0.0
220
1.0
230
-0.0000000000000002
  0
LINE
  5
F366
  8
0
  6
VERDECKT
 62
     1
 10
41.9722036734505011
 20
298.2659086313419152
 30
-0.0000000000000662
 11
-41.9722036734500534
 21
298.2659086313419152
 31
-0.0000000000000662
210
0.0
220
1.0
230
-0.0000000000000002
  0
ARC
  5
F367
  8
0
  6
VERDECKT
 62
     1
 10
34.2999999999992866
 20
7.0960540743962994
 30
0.0
 40
1.0000000000006599
210
0.0
220
-0.0000000000000002
230
-1.0
 50
355.0000000000038085
 51
0.0000000000005216
  0
ARC
  5
F368
  8
0
  6
VERDECKT
 62
     1
 10
-34.2999999999992582
 20
7.0960540743962994
 30
0.0
 40
1.0000000000006961
210
0.0
220
-0.0000000000000002
230
-1.0
 50
179.9999999999994884
 51
184.9999999999959925
  0
LINE
  5
F369
  8
0
  6
VERDECKT
 62
     1
 10
-34.6921457176084118
 20
0.1045868912972363
 30
0.0
 11
-35.2961946980917034
 21
7.0088983316486502
 31
-0.0000000000000016
210
0.0
220
1.0
230
-0.0000000000000002
  0
LINE
  5
F36A
  8
0
  6
VERDECKT
 62
     1
 10
34.6921457176084118
 20
0.1045868912972363
 30
0.0
 11
35.2961946980917034
 21
7.0088983316486502
 31
-0.0000000000000016
210
0.0
220
1.0
230
-0.0000000000000002
  0
LINE
  5
F36B
  8
0
  6
VERDECKT
 62
     1
 10
35.2999999999999616
 20
231.1793635296540117
 30
-0.0000000000000513
 11
35.2999999999999616
 21
7.0960540743963083
 31
-0.0000000000000016
210
0.0
220
1.0
230
-0.0000000000000002
  0
LINE
  5
F36C
  8
0
  6
VERDECKT
 62
     1
 10
-35.2999999999999616
 20
231.1793635296540117
 30
-0.0000000000000513
 11
-35.2999999999999616
 21
7.0960540743963083
 31
-0.0000000000000016
210
0.0
220
1.0
230
-0.0000000000000002
  0
ARC
  5
F36D
  8
0
  6
VERDECKT
 62
     1
 10
-51.9000000000727084
 20
270.9399594521564723
 30
0.0
 40
12.5000000000728093
210
0.0
220
-0.0000000000000002
230
-1.0
 50
0.0
 51
27.9825224718984309
  0
ARC
  5
F36E
  8
0
  6
VERDECKT
 62
     1
 10
51.9000000000722466
 20
270.9399594521564723
 30
0.0
 40
12.50000000007282
210
0.0
220
-0.0000000000000002
230
-1.0
 50
152.0174775281016082
 51
180.0
  0
LINE
  5
F36F
  8
0
  6
VERDECKT
 62
     1
 10
-39.3999999999994373
 20
249.9999995870921055
 30
-0.0000000000000555
 11
-39.3999999999994373
 21
270.9399594521564723
 31
-0.0000000000000602
210
0.0
220
1.0
230
-0.0000000000000002
  0
LINE
  5
F370
  8
0
  6
VERDECKT
 62
     1
 10
39.399999999999892
 20
249.9999995870921055
 30
-0.0000000000000555
 11
39.399999999999892
 21
270.9399594521564723
 31
-0.0000000000000602
210
0.0
220
1.0
230
-0.0000000000000002
  0
ARC
  5
F371
  8
0
  6
VERDECKT
 62
     1
 10
-27.4999999999911786
 20
249.9999995870919918
 30
0.0
 40
11.9000000000087098
210
0.0
220
-0.0000000000000002
230
-1.0
 50
179.9999999999994031
 51
194.720837485951904
  0
ARC
  5
F372
  8
0
  6
VERDECKT
 62
     1
 10
27.4999999999907203
 20
249.9999995870919918
 30
0.0
 40
11.9000000000087205
210
0.0
220
-0.0000000000000002
230
-1.0
 50
345.2791625140479823
 51
0.0000000000005471
  0
LINE
  5
F373
  8
0
  6
VERDECKT
 62
     1
 10
-35.7309137586101784
 20
234.5116681088036898
 30
-0.0000000000000521
 11
-39.0093872769687309
 21
246.9760940811700038
 31
-0.0000000000000548
210
0.0
220
1.0
230
-0.0000000000000002
  0
LINE
  5
F374
  8
0
  6
VERDECKT
 62
     1
 10
35.7309137586106402
 20
234.5116681088036898
 30
-0.0000000000000521
 11
39.0093872769691785
 21
246.9760940811700038
 31
-0.0000000000000548
210
0.0
220
1.0
230
-0.0000000000000002
  0
ARC
  5
F375
  8
0
  6
VERDECKT
 62
     1
 10
-48.4000000000094914
 20
231.1793635296511127
 30
0.0
 40
13.10000000000929
210
0.0
220
-0.0000000000000002
230
-1.0
 50
0.0000000000129258
 51
14.7365183092974998
  0
ARC
  5
F376
  8
0
  6
VERDECKT
 62
     1
 10
48.4000000000090367
 20
231.1793635296511127
 30
0.0
 40
13.1000000000092793
210
0.0
220
-0.0000000000000002
230
-1.0
 50
165.2634816907024913
 51
179.9999999999870965
  0
ARC
  5
F377
  8
0
  6
VERDECKT
 62
     1
 10
-16.9999999999337099
 20
288.8171497873419185
 30
0.0
 40
27.9000000000680011
210
0.0
220
-0.0000000000000002
230
-1.0
 50
159.2713022623869961
 51
167.7292572916337861
  0
ARC
  5
F378
  8
0
  6
VERDECKT
 62
     1
 10
16.9999999999320792
 20
288.8171497873415206
 30
0.0
 40
27.900000000069209
210
0.0
220
-0.0000000000000002
230
-1.0
 50
12.2707427083663898
 51
20.7286977376128192
  0
LINE
  5
F379
  8
0
  6
VERDECKT
 62
     1
 10
-41.9722036734500392
 20
298.2659086313419152
 30
-0.0000000000000662
 11
-43.0939456325761796
 21
298.6921688417270957
 31
-0.0000000000000663
210
0.0
220
1.0
230
-0.0000000000000002
  0
LINE
  5
F37A
  8
0
  6
VERDECKT
 62
     1
 10
41.9722036734505011
 20
298.2659086313419152
 30
-0.0000000000000662
 11
43.093945632576613
 21
298.6921688417270957
 31
-0.0000000000000663
210
0.0
220
1.0
230
-0.0000000000000002
  0
ARC
  5
F37B
  8
0
  6
VERDECKT
 62
     1
 10
-16.9999999999338698
 20
288.8171497873441922
 30
0.0
 40
26.7000000000678597
210
0.0
220
-0.0000000000000002
230
-1.0
 50
159.2748085963249025
 51
180.0000000000003126
  0
ARC
  5
F37C
  8
0
  6
VERDECKT
 62
     1
 10
16.999999999934051
 20
288.8171497873443059
 30
0.0
 40
26.7000000000672202
210
0.0
220
-0.0000000000000002
230
-1.0
 50
359.9999999999993747
 51
20.7251914036753391
  0
LINE
  5
F37D
  8
0
  6
VERDECKT
 62
     1
 10
-43.7000000000012534
 20
284.6392730744756818
 30
-0.0000000000000632
 11
-43.7000000000012534
 21
288.8171497873440217
 31
-0.0000000000000641
210
0.0
220
1.0
230
-0.0000000000000002
  0
LINE
  5
F37E
  8
0
  6
VERDECKT
 62
     1
 10
43.700000000001701
 20
284.6392730744756818
 30
-0.0000000000000632
 11
43.700000000001701
 21
288.8171497873440217
 31
-0.0000000000000641
210
0.0
220
1.0
230
-0.0000000000000002
  0
ARC
  5
F37F
  8
0
  6
VERDECKT
 62
     1
 10
-33.7000000000017081
 20
284.6392730744757955
 30
0.0
 40
9.9999999999999858
210
0.0
220
-0.0000000000000002
230
-1.0
 50
180.000000000000199
 51
207.9825224718985908
  0
ARC
  5
F380
  8
0
  6
VERDECKT
 62
     1
 10
33.7000000000011184
 20
284.6392730744759092
 30
0.0
 40
10.0000000000001208
210
0.0
220
-0.0000000000000002
230
-1.0
 50
332.0174775281010966
 51
359.9999999999993179
  0
LINE
  5
F381
  8
0
  6
VERDECKT
 62
     1
 10
-40.8613655053086475
 20
276.8049870303385092
 30
-0.0000000000000615
 11
-42.5309075957606595
 21
279.947251011957519
 31
-0.0000000000000622
210
0.0
220
1.0
230
-0.0000000000000002
  0
LINE
  5
F382
  8
0
  6
VERDECKT
 62
     1
 10
40.8613655053091094
 20
276.8049870303385092
 30
-0.0000000000000615
 11
42.5309075957611284
 21
279.947251011957519
 31
-0.0000000000000622
210
0.0
220
1.0
230
-0.0000000000000002
  0
LINE
  5
F383
  8
0
  6
VERDECKT
 62
     1
 10
34.6921457176084687
 20
0.104586891297231
 30
0.0
 11
35.8875793553185076
 21
0.0
 31
0.0
210
0.0
220
1.0
230
-0.0000000000000002
  0
LINE
  5
F384
  8
0
  6
VERDECKT
 62
     1
 10
-34.6921457176084687
 20
0.104586891297231
 30
0.0
 11
-35.8875793553185076
 21
0.0
 31
0.0
210
0.0
220
1.0
230
-0.0000000000000002
  0
LINE
  5
F385
  8
0
  6
VERDECKT
 62
     1
 10
-43.0939456325761796
 20
298.6921688417270957
 30
-0.0000000000000663
 11
43.0939456325766272
 21
298.6921688417270957
 31
-0.0000000000000663
210
0.0
220
1.0
230
-0.0000000000000002
  0
LINE
  5
F386
  8
0
  6
VERDECKT
 62
     1
 10
-41.9722036734493074
 20
298.2659086313415742
 30
-0.0000000000000662
 11
41.9722036734497692
 21
298.2659086313415742
 31
-0.0000000000000662
210
0.0
220
1.0
230
-0.0000000000000002
  0
LINE
  5
F387
  8
0
  6
VERDECKT
 62
     1
 10
-43.6737861270445293
 20
289.9999995870873022
 30
-0.0000000000000644
 11
43.6737861270449912
 21
289.9999995870873022
 31
-0.0000000000000644
210
0.0
220
1.0
230
-0.0000000000000002
  0
ARC
  5
F388
  8
0
  6
VERDECKT
 62
     1
 10
16.9999999999329496
 20
288.8171497873418048
 30
0.0
 40
27.9000000000683315
210
0.0
220
-0.0000000000000002
230
-1.0
 50
12.2707427083662992
 51
20.7286977376128796
  0
ARC
  5
F389
  8
0
  6
VERDECKT
 62
     1
 10
-16.9999999999313687
 20
288.8171497873412932
 30
0.0
 40
27.9000000000704311
210
0.0
220
-0.0000000000000002
230
-1.0
 50
159.2713022623875077
 51
167.7292572916335018
  0
LINE
  5
F38A
  8
0
  6
VERDECKT
 62
     1
 10
-41.9722036734493074
 20
298.2659086313415742
 30
-0.0000000000000662
 11
-43.0939456325761867
 21
298.692168841726982
 31
-0.0000000000000663
210
0.0
220
1.0
230
-0.0000000000000002
  0
LINE
  5
F38B
  8
0
  6
VERDECKT
 62
     1
 10
41.9722036734497692
 20
298.2659086313415742
 30
-0.0000000000000662
 11
43.0939456325766415
 21
298.692168841726982
 31
-0.0000000000000663
210
0.0
220
1.0
230
-0.0000000000000002
  0
ARC
  5
F38C
  8
0
  6
VERDECKT
 62
     1
 10
16.9999999999328999
 20
288.8171497873418048
 30
0.0
 40
26.7000000000683713
210
0.0
220
-0.0000000000000002
230
-1.0
 50
2.539119456702319
 51
20.7251914036794993
  0
ARC
  5
F38D
  8
0
  6
VERDECKT
 62
     1
 10
-16.9999999999333617
 20
288.8171497873418048
 30
0.0
 40
26.7000000000683784
210
0.0
220
-0.0000000000000002
230
-1.0
 50
159.2748085963204971
 51
177.4608805432976908
  0
ARC
  5
F38E
  8
0
  6
VERDECKT
 62
     1
 10
16.9999999999322604
 20
288.8171497873416911
 30
0.0
 40
26.2000000000690285
210
0.0
220
-0.0000000000000002
230
-1.0
 50
2.5876085968296469
 51
21.3705849481583705
  0
ARC
  5
F38F
  8
0
  6
VERDECKT
 62
     1
 10
-16.9999999999330917
 20
288.8171497873416911
 30
0.0
 40
26.2000000000686697
210
0.0
220
-0.0000000000000002
230
-1.0
 50
158.6294150518415904
 51
177.4123914031704032
  0
ARC
  5
F390
  8
0
  6
VERDECKT
 62
     1
 10
42.5167129391741696
 20
298.7999995870870862
 30
0.0
 40
1.200000000000045
210
0.0
220
-0.0000000000000002
230
-1.0
 50
89.9999999999609912
 51
201.2846924151224925
  0
ARC
  5
F391
  8
0
  6
VERDECKT
 62
     1
 10
-42.5167129391746172
 20
298.7999995870870862
 30
0.0
 40
1.200000000000041
210
0.0
220
-0.0000000000000002
230
-1.0
 50
338.7153075848802928
 51
90.0000000000393641
  0
LINE
  5
F392
  8
0
  6
VERDECKT
 62
     1
 10
-43.0797559285608429
 20
291.3244053999243874
 30
-0.0000000000000647
 11
43.0797559285612408
 21
291.3244053999243874
 31
-0.0000000000000647
210
0.0
220
1.0
230
-0.0000000000000002
  0
LINE
  5
F393
  8
0
  6
VERDECKT
 62
     1
 10
-41.7857222374490718
 20
291.1999995870872908
 30
-0.0000000000000647
 11
41.7857222374494697
 21
291.1999995870872908
 31
-0.0000000000000647
210
0.0
220
1.0
230
-0.0000000000000002
  0
LINE
  5
F394
  8
0
  6
VERDECKT
 62
     1
 10
-129.5
 20
300.0
 30
-0.0000000000000666
 11
-129.5
 21
301.3000000000000114
 31
-0.0000000000000669
210
0.0
220
1.0
230
-0.0000000000000002
  0
LINE
  5
F395
  8
0
  6
VERDECKT
 62
     1
 10
-123.5
 20
300.0
 30
-0.0000000000000666
 11
-123.5
 21
301.3000000000000114
 31
-0.0000000000000669
210
0.0
220
1.0
230
-0.0000000000000002
  0
LINE
  5
F396
  8
0
  6
VERDECKT
 62
     1
 10
129.5
 20
301.2999999999998977
 30
-0.0000000000000669
 11
129.5
 21
300.0
 31
-0.0000000000000666
210
0.0
220
1.0
230
-0.0000000000000002
  0
LINE
  5
F397
  8
0
  6
VERDECKT
 62
     1
 10
123.5
 20
301.2999999999998977
 30
-0.0000000000000669
 11
123.5
 21
300.0
 31
-0.0000000000000666
210
0.0
220
1.0
230
-0.0000000000000002
  0
ARC
  5
F398
  8
0
  6
VERDECKT
 62
     1
 10
42.5167129391751999
 20
298.7999995870870862
 30
0.0
 40
2.5
210
0.0
220
-0.0000000000000002
230
-1.0
 50
90.0000000000042064
 51
201.3113509892995978
  0
ARC
  5
F399
  8
0
  6
VERDECKT
 62
     1
 10
-42.5167129391755978
 20
298.7999995870870862
 30
0.0
 40
2.499999999999988
210
0.0
220
-0.0000000000000002
230
-1.0
 50
338.6886490107003738
 51
89.9999999999957936
  0
ARC
  5
F39A
  8
0
  6
VERDECKT
 62
     1
 10
42.5167129391750223
 20
298.7999995870870862
 30
0.0
 40
1.199999999999988
210
0.0
220
-0.0000000000000002
230
-1.0
 50
89.9999999999986358
 51
201.448954048525195
  0
ARC
  5
F39B
  8
0
  6
VERDECKT
 62
     1
 10
-42.5167129391754628
 20
298.7999995870870862
 30
0.0
 40
1.2000000000000079
210
0.0
220
-0.0000000000000002
230
-1.0
 50
338.5510459514810009
 51
89.9999999999993463
  0
ARC
  5
F39C
  8
0
  6
VERDECKT
 62
     1
 10
16.9999999999341291
 20
288.8171497873415774
 30
0.0
 40
26.2000000000681013
210
0.0
220
-0.0000000000000002
230
-1.0
 50
5.49142503614011
 51
21.3630615171393394
  0
ARC
  5
F39D
  8
0
  6
VERDECKT
 62
     1
 10
-16.9999999999341718
 20
288.8171497873415774
 30
0.0
 40
26.2000000000684494
210
0.0
220
-0.0000000000000002
230
-1.0
 50
158.6369384828608133
 51
174.5085749638597861
  0
LINE
  5
F39E
  8
0
  6
VERDECKT
 62
     1
 10
-41.7857222374490718
 20
291.1999995870872908
 30
-0.0000000000000647
 11
-43.0797559285608429
 21
291.3244053999243874
 31
-0.0000000000000647
210
0.0
220
1.0
230
-0.0000000000000002
  0
LINE
  5
F39F
  8
0
  6
VERDECKT
 62
     1
 10
41.7857222374494697
 20
291.1999995870872908
 30
-0.0000000000000647
 11
43.0797559285612408
 21
291.3244053999243874
 31
-0.0000000000000647
210
0.0
220
1.0
230
-0.0000000000000002
  0
ARC
  5
F3A0
  8
0
  6
VERDECKT
 62
     1
 10
16.9999999999325908
 20
288.8171497873412932
 30
0.0
 40
24.9000000000696318
210
0.0
220
-0.0000000000000002
230
-1.0
 50
5.4914250361421972
 51
21.3723927340916013
  0
ARC
  5
F3A1
  8
0
  6
VERDECKT
 62
     1
 10
-16.9999999999329887
 20
288.8171497873412932
 30
0.0
 40
24.9000000000696318
210
0.0
220
-0.0000000000000002
230
-1.0
 50
158.6276072659084093
 51
174.5085749638577965
  0
LINE
  5
F3A2
  8
0
  6
VERDECKT
 62
     1
 10
-36.5
 20
237.5
 30
-0.0000000000000527
 11
36.5
 21
237.5
 31
-0.0000000000000527
210
0.0
220
1.0
230
-0.0000000000000002
  0
LINE
  5
F3A3
  8
0
  6
VERDECKT
 62
     1
 10
38.1718923361104316
 20
299.4928580859119052
 30
-0.0000000000000665
 11
-38.1718923361104316
 21
299.4928580859119052
 31
-0.0000000000000665
210
0.0
220
1.0
230
-0.0000000000000002
  0
LINE
  5
F3A4
  8
0
  6
VERDECKT
 62
     1
 10
35.2999999999999474
 20
240.5069422202882095
 30
-0.0000000000000534
 11
35.2999999999999474
 21
237.5
 31
-0.0000000000000527
210
0.0
220
1.0
230
-0.0000000000000002
  0
LINE
  5
F3A5
  8
0
  6
VERDECKT
 62
     1
 10
-35.2999999999999474
 20
240.5069422202882095
 30
-0.0000000000000534
 11
-35.2999999999999474
 21
237.5
 31
-0.0000000000000527
210
0.0
220
1.0
230
-0.0000000000000002
  0
LINE
  5
F3A6
  8
0
  6
VERDECKT
 62
     1
 10
36.5
 20
240.5069422202890053
 30
-0.0000000000000534
 11
36.5
 21
237.5
 31
-0.0000000000000527
210
0.0
220
1.0
230
-0.0000000000000002
  0
LINE
  5
F3A7
  8
0
  6
VERDECKT
 62
     1
 10
-36.5
 20
240.5069422202890053
 30
-0.0000000000000534
 11
-36.5
 21
237.5
 31
-0.0000000000000527
210
0.0
220
1.0
230
-0.0000000000000002
  0
LINE
  5
F3A8
  8
0
  6
VERDECKT
 62
     1
 10
-38.1718923361104103
 20
299.4928580859120189
 30
-0.0000000000000665
 11
-39.2594616805545513
 21
300.0
 31
-0.0000000000000666
210
0.0
220
1.0
230
-0.0000000000000002
  0
LINE
  5
F3A9
  8
0
  6
VERDECKT
 62
     1
 10
38.1718923361102327
 20
299.4928580859117915
 30
-0.0000000000000665
 11
39.2594616805545513
 21
300.0
 31
-0.0000000000000666
210
0.0
220
1.0
230
-0.0000000000000002
  0
LINE
  5
F3AA
  8
0
  6
VERDECKT
 62
     1
 10
38.1718923361102114
 20
299.4928580859119052
 30
-0.0000000000000665
 11
38.4794945527671217
 21
298.8332030035260232
 31
-0.0000000000000664
210
0.0
220
1.0
230
-0.0000000000000002
  0
LINE
  5
F3AB
  8
0
  6
VERDECKT
 62
     1
 10
-38.1718923361102469
 20
299.4928580859117915
 30
-0.0000000000000665
 11
-38.479494552767207
 21
298.8332030035256821
 31
-0.0000000000000664
210
0.0
220
1.0
230
-0.0000000000000002
  0
ARC
  5
F3AC
  8
0
  6
VERDECKT
 62
     1
 10
-17.0000000000708589
 20
288.8171502002848001
 30
0.0
 40
23.699999999928739
210
0.0
220
-0.0000000000000002
230
-1.0
 50
154.9999999999554916
 51
180.0000000000071907
  0
ARC
  5
F3AD
  8
0
  6
VERDECKT
 62
     1
 10
17.0000000000703402
 20
288.8171502002846864
 30
0.0
 40
23.6999999999292505
210
0.0
220
-0.0000000000000002
230
-1.0
 50
359.9999999999928946
 51
25.0000000000436806
  0
LINE
  5
F3AE
  8
0
  6
VERDECKT
 62
     1
 10
-40.6999999999995907
 20
284.6376752632726266
 30
-0.0000000000000632
 11
-40.6999999999995907
 21
288.8171502002817874
 31
-0.0000000000000641
210
0.0
220
1.0
230
-0.0000000000000002
  0
LINE
  5
F3AF
  8
0
  6
VERDECKT
 62
     1
 10
40.6999999999995907
 20
284.6376752632726266
 30
-0.0000000000000632
 11
40.6999999999995907
 21
288.8171502002817874
 31
-0.0000000000000641
210
0.0
220
1.0
230
-0.0000000000000002
  0
ARC
  5
F3B0
  8
0
  6
VERDECKT
 62
     1
 10
-16.9941909850671102
 20
284.5737405743470845
 30
0.0
 40
23.70589523086824
210
0.0
220
-0.0000000000000002
230
-1.0
 50
179.8454733624220978
 51
201.0124127937332048
  0
ARC
  5
F3B1
  8
0
  6
VERDECKT
 62
     1
 10
16.9941909850661901
 20
284.5737405743473118
 30
0.0
 40
23.7058952308691602
210
0.0
220
-0.0000000000000002
230
-1.0
 50
338.9875872062672784
 51
0.1545266375774637
  0
ARC
  5
F3B2
  8
0
  6
VERDECKT
 62
     1
 10
-51.8999999999706887
 20
271.1281710573175019
 30
0.0
 40
13.6999999999710909
210
0.0
220
-0.0000000000000002
230
-1.0
 50
359.9999999999831175
 51
21.1600167708493103
  0
ARC
  5
F3B3
  8
0
  6
VERDECKT
 62
     1
 10
51.8999999999716692
 20
271.1281710573172745
 30
0.0
 40
13.6999999999720696
210
0.0
220
-0.0000000000000002
230
-1.0
 50
158.8399832291511871
 51
180.0000000000160014
  0
LINE
  5
F3B4
  8
0
  6
VERDECKT
 62
     1
 10
-38.1999999999995907
 20
250.8515060100289986
 30
-0.0000000000000557
 11
-38.1999999999995907
 21
271.1281710573134092
 31
-0.0000000000000602
210
0.0
220
1.0
230
-0.0000000000000002
  0
LINE
  5
F3B5
  8
0
  6
VERDECKT
 62
     1
 10
38.1999999999995907
 20
250.8515060100289986
 30
-0.0000000000000557
 11
38.1999999999995907
 21
271.1281710573134092
 31
-0.0000000000000602
210
0.0
220
1.0
230
-0.0000000000000002
  0
ARC
  5
F3B6
  8
0
  6
VERDECKT
 62
     1
 10
-27.4999999999948095
 20
250.8515060100311018
 30
0.0
 40
10.7000000000047599
210
0.0
220
-0.0000000000000002
230
-1.0
 50
180.0000000000111982
 51
211.3206695884101123
  0
ARC
  5
F3B7
  8
0
  6
VERDECKT
 62
     1
 10
27.4999999999948095
 20
250.8515060100311018
 30
0.0
 40
10.7000000000047599
210
0.0
220
-0.0000000000000002
230
-1.0
 50
328.679330411589774
 51
359.9999999999888018
  0
ARC
  5
F3B8
  8
0
  6
VERDECKT
 62
     1
 10
-44.4999999999829612
 20
240.5069422202952012
 30
0.0
 40
9.1999999999830067
210
0.0
220
-0.0000000000000002
230
-1.0
 50
359.9999999999561169
 51
31.3206695884328106
  0
ARC
  5
F3B9
  8
0
  6
VERDECKT
 62
     1
 10
44.4999999999828688
 20
240.5069422202952012
 30
0.0
 40
9.1999999999829285
210
0.0
220
-0.0000000000000002
230
-1.0
 50
148.6793304115668946
 51
180.0000000000437979
  0
ARC
  5
F3BA
  8
0
  6
VERDECKT
 62
     1
 10
-44.4999999999829399
 20
240.5069422202952012
 30
0.0
 40
7.9999999999829461
210
0.0
220
-0.0000000000000002
230
-1.0
 50
359.9999999999552074
 51
31.3206695884371484
  0
ARC
  5
F3BB
  8
0
  6
VERDECKT
 62
     1
 10
44.4999999999829399
 20
240.5069422202952012
 30
0.0
 40
7.9999999999829443
210
0.0
220
-0.0000000000000002
230
-1.0
 50
148.6793304115628018
 51
180.0000000000445937
  0
ARC
  5
F3BC
  8
0
  6
VERDECKT
 62
     1
 10
-27.4999999999919886
 20
250.8515060100320113
 30
0.0
 40
11.9000000000076405
210
0.0
220
-0.0000000000000002
230
-1.0
 50
180.0000000000144098
 51
211.3206695884061901
  0
ARC
  5
F3BD
  8
0
  6
VERDECKT
 62
     1
 10
27.4999999999919886
 20
250.8515060100320113
 30
0.0
 40
11.9000000000076405
210
0.0
220
-0.0000000000000002
230
-1.0
 50
328.6793304115938099
 51
359.9999999999855049
  0
LINE
  5
F3BE
  8
0
  6
VERDECKT
 62
     1
 10
-39.3999999999996433
 20
250.8515060100289986
 30
-0.0000000000000557
 11
-39.3999999999996433
 21
271.1281710573139776
 31
-0.0000000000000602
210
0.0
220
1.0
230
-0.0000000000000002
  0
LINE
  5
F3BF
  8
0
  6
VERDECKT
 62
     1
 10
39.3999999999996433
 20
250.8515060100289986
 30
-0.0000000000000557
 11
39.3999999999996433
 21
271.1281710573139776
 31
-0.0000000000000602
210
0.0
220
1.0
230
-0.0000000000000002
  0
ARC
  5
F3C0
  8
0
  6
VERDECKT
 62
     1
 10
-51.8999999999661625
 20
271.1281710573206851
 30
0.0
 40
12.4999999999665192
210
0.0
220
-0.0000000000000002
230
-1.0
 50
0.0
 51
21.166852039842091
  0
ARC
  5
F3C1
  8
0
  6
VERDECKT
 62
     1
 10
51.8999999999661625
 20
271.1281710573206851
 30
0.0
 40
12.4999999999665103
210
0.0
220
-0.0000000000000002
230
-1.0
 50
158.8331479601887111
 51
180.0000000000306954
  0
ARC
  5
F3C2
  8
0
  6
VERDECKT
 62
     1
 10
-16.9941909850610209
 20
284.5737405743481077
 30
0.0
 40
24.9058952308743784
210
0.0
220
-0.0000000000000002
230
-1.0
 50
179.8492419712250978
 51
201.0160940109917078
  0
ARC
  5
F3C3
  8
0
  6
VERDECKT
 62
     1
 10
16.9941909850610209
 20
284.5737405743481077
 30
0.0
 40
24.9058952308743606
210
0.0
220
-0.0000000000000002
230
-1.0
 50
338.9839059890082922
 51
0.1507580287748312
  0
LINE
  5
F3C4
  8
0
  6
VERDECKT
 62
     1
 10
-41.8999999999996291
 20
284.6392734874040116
 30
-0.0000000000000632
 11
-41.8999999999996291
 21
288.8171502002816737
 31
-0.0000000000000641
210
0.0
220
1.0
230
-0.0000000000000002
  0
LINE
  5
F3C5
  8
0
  6
VERDECKT
 62
     1
 10
41.8999999999996291
 20
284.6392734874040116
 30
-0.0000000000000632
 11
41.8999999999996291
 21
288.8171502002816737
 31
-0.0000000000000641
210
0.0
220
1.0
230
-0.0000000000000002
  0
ARC
  5
F3C6
  8
0
  6
VERDECKT
 62
     1
 10
-17.0000000000726601
 20
288.8171502002850843
 30
0.0
 40
24.899999999927001
210
0.0
220
-0.0000000000000002
230
-1.0
 50
154.9999999999585896
 51
180.0000000000079012
  0
ARC
  5
F3C7
  8
0
  6
VERDECKT
 62
     1
 10
17.0000000000726601
 20
288.8171502002850843
 30
0.0
 40
24.8999999999269903
210
0.0
220
-0.0000000000000002
230
-1.0
 50
0.0
 51
25.0000000000493614
  0
LINE
  5
F3C8
  8
0
  6
VERDECKT
 62
     1
 10
39.2594616805545229
 20
300.0
 30
-0.0000000000000666
 11
39.567063897211483
 21
299.3403449176140043
 31
-0.0000000000000665
210
0.0
220
1.0
230
-0.0000000000000002
  0
LINE
  5
F3C9
  8
0
  6
VERDECKT
 62
     1
 10
-39.2594616805545229
 20
300.0
 30
-0.0000000000000666
 11
-39.567063897211483
 21
299.3403449176140043
 31
-0.0000000000000665
210
0.0
220
1.0
230
-0.0000000000000002
  0
ENDBLK
  5
F3CB
  8
0
  0
ENDSEC
  0
SECTION
  2
ENTITIES
  0
INSERT
  5
712A
  8
ADSK_ASSOC_ENTITY_BACKUPS
  2
*S0
 10
0.0
 20
0.0
 30
0.0
  0
INSERT
  5
F338
  8
STEMPEL
  2
A$C98EDAE82
 10
0.0
 20
-200.0
 30
0.0
  0
INSERT
  5
F3CC
  8
STEMPEL
  2
A$C9A425BAA
 10
0.0
 20
0.0
 30
0.0
  0
VIEWPORT
  5
7108
 67
     1
  8
0
 10
148.2647925857833968
 20
209.7368337987994948
 30
0.0
 40
790.2674510967766537
 41
422.1483375959080035
 68
     1
 69
     1
1001
ACAD
1000
MVIEW
1002
{
1070
    16
1010
0.0
1020
0.0
1030
0.0
1010
0.0
1020
0.0
1030
1.0
1040
0.0
1040
422.1483375959080035
1040
148.2647925857833968
1040
209.7368337987994948
1040
50.0
1040
0.0
1040
0.0
1070
     0
1070
  1500
1070
     1
1070
     1
1070
     0
1070
     0
1070
     0
1070
     0
1040
0.0
1040
0.0
1040
0.0
1040
10.0
1040
10.0
1040
10.0
1040
10.0
1070
     0
1002
{
1002
}
1002
}
  0
ENDSEC
  0
EOF
