  0
SECTION
  2
HEADER
  9
$ACADVER
  1
AC1009
  9
$INSBASE
 10
0.0
 20
0.0
 30
0.0
  9
$EXTMIN
 10
-200.0
 20
-480.0
 30
-0.0000000000000692
  9
$EXTMAX
 10
200.0
 20
300.0000000000001137
 30
0.0000000000000568
  9
$LIMMIN
 10
0.0
 20
0.0
  9
$LIMMAX
 10
419.9999999999998863
 20
594.0
  9
$ORTHOMODE
 70
     1
  9
$REGENMODE
 70
     1
  9
$FILLMODE
 70
     1
  9
$QTEXTMODE
 70
     0
  9
$MIRRTEXT
 70
     1
  9
$DRAGMODE
 70
     2
  9
$LTSCALE
 40
20.0
  9
$OSMODE
 70
   511
  9
$ATTMODE
 70
     1
  9
$TEXTSIZE
 40
3.5
  9
$TRACEWID
 40
0.5
  9
$TEXTSTYLE
  7
STANDARD
  9
$CLAYER
  8
STEMPEL
  9
$CELTYPE
  6
BYLAYER
  9
$CECOLOR
 62
   256
  9
$DIMSCALE
 40
1.0
  9
$DIMASZ
 40
3.5
  9
$DIMEXO
 40
1.0
  9
$DIMDLI
 40
0.38
  9
$DIMRND
 40
0.0
  9
$DIMDLE
 40
0.0
  9
$DIMEXE
 40
1.0
  9
$DIMTP
 40
0.0
  9
$DIMTM
 40
0.000000001
  9
$DIMTXT
 40
3.5
  9
$DIMCEN
 40
0.09
  9
$DIMTSZ
 40
0.0
  9
$DIMTOL
 70
     0
  9
$DIMLIM
 70
     0
  9
$DIMTIH
 70
     0
  9
$DIMTOH
 70
     0
  9
$DIMSE1
 70
     0
  9
$DIMSE2
 70
     0
  9
$DIMTAD
 70
     1
  9
$DIMZIN
 70
     8
  9
$DIMBLK
  1

  9
$DIMASO
 70
     1
  9
$DIMSHO
 70
     0
  9
$DIMPOST
  1

  9
$DIMAPOST
  1

  9
$DIMALT
 70
     0
  9
$DIMALTD
 70
     2
  9
$DIMALTF
 40
25.3999999999999986
  9
$DIMLFAC
 40
2.0
  9
$DIMTOFL
 70
     1
  9
$DIMTVP
 40
0.0
  9
$DIMTIX
 70
     0
  9
$DIMSOXD
 70
     0
  9
$DIMSAH
 70
     0
  9
$DIMBLK1
  1

  9
$DIMBLK2
  1

  9
$DIMSTYLE
  2
LORO
  9
$DIMCLRD
 70
     0
  9
$DIMCLRE
 70
     0
  9
$DIMCLRT
 70
     1
  9
$DIMTFAC
 40
0.5
  9
$DIMGAP
 40
1.5
  9
$LUNITS
 70
     2
  9
$LUPREC
 70
     2
  9
$SKETCHINC
 40
1.0
  9
$FILLETRAD
 40
5.0
  9
$AUNITS
 70
     0
  9
$AUPREC
 70
     0
  9
$MENU
  1
ACAD
  9
$ELEVATION
 40
0.0
  9
$PELEVATION
 40
0.0
  9
$THICKNESS
 40
0.0
  9
$LIMCHECK
 70
     0
  9
$BLIPMODE
 70
     0
  9
$CHAMFERA
 40
0.0
  9
$CHAMFERB
 40
0.0
  9
$SKPOLY
 70
     0
  9
$TDCREATE
 40
2455397.8646990740671754
  9
$TDUPDATE
 40
2460048.5783680560998619
  9
$TDINDWG
 40
1.2642922916999999
  9
$TDUSRTIMER
 40
1.2642922916999999
  9
$USRTIMER
 70
     1
  9
$ANGBASE
 50
0.0
  9
$ANGDIR
 70
     0
  9
$PDMODE
 70
     0
  9
$PDSIZE
 40
0.0
  9
$PLINEWID
 40
0.0
  9
$COORDS
 70
     1
  9
$SPLFRAME
 70
     0
  9
$SPLINETYPE
 70
     6
  9
$SPLINESEGS
 70
     8
  9
$ATTDIA
 70
     1
  9
$ATTREQ
 70
     1
  9
$HANDLING
 70
     1
  9
$HANDSEED
  5
7596
  9
$SURFTAB1
 70
     6
  9
$SURFTAB2
 70
     6
  9
$SURFTYPE
 70
     6
  9
$SURFU
 70
     6
  9
$SURFV
 70
     6
  9
$UCSNAME
  2

  9
$UCSORG
 10
0.0
 20
0.0
 30
0.0
  9
$UCSXDIR
 10
1.0
 20
0.0
 30
0.0
  9
$UCSYDIR
 10
0.0
 20
1.0
 30
0.0
  9
$PUCSNAME
  2

  9
$PUCSORG
 10
0.0
 20
0.0
 30
0.0
  9
$PUCSXDIR
 10
1.0
 20
0.0
 30
0.0
  9
$PUCSYDIR
 10
0.0
 20
1.0
 30
0.0
  9
$USERI1
 70
     0
  9
$USERI2
 70
     0
  9
$USERI3
 70
     0
  9
$USERI4
 70
     0
  9
$USERI5
 70
     0
  9
$USERR1
 40
0.0
  9
$USERR2
 40
0.0
  9
$USERR3
 40
0.0
  9
$USERR4
 40
0.0
  9
$USERR5
 40
0.0
  9
$WORLDVIEW
 70
     1
  9
$SHADEDGE
 70
     3
  9
$SHADEDIF
 70
    70
  9
$TILEMODE
 70
     1
  9
$MAXACTVP
 70
    16
  9
$PLIMCHECK
 70
     0
  9
$PEXTMIN
 10
1.0000000000000000E+20
 20
1.0000000000000000E+20
 30
1.0000000000000000E+20
  9
$PEXTMAX
 10
-1.0000000000000000E+20
 20
-1.0000000000000000E+20
 30
-1.0000000000000000E+20
  9
$PLIMMIN
 10
-2.9711966135658772
 20
-2.099319443480824
  9
$PLIMMAX
 10
596.9688033864341605
 20
422.1006805565190803
  9
$UNITMODE
 70
     0
  9
$VISRETAIN
 70
     0
  9
$PLINEGEN
 70
     0
  9
$PSLTSCALE
 70
     0
  0
ENDSEC
  0
SECTION
  2
TABLES
  0
TABLE
  2
VPORT
 70
     1
  0
VPORT
  2
*ACTIVE
 70
     0
 10
0.0
 20
0.0
 11
1.0
 21
1.0
 12
0.0000000000001137
 22
-139.9999999999998863
 13
0.0
 23
0.0
 14
1.0
 24
1.0
 15
10.0
 25
10.0
 16
-0.0000000000003863
 26
0.0
 36
1739.9347719279289777
 17
0.0
 27
50.0
 37
-0.0000000000000049
 40
783.989769820971901
 41
1.8720136518771331
 42
50.0
 43
0.0
 44
0.0
 50
0.0
 51
0.0
 71
     0
 72
  1500
 73
     1
 74
     0
 75
     0
 76
     0
 77
     0
 78
     0
  0
ENDTAB
  0
TABLE
  2
LTYPE
 70
     5
  0
LTYPE
  2
CONTINUOUS
 70
     0
  3
Solid line
 72
    65
 73
     0
 40
0.0
  0
LTYPE
  2
STRICHPUNKT
 70
     0
  3
__ . __ . __ . __ . __ . __ . __ . __ . __ . __
 72
    65
 73
     4
 40
1.0
 49
0.5
 49
-0.25
 49
0.0
 49
-0.25
  0
LTYPE
  2
VERDECKT
 70
     0
  3
_ _ _ _ _ _ _ _ _ _ _ _ _ _ _ _ _ _ _ _ _ _ _
 72
    65
 73
     2
 40
0.375
 49
0.25
 49
-0.125
  0
ENDTAB
  0
TABLE
  2
LAYER
 70
     6
  0
LAYER
  2
0
 70
     0
 62
     7
  6
CONTINUOUS
  0
LAYER
  2
VOLL
 70
     0
 62
     1
  6
CONTINUOUS
  0
LAYER
  2
STEMPEL
 70
     0
 62
     3
  6
CONTINUOUS
  0
LAYER
  2
ADSK_ASSOC_ENTITY_BACKUPS
 70
     1
 62
    -7
  6
CONTINUOUS
  0
ENDTAB
  0
TABLE
  2
STYLE
 70
     2
  0
STYLE
  2
STANDARD
 70
     0
 40
0.0
 41
0.8
 50
0.0
 71
     0
 42
3.5
  3
simplex.shx
  4

  0
STYLE
  2
GREEKS
 70
     0
 40
0.0
 41
0.8
 50
0.0
 71
     0
 42
2.5
  3
SIMPLEX.shx
  4

  0
ENDTAB
  0
TABLE
  2
VIEW
 70
     0
  0
ENDTAB
  0
TABLE
  2
UCS
 70
     0
  0
ENDTAB
  0
TABLE
  2
APPID
 70
    24
  0
APPID
  2
ACAD
 70
     0
  0
APPID
  2
ACAD_NAV_VCDISPLAY
 70
     0
  0
APPID
  2
ACAD_STEPID
 70
     0
  0
APPID
  2
ACAECLAYERSTANDARD
 70
     0
  0
APPID
  2
ACCMTRANSPARENCY
 70
     0
  0
APPID
  2
ACAD_PSEXT
 70
     0
  0
APPID
  2
ACAD_EXEMPT_FROM_CAD_STANDARDS
 70
     0
  0
APPID
  2
ACSYNERGY
 70
     0
  0
APPID
  2
SYNERGY_BODY_TBR_ID
 70
     0
  0
APPID
  2
ACAD_VIEW_EDGE_ID
 70
     0
  0
APPID
  2
ACSYNERGYSKETCH
 70
     0
  0
APPID
  2
ACAD_MODELDOC_XFORM
 70
     0
  0
APPID
  2
ACDBDYNAMICBLOCKGUID
 70
     0
  0
APPID
  2
ACAD_DSTYLE_DIMJAG
 70
     0
  0
APPID
  2
ACAD_DSTYLE_DIMBREAK
 70
     0
  0
APPID
  2
ACAD_DSTYLE_DIMTALN
 70
     0
  0
APPID
  2
ACADANNOMONITORALERTICONDI
 70
     0
  0
APPID
  2
ACADANNOPO
 70
     0
  0
APPID
  2
ACAD_DIMASSOC_CALC_DIMLFAC
 70
     0
  0
APPID
  2
ACAD_DIMASSOC_DIMLFAC
 70
     0
  0
APPID
  2
ACAD_DIMASSOC_OVERRIDDEN_D
 70
     0
  0
APPID
  2
ACAD_DSTYLE_DIMRADIAL_EXTENSION
 70
     0
  0
APPID
  2
ACAD_TC
 70
     0
  0
APPID
  2
ACAD_MLEADERVER
 70
     0
  0
ENDTAB
  0
TABLE
  2
DIMSTYLE
 70
     7
  0
DIMSTYLE
  2
LORO
 70
     0
  3

  4

  5

  6

  7

 40
1.0
 41
3.5
 42
1.0
 43
0.38
 44
1.0
 45
0.0
 46
0.0
 47
0.0
 48
0.000000001
140
3.5
141
0.09
142
0.0
143
25.3999999999999986
144
2.0
145
0.0
146
0.5
147
1.5
 71
     0
 72
     0
 73
     0
 74
     0
 75
     0
 76
     0
 77
     1
 78
     8
170
     0
171
     2
172
     1
173
     0
174
     0
175
     0
176
     0
177
     0
178
     1
  0
ENDTAB
  0
ENDSEC
  0
SECTION
  2
BLOCKS
  0
BLOCK
  8
0
  2
$MODEL_SPACE
 70
     0
 10
0.0
 20
0.0
 30
0.0
  3
$MODEL_SPACE
  1

  0
ENDBLK
  5
36
  8
0
  0
BLOCK
 67
     1
  8
0
  2
$PAPER_SPACE
 70
     0
 10
0.0
 20
0.0
 30
0.0
  3
$PAPER_SPACE
  1

  0
ENDBLK
  5
34
 67
     1
  8
0
  0
BLOCK
  8
0
  2
*S0
 70
     1
 10
0.0
 20
0.0
 30
0.0
  3
*S0
  1

  0
ENDBLK
  5
171D
  8
0
  0
BLOCK
  8
0
  2
A$CB1FA18E9
 70
     0
 10
0.0
 20
0.0
 30
0.0
  3
A$CB1FA18E9
  1

  0
LINE
  5
74D5
  8
0
  6
CONTINUOUS
 62
     3
 10
-58.88809651072647
 20
285.0000000000001137
 30
-0.0000000000000633
 11
58.8880965107264416
 21
285.0000000000001137
 31
-0.0000000000000633
210
0.0
220
1.0
230
-0.0000000000000002
  0
LINE
  5
74D6
  8
0
  6
CONTINUOUS
 62
     3
 10
200.0
 20
298.0
 30
-0.0000000000000662
 11
180.0
 21
298.0
 31
-0.0000000000000662
210
0.0
220
1.0
230
-0.0000000000000002
  0
LINE
  5
74D7
  8
0
  6
CONTINUOUS
 62
     3
 10
180.0
 20
297.0
 30
-0.0000000000000659
 11
200.0
 21
297.0
 31
-0.0000000000000659
210
0.0
220
1.0
230
-0.0000000000000002
  0
LINE
  5
74D8
  8
0
  6
CONTINUOUS
 62
     3
 10
200.0
 20
298.0
 30
-0.0000000000000662
 11
200.0
 21
297.0
 31
-0.0000000000000659
210
0.0
220
1.0
230
-0.0000000000000002
  0
LINE
  5
74D9
  8
0
  6
CONTINUOUS
 62
     3
 10
-200.0
 20
298.0
 30
-0.0000000000000662
 11
-200.0
 21
297.0
 31
-0.0000000000000659
210
0.0
220
1.0
230
-0.0000000000000002
  0
LINE
  5
74DA
  8
0
  6
CONTINUOUS
 62
     3
 10
-180.0
 20
298.0
 30
-0.0000000000000662
 11
-200.0
 21
298.0
 31
-0.0000000000000662
210
0.0
220
1.0
230
-0.0000000000000002
  0
LINE
  5
74DB
  8
0
  6
CONTINUOUS
 62
     3
 10
-200.0
 20
297.0
 30
-0.0000000000000659
 11
-180.0
 21
297.0
 31
-0.0000000000000659
210
0.0
220
1.0
230
-0.0000000000000002
  0
LINE
  5
74DC
  8
0
  6
CONTINUOUS
 62
     3
 10
-180.0
 20
298.0
 30
-0.0000000000000662
 11
180.0
 21
298.0
 31
-0.0000000000000662
210
0.0
220
1.0
230
-0.0000000000000002
  0
LINE
  5
74DD
  8
0
  6
CONTINUOUS
 62
     3
 10
180.0
 20
297.0
 30
-0.0000000000000659
 11
-180.0
 21
297.0
 31
-0.0000000000000659
210
0.0
220
1.0
230
-0.0000000000000002
  0
ARC
  5
74DE
  8
0
  6
CONTINUOUS
 62
     3
 10
61.6127167972643193
 20
296.0000000000002274
 30
0.0
 40
0.9999999999998294
210
0.0
220
-0.0000000000000002
230
-1.0
 50
89.9999999999959357
 51
171.1507489187152089
  0
ARC
  5
74DF
  8
0
  6
CONTINUOUS
 62
     3
 10
-61.6127167972643193
 20
296.0000000000002274
 30
0.0
 40
0.9999999999998651
210
0.0
220
-0.0000000000000002
230
-1.0
 50
8.8492510812848142
 51
90.0000000000040643
  0
LINE
  5
74E0
  8
0
  6
CONTINUOUS
 62
     3
 10
-58.8880965107264274
 20
285.0000000000001137
 30
-0.0000000000000633
 11
-60.6246202865379686
 21
296.153835254380283
 31
-0.0000000000000658
210
0.0
220
1.0
230
-0.0000000000000002
  0
LINE
  5
74E1
  8
0
  6
CONTINUOUS
 62
     3
 10
58.8880965107264274
 20
285.0000000000001137
 30
-0.0000000000000633
 11
60.6246202865379686
 21
296.153835254380283
 31
-0.0000000000000658
210
0.0
220
1.0
230
-0.0000000000000002
  0
LINE
  5
74E2
  8
0
  6
CONTINUOUS
 62
     3
 10
-54.2197424892703879
 20
300.0000000000001137
 30
-0.0000000000000666
 11
54.2197424892703879
 21
300.0000000000001137
 31
-0.0000000000000666
210
0.0
220
1.0
230
-0.0000000000000002
  0
LINE
  5
74E3
  8
0
  6
CONTINUOUS
 62
     3
 10
-49.9251133647410512
 20
0.0000000000000568
 30
0.0
 11
49.925113364741037
 21
0.0000000000000568
 31
0.0
210
0.0
220
1.0
230
-0.0000000000000002
  0
LINE
  5
74E4
  8
0
  6
CONTINUOUS
 62
     3
 10
53.8999999999999702
 20
256.3468917126077145
 30
-0.0000000000000569
 11
53.8999999999999702
 21
177.3446878426638875
 31
-0.0000000000000394
210
0.0
220
1.0
230
-0.0000000000000002
  0
LINE
  5
74E5
  8
0
  6
CONTINUOUS
 62
     3
 10
-53.8999999999999702
 20
256.3468917126077145
 30
-0.0000000000000569
 11
-53.8999999999999702
 21
177.3446878426638875
 31
-0.0000000000000394
210
0.0
220
1.0
230
-0.0000000000000002
  0
ARC
  5
74E6
  8
0
  6
CONTINUOUS
 62
     3
 10
39.3999999999999631
 20
177.3446878426638023
 30
0.0
 40
14.5000000000000195
210
0.0
220
-0.0000000000000002
230
-1.0
 50
329.5670170332144266
 51
0.0
  0
ARC
  5
74E7
  8
0
  6
CONTINUOUS
 62
     3
 10
-39.3999999999999631
 20
177.3446878426638023
 30
0.0
 40
14.5000000000000195
210
0.0
220
-0.0000000000000002
230
-1.0
 50
180.0
 51
210.4329829667854881
  0
ARC
  5
74E8
  8
0
  6
CONTINUOUS
 62
     3
 10
58.8000000000000398
 20
165.9477584316339005
 30
0.0
 40
8.0000000000000746
210
0.0
220
-0.0000000000000002
230
-1.0
 50
149.5670170332145972
 51
179.999999999999801
  0
ARC
  5
74E9
  8
0
  6
CONTINUOUS
 62
     3
 10
-58.7999999999997698
 20
165.9477584316339005
 30
0.0
 40
7.999999999999801
210
0.0
220
-0.0000000000000002
230
-1.0
 50
359.9999999999997726
 51
30.4329829667858291
  0
ARC
  5
74EA
  8
0
  6
CONTINUOUS
 62
     3
 10
66.3999999999999346
 20
256.3468917126077145
 30
0.0
 40
12.4999999999999503
210
0.0
220
-0.0000000000000002
230
-1.0
 50
153.1119523822760868
 51
180.0
  0
ARC
  5
74EB
  8
0
  6
CONTINUOUS
 62
     3
 10
-66.3999999999998209
 20
256.3468917126077145
 30
0.0
 40
12.4999999999998295
210
0.0
220
-0.0000000000000002
230
-1.0
 50
0.0
 51
26.8880476177241015
  0
ARC
  5
74EC
  8
0
  6
CONTINUOUS
 62
     3
 10
33.3999999999998778
 20
273.0800922432893003
 30
0.0
 40
24.5000000000001315
210
0.0
220
-0.0000000000000002
230
-1.0
 50
333.1119523822760016
 51
359.9999999999997726
  0
ARC
  5
74ED
  8
0
  6
CONTINUOUS
 62
     3
 10
-33.4000000000001407
 20
273.0800922432893003
 30
0.0
 40
24.4999999999998614
210
0.0
220
-0.0000000000000002
230
-1.0
 50
180.0
 51
206.8880476177241121
  0
LINE
  5
74EE
  8
0
  6
CONTINUOUS
 62
     3
 10
57.8999999999999986
 20
285.0000000000001137
 30
-0.0000000000000633
 11
57.8999999999999986
 21
273.0800922432893003
 31
-0.0000000000000606
210
0.0
220
1.0
230
-0.0000000000000002
  0
LINE
  5
74EF
  8
0
  6
CONTINUOUS
 62
     3
 10
-57.8999999999999986
 20
285.0000000000001137
 30
-0.0000000000000633
 11
-57.8999999999999986
 21
273.0800922432893003
 31
-0.0000000000000606
210
0.0
220
1.0
230
-0.0000000000000002
  0
ARC
  5
74F0
  8
0
  6
CONTINUOUS
 62
     3
 10
33.3999999999945203
 20
287.0853446549842261
 30
0.0
 40
24.5000000000062599
210
0.0
220
-0.0000000000000002
230
-1.0
 50
26.4550858057781113
 51
31.8116631867226687
  0
ARC
  5
74F1
  8
0
  6
CONTINUOUS
 62
     3
 10
-33.3999999999945274
 20
287.0853446549842261
 30
0.0
 40
24.5000000000062492
210
0.0
220
-0.0000000000000002
230
-1.0
 50
148.1883368132772887
 51
153.5449141942218887
  0
ARC
  5
74F2
  8
0
  6
CONTINUOUS
 62
     3
 10
49.800000000000658
 20
10.0436609429068504
 30
0.0
 40
0.9999999999992896
210
0.0
220
-0.0000000000000002
230
-1.0
 50
355.0000000000002842
 51
0.0000000000004071
  0
ARC
  5
74F3
  8
0
  6
CONTINUOUS
 62
     3
 10
-49.800000000000658
 20
10.0436609429068504
 30
0.0
 40
0.9999999999992893
210
0.0
220
-0.0000000000000002
230
-1.0
 50
179.9999999999996021
 51
184.9999999999996021
  0
LINE
  5
74F4
  8
0
  6
CONTINUOUS
 62
     3
 10
-49.9251133647413781
 20
0.0000000000000258
 30
0.0
 11
-50.7961946980917034
 21
9.9565052001592562
 31
-0.0000000000000022
210
0.0
220
1.0
230
-0.0000000000000002
  0
LINE
  5
74F5
  8
0
  6
CONTINUOUS
 62
     3
 10
49.9251133647413781
 20
0.0000000000000249
 30
0.0
 11
50.7961946980917034
 21
9.9565052001592562
 31
-0.0000000000000022
210
0.0
220
1.0
230
-0.0000000000000002
  0
LINE
  5
74F6
  8
0
  6
CONTINUOUS
 62
     3
 10
50.7999999999999474
 20
165.9477584316339005
 30
-0.0000000000000368
 11
50.7999999999999474
 21
10.0436609429068504
 31
-0.0000000000000022
210
0.0
220
1.0
230
-0.0000000000000002
  0
LINE
  5
74F7
  8
0
  6
CONTINUOUS
 62
     3
 10
-50.7999999999999474
 20
165.9477584316339005
 30
-0.0000000000000368
 11
-50.7999999999999474
 21
10.0436609429068504
 31
-0.0000000000000022
210
0.0
220
1.0
230
-0.0000000000000002
  0
LINE
  5
74F8
  8
0
  6
VERDECKT
 62
     1
 10
-57.8999999999999986
 20
285.153835254380283
 30
-0.0000000000000633
 11
57.8999999999999986
 21
285.153835254380283
 31
-0.0000000000000633
210
0.0
220
1.0
230
-0.0000000000000002
  0
LINE
  5
74F9
  8
0
  6
VERDECKT
 62
     1
 10
57.8999999999999915
 20
285.153835254380283
 30
-0.0000000000000633
 11
58.8880965107264416
 21
285.0000000000001137
 31
-0.0000000000000633
210
0.0
220
1.0
230
-0.0000000000000002
  0
LINE
  5
74FA
  8
0
  6
VERDECKT
 62
     1
 10
-57.8999999999999915
 20
285.153835254380283
 30
-0.0000000000000633
 11
-58.8880965107264416
 21
285.0000000000001137
 31
-0.0000000000000633
210
0.0
220
1.0
230
-0.0000000000000002
  0
LINE
  5
74FB
  8
0
  6
VERDECKT
 62
     1
 10
-57.8999999999999986
 20
285.153835254380283
 30
-0.0000000000000633
 11
-59.6365237758115185
 21
296.3076705087605092
 31
-0.0000000000000658
210
0.0
220
1.0
230
-0.0000000000000002
  0
LINE
  5
74FC
  8
0
  6
VERDECKT
 62
     1
 10
57.8999999999999986
 20
285.153835254380283
 30
-0.0000000000000633
 11
59.6365237758115185
 21
296.3076705087605092
 31
-0.0000000000000658
210
0.0
220
1.0
230
-0.0000000000000002
  0
ARC
  5
74FD
  8
0
  6
VERDECKT
 62
     1
 10
61.612716797264369
 20
296.0000000000001137
 30
0.0
 40
1.9999999999999429
210
0.0
220
-0.0000000000000002
230
-1.0
 50
89.9999999999992042
 51
171.1507489187144984
  0
ARC
  5
74FE
  8
0
  6
VERDECKT
 62
     1
 10
-61.612716797264369
 20
296.0000000000001137
 30
0.0
 40
1.999999999999964
210
0.0
220
-0.0000000000000002
230
-1.0
 50
8.8492510812854235
 51
90.00000000000081
  0
LINE
  5
74FF
  8
0
  6
VERDECKT
 62
     1
 10
-177.0
 20
298.0
 30
-0.0000000000000662
 11
-177.0
 21
297.0
 31
-0.0000000000000659
210
0.0
220
1.0
230
-0.0000000000000002
  0
LINE
  5
7500
  8
0
  6
VERDECKT
 62
     1
 10
-183.0
 20
298.0
 30
-0.0000000000000662
 11
-183.0
 21
297.0
 31
-0.0000000000000659
210
0.0
220
1.0
230
-0.0000000000000002
  0
LINE
  5
7501
  8
0
  6
VERDECKT
 62
     1
 10
183.0
 20
298.0
 30
-0.0000000000000662
 11
183.0
 21
297.0
 31
-0.0000000000000659
210
0.0
220
1.0
230
-0.0000000000000002
  0
LINE
  5
7502
  8
0
  6
VERDECKT
 62
     1
 10
177.0
 20
298.0
 30
-0.0000000000000662
 11
177.0
 21
297.0
 31
-0.0000000000000659
210
0.0
220
1.0
230
-0.0000000000000002
  0
LINE
  5
7503
  8
0
  6
VERDECKT
 62
     1
 10
-53.1999999999999886
 20
299.3674454524892781
 30
-0.0000000000000665
 11
53.2000000000000028
 21
299.3674454524892781
 31
-0.0000000000000665
210
0.0
220
1.0
230
-0.0000000000000002
  0
LINE
  5
7504
  8
0
  6
VERDECKT
 62
     1
 10
-48.7296797270312396
 20
0.104586891297231
 30
0.0
 11
48.7296797270312112
 21
0.104586891297231
 31
0.0
210
0.0
220
1.0
230
-0.0000000000000002
  0
ARC
  5
7505
  8
0
  6
VERDECKT
 62
     1
 10
58.7999999999999403
 20
165.9477584316339005
 30
0.0
 40
9.1999999999999869
210
0.0
220
-0.0000000000000002
230
-1.0
 50
149.5670170332145119
 51
179.999999999999801
  0
ARC
  5
7506
  8
0
  6
VERDECKT
 62
     1
 10
-58.7999999999997414
 20
165.9477584316339005
 30
0.0
 40
9.1999999999997755
210
0.0
220
-0.0000000000000002
230
-1.0
 50
359.9999999999996021
 51
30.4329829667856586
  0
ARC
  5
7507
  8
0
  6
VERDECKT
 62
     1
 10
39.4000000000000483
 20
177.3446878426638023
 30
0.0
 40
13.2999999999999297
210
0.0
220
-0.0000000000000002
230
-1.0
 50
329.5670170332144266
 51
0.0000000000000877
  0
ARC
  5
7508
  8
0
  6
VERDECKT
 62
     1
 10
-39.4000000000000483
 20
177.3446878426638023
 30
0.0
 40
13.2999999999999403
210
0.0
220
-0.0000000000000002
230
-1.0
 50
179.9999999999998863
 51
210.4329829667856018
  0
LINE
  5
7509
  8
0
  6
VERDECKT
 62
     1
 10
52.6999999999999886
 20
256.346891712607885
 30
-0.0000000000000569
 11
52.6999999999999886
 21
177.3446878426638875
 31
-0.0000000000000394
210
0.0
220
1.0
230
-0.0000000000000002
  0
LINE
  5
750A
  8
0
  6
VERDECKT
 62
     1
 10
-52.6999999999999886
 20
256.346891712607885
 30
-0.0000000000000569
 11
-52.6999999999999886
 21
177.3446878426638875
 31
-0.0000000000000394
210
0.0
220
1.0
230
-0.0000000000000002
  0
LINE
  5
750B
  8
0
  6
VERDECKT
 62
     1
 10
-53.2000000000000028
 20
299.3674454524892781
 30
-0.0000000000000665
 11
-54.2197424892703879
 21
300.0000000000001137
 31
-0.0000000000000666
210
0.0
220
1.0
230
-0.0000000000000002
  0
LINE
  5
750C
  8
0
  6
VERDECKT
 62
     1
 10
53.2000000000000028
 20
299.3674454524892781
 30
-0.0000000000000665
 11
54.2197424892703879
 21
300.0000000000001137
 31
-0.0000000000000666
210
0.0
220
1.0
230
-0.0000000000000002
  0
ARC
  5
750D
  8
0
  6
VERDECKT
 62
     1
 10
33.3999999999999204
 20
287.0853446549871819
 30
0.0
 40
23.3000000000000789
210
0.0
220
-0.0000000000000002
230
-1.0
 50
0.0
 51
31.8116631867233401
  0
ARC
  5
750E
  8
0
  6
VERDECKT
 62
     1
 10
-33.4000000000000199
 20
287.0853446549871819
 30
0.0
 40
23.3000000000000007
210
0.0
220
-0.0000000000000002
230
-1.0
 50
148.1883368132764929
 51
180.0
  0
LINE
  5
750F
  8
0
  6
VERDECKT
 62
     1
 10
56.7000000000000099
 20
287.0853446549871819
 30
-0.0000000000000637
 11
56.7000000000000099
 21
273.0800922432895277
 31
-0.0000000000000606
210
0.0
220
1.0
230
-0.0000000000000002
  0
LINE
  5
7510
  8
0
  6
VERDECKT
 62
     1
 10
-56.7000000000000099
 20
287.0853446549871819
 30
-0.0000000000000637
 11
-56.7000000000000099
 21
273.0800922432895277
 31
-0.0000000000000606
210
0.0
220
1.0
230
-0.0000000000000002
  0
ARC
  5
7511
  8
0
  6
VERDECKT
 62
     1
 10
33.4000000000003183
 20
273.0800922432890729
 30
0.0
 40
23.2999999999996597
210
0.0
220
-0.0000000000000002
230
-1.0
 50
333.1119523822757174
 51
0.0000000000008397
  0
ARC
  5
7512
  8
0
  6
VERDECKT
 62
     1
 10
-33.4000000000003183
 20
273.0800922432890729
 30
0.0
 40
23.2999999999996703
210
0.0
220
-0.0000000000000002
230
-1.0
 50
179.9999999999992042
 51
206.8880476177243111
  0
ARC
  5
7513
  8
0
  6
VERDECKT
 62
     1
 10
66.400000000000162
 20
256.3468917126077145
 30
0.0
 40
13.7000000000001698
210
0.0
220
-0.0000000000000002
230
-1.0
 50
153.1119523822760868
 51
179.9999999999990052
  0
ARC
  5
7514
  8
0
  6
VERDECKT
 62
     1
 10
-66.3999999999999488
 20
256.3468917126077145
 30
0.0
 40
13.6999999999999602
210
0.0
220
-0.0000000000000002
230
-1.0
 50
0.0000000000009542
 51
26.8880476177239593
  0
LINE
  5
7515
  8
0
  6
VERDECKT
 62
     1
 10
57.8999999999999986
 20
287.0853446549872956
 30
-0.0000000000000637
 11
57.8999999999999986
 21
285.0000000000001137
 31
-0.0000000000000633
210
0.0
220
1.0
230
-0.0000000000000002
  0
LINE
  5
7516
  8
0
  6
VERDECKT
 62
     1
 10
-57.8999999999999986
 20
287.0853446549872956
 30
-0.0000000000000637
 11
-57.8999999999999986
 21
285.0000000000001137
 31
-0.0000000000000633
210
0.0
220
1.0
230
-0.0000000000000002
  0
ARC
  5
7517
  8
0
  6
VERDECKT
 62
     1
 10
33.3999999999998494
 20
287.0853446549871819
 30
0.0
 40
24.5000000000001599
210
0.0
220
-0.0000000000000002
230
-1.0
 50
0.0000000000001399
 51
26.4550858057774789
  0
ARC
  5
7518
  8
0
  6
VERDECKT
 62
     1
 10
-33.3999999999998494
 20
287.0853446549871819
 30
0.0
 40
24.5000000000001705
210
0.0
220
-0.0000000000000002
230
-1.0
 50
153.544914194222514
 51
179.999999999999801
  0
ARC
  5
7519
  8
0
  6
VERDECKT
 62
     1
 10
48.600000000001927
 20
10.0959548244139299
 30
0.0
 40
0.9999999999980389
210
0.0
220
-0.0000000000000002
230
-1.0
 50
354.9999501490535181
 51
0.000000000002748
  0
ARC
  5
751A
  8
0
  6
VERDECKT
 62
     1
 10
-48.600000000001927
 20
10.0959548244139299
 30
0.0
 40
0.9999999999980389
210
0.0
220
-0.0000000000000002
230
-1.0
 50
179.9999999999971863
 51
185.0000498509463966
  0
LINE
  5
751B
  8
0
  6
VERDECKT
 62
     1
 10
-48.729679727031133
 20
0.1045868912972399
 30
0.0
 11
-49.5961946222603487
 21
10.0087982149141794
 31
-0.0000000000000022
210
0.0
220
1.0
230
-0.0000000000000002
  0
LINE
  5
751C
  8
0
  6
VERDECKT
 62
     1
 10
48.729679727031133
 20
0.104586891297239
 30
0.0
 11
49.5961946222603487
 21
10.0087982149141794
 31
-0.0000000000000022
210
0.0
220
1.0
230
-0.0000000000000002
  0
LINE
  5
751D
  8
0
  6
VERDECKT
 62
     1
 10
49.599999999999973
 20
165.9477584316339005
 30
-0.0000000000000368
 11
49.599999999999973
 21
10.0959548244139796
 31
-0.0000000000000022
210
0.0
220
1.0
230
-0.0000000000000002
  0
LINE
  5
751E
  8
0
  6
VERDECKT
 62
     1
 10
-49.599999999999973
 20
165.9477584316339005
 30
-0.0000000000000368
 11
-49.599999999999973
 21
10.0959548244139796
 31
-0.0000000000000022
210
0.0
220
1.0
230
-0.0000000000000002
  0
LINE
  5
751F
  8
0
  6
VERDECKT
 62
     1
 10
-49.9251133647411507
 20
0.0000000000000568
 30
0.0
 11
-48.7296797270314528
 21
0.1045868912971742
 31
0.0
210
0.0
220
1.0
230
-0.0000000000000002
  0
LINE
  5
7520
  8
0
  6
VERDECKT
 62
     1
 10
48.7296797270314386
 20
0.1045868912971742
 30
0.0
 11
49.9251133647411365
 21
0.0000000000000568
 31
0.0
210
0.0
220
1.0
230
-0.0000000000000002
  0
ENDBLK
  5
7522
  8
0
  0
BLOCK
  8
0
  2
A$CF864801B
 70
     0
 10
0.0
 20
0.0
 30
0.0
  3
A$CF864801B
  1

  0
CIRCLE
  5
7526
  8
0
  6
CONTINUOUS
 62
     3
 10
-179.9999999999998863
 20
-180.0
 30
-0.0000000000000568
 40
3.0
  0
CIRCLE
  5
7527
  8
0
  6
CONTINUOUS
 62
     3
 10
-179.9999999999998863
 20
179.9999999999998863
 30
-0.0000000000000568
 40
3.0000000000000089
  0
CIRCLE
  5
7528
  8
0
  6
CONTINUOUS
 62
     3
 10
180.0
 20
179.9999999999998863
 30
0.0000000000000568
 40
3.000000000000004
  0
CIRCLE
  5
7529
  8
0
  6
CONTINUOUS
 62
     3
 10
180.0
 20
-180.0
 30
0.0000000000000568
 40
2.999999999999992
  0
ARC
  5
752A
  8
0
  6
CONTINUOUS
 62
     3
 10
180.0
 20
-180.0
 30
0.0000000000000568
 40
20.0
 50
270.0
 51
0.0
  0
LINE
  5
752B
  8
0
  6
CONTINUOUS
 62
     3
 10
200.0
 20
-180.0
 30
0.0000000000000568
 11
200.0
 21
179.9999999999998863
 31
0.0000000000000568
  0
ARC
  5
752C
  8
0
  6
CONTINUOUS
 62
     3
 10
180.0
 20
179.9999999999998863
 30
0.0000000000000568
 40
20.0
 50
0.0
 51
90.0
  0
LINE
  5
752D
  8
0
  6
CONTINUOUS
 62
     3
 10
180.0
 20
199.9999999999998863
 30
0.0000000000000568
 11
-179.9999999999998863
 21
199.9999999999998863
 31
-0.0000000000000231
  0
ARC
  5
752E
  8
0
  6
CONTINUOUS
 62
     3
 10
-179.9999999999998863
 20
179.9999999999998863
 30
-0.0000000000000568
 40
20.0
 50
90.0
 51
180.0
  0
LINE
  5
752F
  8
0
  6
CONTINUOUS
 62
     3
 10
-199.9999999999998863
 20
179.9999999999998863
 30
-0.0000000000000568
 11
-199.9999999999998863
 21
-180.0
 31
-0.0000000000000568
  0
ARC
  5
7530
  8
0
  6
CONTINUOUS
 62
     3
 10
-179.9999999999998863
 20
-180.0
 30
-0.0000000000000568
 40
20.0
 50
180.0
 51
270.0
  0
LINE
  5
7531
  8
0
  6
CONTINUOUS
 62
     3
 10
-179.9999999999998863
 20
-200.0
 30
-0.0000000000000568
 11
180.0
 21
-200.0
 31
0.0000000000000231
  0
CIRCLE
  5
7532
  8
0
  6
CONTINUOUS
 62
     3
 10
0.0000000000000368
 20
-0.000000000000043
 30
0.0
 40
49.599999999999973
  0
CIRCLE
  5
7533
  8
0
  6
CONTINUOUS
 62
     3
 10
0.0000000000000569
 20
-0.0000000000000523
 30
0.0
 40
52.6999999999999886
  0
CIRCLE
  5
7534
  8
0
  6
CONTINUOUS
 62
     3
 10
0.0000000000000665
 20
-0.0000000000000568
 30
0.0
 40
53.2000000000000028
  0
CIRCLE
  5
7535
  8
0
  6
CONTINUOUS
 62
     3
 10
0.0000000000000666
 20
-0.0000000000000568
 30
0.0
 40
54.2197424892703879
  0
CIRCLE
  5
7536
  8
0
  6
CONTINUOUS
 62
     3
 10
0.0000000000000637
 20
-0.0000000000000555
 30
0.0
 40
57.8999999999999986
  0
CIRCLE
  5
7537
  8
0
  6
CONTINUOUS
 62
     3
 10
0.0
 20
0.0000000000000015
 30
0.0
 40
48.7296797270312396
  0
CIRCLE
  5
7538
  8
0
  6
VERDECKT
 62
     1
 10
0.0000000000000633
 20
-0.0000000000000568
 30
0.0
 40
58.8880965107264416
  0
CIRCLE
  5
7539
  8
0
  6
VERDECKT
 62
     1
 10
0.0000000000000569
 20
-0.0000000000000523
 30
0.0
 40
53.8999999999999702
  0
CIRCLE
  5
753A
  8
0
  6
VERDECKT
 62
     1
 10
0.0000000000000368
 20
-0.000000000000043
 30
0.0
 40
50.7999999999999474
  0
CIRCLE
  5
753B
  8
0
  6
VERDECKT
 62
     1
 10
0.0000000000000637
 20
-0.0000000000000555
 30
0.0
 40
56.7000000000000099
  0
CIRCLE
  5
753C
  8
0
  6
VERDECKT
 62
     1
 10
0.0
 20
0.0000000000000015
 30
0.0
 40
49.925113364741037
  0
ENDBLK
  5
753E
  8
0
  0
ENDSEC
  0
SECTION
  2
ENTITIES
  0
TEXT
  5
8F
  8
VOLL
 10
78.076754716981128
 20
31.025947764705851
 30
0.0
 40
1.8
  1

  7
GREEKS
  0
INSERT
  5
171F
  8
ADSK_ASSOC_ENTITY_BACKUPS
  2
*S0
 10
0.0
 20
0.0
 30
0.0
  0
INSERT
  5
7523
  8
STEMPEL
  2
A$CB1FA18E9
 10
0.0
 20
0.0
 30
0.0
  0
INSERT
  5
753F
  8
STEMPEL
  2
A$CF864801B
 10
0.0
 20
-279.9999999999998863
 30
0.0
  0
VIEWPORT
  5
16FD
 67
     1
  8
0
 10
296.9988033864340764
 20
210.0006805565190859
 30
0.0
 40
798.1701256077441258
 41
426.3698209718668863
 68
     1
 69
     1
1001
ACAD
1000
MVIEW
1002
{
1070
    16
1010
0.0
1020
0.0
1030
0.0
1010
0.0
1020
0.0
1030
1.0
1040
0.0
1040
426.3698209718668863
1040
296.9988033864340764
1040
210.0006805565190859
1040
50.0
1040
0.0
1040
0.0
1070
     0
1070
  1500
1070
     1
1070
     1
1070
     0
1070
     0
1070
     0
1070
     0
1040
0.0
1040
0.0
1040
0.0
1040
10.0
1040
10.0
1040
10.0
1040
10.0
1070
     0
1002
{
1002
}
1002
}
  0
ENDSEC
  0
EOF
