  0
SECTION
  2
HEADER
  9
$ACADVER
  1
AC1009
  9
$INSBASE
 10
0.0
 20
0.0
 30
0.0
  9
$EXTMIN
 10
31.7696970943892012
 20
72.16676231537744
 30
-0.0000000000000656
  9
$EXTMAX
 10
977.8288192779361907
 20
1780.4579866338749525
 30
799.9999999999997726
  9
$LIMMIN
 10
0.0
 20
0.0
  9
$LIMMAX
 10
595.0
 20
421.0
  9
$ORTHOMODE
 70
     1
  9
$REGENMODE
 70
     1
  9
$FILLMODE
 70
     1
  9
$QTEXTMODE
 70
     0
  9
$MIRRTEXT
 70
     1
  9
$DRAGMODE
 70
     2
  9
$LTSCALE
 40
10.0
  9
$OSMODE
 70
    39
  9
$ATTMODE
 70
     1
  9
$TEXTSIZE
 40
3.5
  9
$TRACEWID
 40
1.0
  9
$TEXTSTYLE
  7
STANDARD
  9
$CLAYER
  8
DEFPOINTS
  9
$CELTYPE
  6
BYLAYER
  9
$CECOLOR
 62
   256
  9
$DIMSCALE
 40
1.0
  9
$DIMASZ
 40
3.5
  9
$DIMEXO
 40
1.0
  9
$DIMDLI
 40
7.0
  9
$DIMRND
 40
0.0
  9
$DIMDLE
 40
0.0
  9
$DIMEXE
 40
1.0
  9
$DIMTP
 40
0.8
  9
$DIMTM
 40
0.000000001
  9
$DIMTXT
 40
3.5
  9
$DIMCEN
 40
1.5
  9
$DIMTSZ
 40
0.0
  9
$DIMTOL
 70
     0
  9
$DIMLIM
 70
     0
  9
$DIMTIH
 70
     0
  9
$DIMTOH
 70
     0
  9
$DIMSE1
 70
     0
  9
$DIMSE2
 70
     0
  9
$DIMTAD
 70
     1
  9
$DIMZIN
 70
     8
  9
$DIMBLK
  1

  9
$DIMASO
 70
     1
  9
$DIMSHO
 70
     0
  9
$DIMPOST
  1

  9
$DIMAPOST
  1

  9
$DIMALT
 70
     0
  9
$DIMALTD
 70
     2
  9
$DIMALTF
 40
25.3999999999999986
  9
$DIMLFAC
 40
2.0
  9
$DIMTOFL
 70
     1
  9
$DIMTVP
 40
0.0
  9
$DIMTIX
 70
     0
  9
$DIMSOXD
 70
     0
  9
$DIMSAH
 70
     0
  9
$DIMBLK1
  1

  9
$DIMBLK2
  1

  9
$DIMSTYLE
  2
STANDARD
  9
$DIMCLRD
 70
     0
  9
$DIMCLRE
 70
     0
  9
$DIMCLRT
 70
     1
  9
$DIMTFAC
 40
0.5
  9
$DIMGAP
 40
1.5
  9
$LUNITS
 70
     2
  9
$LUPREC
 70
     2
  9
$SKETCHINC
 40
1.0
  9
$FILLETRAD
 40
0.0
  9
$AUNITS
 70
     0
  9
$AUPREC
 70
     0
  9
$MENU
  1
ACAD
  9
$ELEVATION
 40
0.0
  9
$PELEVATION
 40
0.0
  9
$THICKNESS
 40
0.0
  9
$LIMCHECK
 70
     0
  9
$BLIPMODE
 70
     0
  9
$CHAMFERA
 40
0.0
  9
$CHAMFERB
 40
0.0
  9
$SKPOLY
 70
     0
  9
$TDCREATE
 40
2455397.867048610933125
  9
$TDUPDATE
 40
2460110.3011111109517515
  9
$TDINDWG
 40
0.1935975579
  9
$TDUSRTIMER
 40
0.1935975579
  9
$USRTIMER
 70
     1
  9
$ANGBASE
 50
0.0
  9
$ANGDIR
 70
     0
  9
$PDMODE
 70
     0
  9
$PDSIZE
 40
0.0
  9
$PLINEWID
 40
0.0
  9
$COORDS
 70
     1
  9
$SPLFRAME
 70
     0
  9
$SPLINETYPE
 70
     6
  9
$SPLINESEGS
 70
     8
  9
$ATTDIA
 70
     1
  9
$ATTREQ
 70
     1
  9
$HANDLING
 70
     1
  9
$HANDSEED
  5
1AE5
  9
$SURFTAB1
 70
     6
  9
$SURFTAB2
 70
     6
  9
$SURFTYPE
 70
     6
  9
$SURFU
 70
     6
  9
$SURFV
 70
     6
  9
$UCSNAME
  2

  9
$UCSORG
 10
0.0
 20
0.0
 30
0.0
  9
$UCSXDIR
 10
1.0
 20
0.0
 30
0.0
  9
$UCSYDIR
 10
0.0
 20
1.0
 30
0.0
  9
$PUCSNAME
  2

  9
$PUCSORG
 10
0.0
 20
0.0
 30
0.0
  9
$PUCSXDIR
 10
1.0
 20
0.0
 30
0.0
  9
$PUCSYDIR
 10
0.0
 20
1.0
 30
0.0
  9
$USERI1
 70
     0
  9
$USERI2
 70
     0
  9
$USERI3
 70
     0
  9
$USERI4
 70
     0
  9
$USERI5
 70
     0
  9
$USERR1
 40
0.0
  9
$USERR2
 40
0.0
  9
$USERR3
 40
0.0
  9
$USERR4
 40
0.0
  9
$USERR5
 40
0.0
  9
$WORLDVIEW
 70
     1
  9
$SHADEDGE
 70
     3
  9
$SHADEDIF
 70
    70
  9
$TILEMODE
 70
     1
  9
$MAXACTVP
 70
    16
  9
$PLIMCHECK
 70
     0
  9
$PEXTMIN
 10
-0.1175015624787647
 20
-0.2318003319055606
 30
-0.0000000349181948
  9
$PEXTMAX
 10
593.9256962486068687
 20
419.8148293225268048
 30
0.0000000814935746
  9
$PLIMMIN
 10
-21.7520539054575295
 20
-15.1552701782982808
  9
$PLIMMAX
 10
615.3719935891432442
 20
435.3364805754599161
  9
$UNITMODE
 70
     0
  9
$VISRETAIN
 70
     0
  9
$PLINEGEN
 70
     0
  9
$PSLTSCALE
 70
     0
  0
ENDSEC
  0
SECTION
  2
TABLES
  0
TABLE
  2
VPORT
 70
     1
  0
VPORT
  2
*ACTIVE
 70
     0
 10
0.0
 20
0.0
 11
1.0
 21
1.0
 12
0.0
 22
0.0
 13
0.0
 23
0.0
 14
1.0
 24
1.0
 15
10.0
 25
10.0
 16
-0.0000000000009095
 26
0.0
 36
4466.472384747081378
 17
635.6326474098898416
 27
1142.3094376060480499
 37
400.0
 40
1762.1622540743819627
 41
1.7331786542923431
 42
50.0
 43
0.0
 44
0.0
 50
0.0
 51
0.0
 71
     0
 72
  1500
 73
     1
 74
     0
 75
     0
 76
     0
 77
     0
 78
     0
  0
ENDTAB
  0
TABLE
  2
LTYPE
 70
     7
  0
LTYPE
  2
CONTINUOUS
 70
     0
  3
Solid line
 72
    65
 73
     0
 40
0.0
  0
LTYPE
  2
PHANTOM2
 70
     0
  3
Phantom (.5x) ___ _ _ ___ _ _ ___ _ _ ___ _ _
 72
    65
 73
     6
 40
1.25
 49
0.625
 49
-0.125
 49
0.125
 49
-0.125
 49
0.125
 49
-0.125
  0
LTYPE
  2
VERDECKT
 70
     0
  3
Verdeckt __ __ __ __ __ __ __ __ __ __ __ __ __
 72
    65
 73
     2
 40
0.375
 49
0.25
 49
-0.125
  0
ENDTAB
  0
TABLE
  2
LAYER
 70
    15
  0
LAYER
  2
0
 70
     0
 62
     7
  6
CONTINUOUS
  0
LAYER
  2
ADSK_ASSOC_ENTITY_BACKUPS
 70
     1
 62
    -7
  6
CONTINUOUS
  0
LAYER
  2
DEFPOINTS
 70
     0
 62
     7
  6
CONTINUOUS
  0
ENDTAB
  0
TABLE
  2
STYLE
 70
    10
  0
STYLE
  2
STANDARD
 70
     0
 40
0.0
 41
0.8
 50
0.0
 71
     0
 42
3.5
  3
simplex.shx
  4

  0
ENDTAB
  0
TABLE
  2
VIEW
 70
     1
  0
ENDTAB
  0
TABLE
  2
UCS
 70
     0
  0
ENDTAB
  0
TABLE
  2
APPID
 70
    26
  0
APPID
  2
ACAD
 70
     0
  0
APPID
  2
ACAD_EXEMPT_FROM_CAD_STANDARDS
 70
     0
  0
APPID
  2
ACAD_NAV_VCDISPLAY
 70
     0
  0
APPID
  2
ACAD_MLEADERVER
 70
     0
  0
APPID
  2
ACAD_PSEXT
 70
     0
  0
APPID
  2
ACAECLAYERSTANDARD
 70
     0
  0
APPID
  2
ACAUTHENVIRON
 70
     0
  0
APPID
  2
ACADANNOAV
 70
     0
  0
APPID
  2
ACDBDYNAMICBLOCKGUID
 70
     0
  0
APPID
  2
ACDBDYNAMICBLOCKTRUENAME
 70
     0
  0
APPID
  2
ACCMTRANSPARENCY
 70
     0
  0
APPID
  2
ACAD_STEPID
 70
     0
  0
APPID
  2
ACSYNERGY
 70
     0
  0
APPID
  2
SYNERGY_BODY_TBR_ID
 70
     0
  0
APPID
  2
ACAD_VIEW_EDGE_ID
 70
     0
  0
APPID
  2
ACSYNERGYSKETCH
 70
     0
  0
APPID
  2
ACAD_MODELDOC_XFORM
 70
     0
  0
APPID
  2
ACAD_DSTYLE_DIMJAG
 70
     0
  0
APPID
  2
ACAD_DSTYLE_DIMTALN
 70
     0
  0
APPID
  2
ACAD_DIMASSOC_CALC_DIMLFAC
 70
     0
  0
APPID
  2
ACAD_DIMASSOC_DIMLFAC
 70
     0
  0
APPID
  2
ACAD_DIMASSOC_OVERRIDDEN_D
 70
     0
  0
APPID
  2
ACAD_DSTYLE_DIMRADIAL_EXTENSION
 70
     0
  0
APPID
  2
ACADANNOMONITORALERTICONDI
 70
     0
  0
APPID
  2
ACAD_TC
 70
     0
  0
APPID
  2
AcDbAttr
 70
     0
  0
ENDTAB
  0
TABLE
  2
DIMSTYLE
 70
     6
  0
DIMSTYLE
  2
STANDARD
 70
     0
  3

  4

  5

  6

  7

 40
1.0
 41
0.18
 42
0.0625
 43
0.38
 44
0.18
 45
0.0
 46
0.0
 47
0.0
 48
0.0
140
0.18
141
0.09
142
0.0
143
25.3999999999999986
144
1.0
145
0.0
146
1.0
147
0.09
 71
     0
 72
     0
 73
     1
 74
     1
 75
     0
 76
     0
 77
     0
 78
     0
170
     0
171
     2
172
     0
173
     0
174
     0
175
     0
176
     0
177
     0
178
     0
  0
ENDTAB
  0
ENDSEC
  0
SECTION
  2
BLOCKS
  0
BLOCK
  8
0
  2
$MODEL_SPACE
 70
     0
 10
0.0
 20
0.0
 30
0.0
  3
$MODEL_SPACE
  1

  0
ENDBLK
  5
38
  8
0
  0
BLOCK
 67
     1
  8
0
  2
$PAPER_SPACE
 70
     0
 10
0.0
 20
0.0
 30
0.0
  3
$PAPER_SPACE
  1

  0
ENDBLK
  5
36
 67
     1
  8
0
  0
BLOCK
  8
0
  2
*S4
 70
     1
 10
0.0
 20
0.0
 30
0.0
  3
*S4
  1

  0
ENDBLK
  5
138F
  8
0
  0
BLOCK
  8
0
  2
A$C8B960C05
 70
     0
 10
0.0
 20
0.0
 30
0.0
  3
A$C8B960C05
  1

  0
CIRCLE
  5
1A1C
  8
0
  6
CONTINUOUS
 62
     0
 10
253.3096669627319955
 20
272.1667623153774116
 30
0.0000000000001137
 40
57.9995501064835324
  0
CIRCLE
  5
1A1D
  8
0
  6
CONTINUOUS
 62
     0
 10
73.3096669627320381
 20
92.1667623153774542
 30
0.0
 40
3.0
  0
CIRCLE
  5
1A1E
  8
0
  6
CONTINUOUS
 62
     0
 10
433.3096669627320239
 20
92.1667623153774542
 30
0.0000000000001137
 40
3.0
  0
CIRCLE
  5
1A1F
  8
0
  6
CONTINUOUS
 62
     0
 10
433.3096669627320239
 20
452.1667623153774116
 30
0.0000000000001137
 40
3.0
  0
CIRCLE
  5
1A20
  8
0
  6
CONTINUOUS
 62
     0
 10
73.3096669627320381
 20
452.1667623153774116
 30
0.0
 40
3.0
  0
LINE
  5
1A21
  8
0
  6
CONTINUOUS
 62
     0
 10
453.3096669627320239
 20
92.1667623153774542
 30
0.0000000000001137
 11
453.3096669627320239
 21
452.1667623153774116
 31
0.0000000000001137
  0
ARC
  5
1A22
  8
0
  6
CONTINUOUS
 62
     0
 10
433.3096669627315123
 20
92.1667623153778948
 30
0.0000000000001137
 40
20.0000000000004583
 50
270.0
 51
359.9999999999973852
  0
LINE
  5
1A23
  8
0
  6
CONTINUOUS
 62
     0
 10
73.3096669627320381
 20
72.16676231537744
 30
0.0
 11
433.3096669627320239
 21
72.16676231537744
 31
0.0000000000000816
  0
ARC
  5
1A24
  8
0
  6
CONTINUOUS
 62
     0
 10
73.3096669627318107
 20
92.1667623153770847
 30
0.0
 40
19.9999999999997691
 50
179.9999999999990052
 51
270.0000000000006821
  0
LINE
  5
1A25
  8
0
  6
CONTINUOUS
 62
     0
 10
53.309666962732031
 20
452.1667623153774116
 30
0.0
 11
53.309666962732031
 21
92.1667623153774542
 31
0.0
  0
ARC
  5
1A26
  8
0
  6
CONTINUOUS
 62
     0
 10
73.3096669627318107
 20
452.1667623153776958
 30
0.0
 40
19.9999999999997691
 50
89.9999999999993605
 51
180.0000000000005969
  0
LINE
  5
1A27
  8
0
  6
CONTINUOUS
 62
     0
 10
433.3096669627320239
 20
472.1667623153774116
 30
0.0000000000001137
 11
73.3096669627320239
 21
472.1667623153774116
 31
0.0000000000000321
  0
ARC
  5
1A28
  8
0
  6
CONTINUOUS
 62
     0
 10
433.3096669627324218
 20
452.1667623153779232
 30
0.0000000000001137
 40
19.9999999999995417
 50
359.9999999999986926
 51
90.0000000000013358
  0
CIRCLE
  5
1A29
  8
0
  6
CONTINUOUS
 62
     0
 10
253.3096669627313986
 20
272.1667623153770137
 30
0.0000000000000568
 40
48.7296797270312396
  0
CIRCLE
  5
1A2A
  8
0
  6
CONTINUOUS
 62
     0
 10
253.3096669627315976
 20
272.1667623153771274
 30
0.0000000000001137
 40
49.6000000000002004
  0
CIRCLE
  5
1A2B
  8
0
  6
CONTINUOUS
 62
     0
 10
253.3096669627317965
 20
272.1667623153772979
 30
0.0000000000001137
 40
52.7000000000000384
  0
CIRCLE
  5
1A2C
  8
0
  6
CONTINUOUS
 62
     0
 10
253.3096669627317965
 20
272.1667623153772979
 30
0.0000000000001137
 40
53.2000000000002728
  0
CIRCLE
  5
1A2D
  8
0
  6
CONTINUOUS
 62
     0
 10
253.3096669627317965
 20
272.1667623153772979
 30
0.0000000000001137
 40
54.287569344444357
  0
CIRCLE
  5
1A2E
  8
0
  6
CONTINUOUS
 62
     0
 10
253.3096669627317965
 20
272.1667623153772979
 30
0.0000000000001137
 40
57.9000000000003183
  0
CIRCLE
  5
1A2F
  8
0
  6
VERDECKT
 62
     1
 10
253.3096669627319955
 20
272.1667623153774116
 30
0.0000000000001137
 40
58.9887892867770987
  0
CIRCLE
  5
1A30
  8
0
  6
VERDECKT
 62
     1
 10
253.3096669627313986
 20
272.1667623153770137
 30
0.0000000000000568
 40
49.925113364741037
  0
CIRCLE
  5
1A31
  8
0
  6
VERDECKT
 62
     1
 10
253.3096669627315976
 20
272.1667623153770137
 30
0.0000000000001137
 40
50.7999999999999687
  0
CIRCLE
  5
1A32
  8
0
  6
VERDECKT
 62
     1
 10
253.3096669627317965
 20
272.1667623153772979
 30
0.0000000000001137
 40
56.7000000000000526
  0
CIRCLE
  5
1A33
  8
0
  6
VERDECKT
 62
     1
 10
253.3096669627317965
 20
272.1667623153772979
 30
0.0000000000001137
 40
53.9000000000000909
  0
ENDBLK
  5
1A35
  8
0
  0
BLOCK
  8
0
  2
A$CBF64B0E8
 70
     0
 10
0.0
 20
0.0
 30
0.0
  3
A$CBF64B0E8
  1

  0
LINE
  5
1A39
  8
0
  6
CONTINUOUS
 62
     0
 10
194.320877675954705
 20
785.0040351136342451
 30
-0.0000000000001743
 11
312.298456249508888
 21
785.0040351136342451
 31
-0.0000000000001743
210
0.0
220
1.0
230
-0.0000000000000002
  0
LINE
  5
1A3A
  8
0
  6
CONTINUOUS
 62
     0
 10
453.3096669627317965
 20
797.0000000000001137
 30
-0.000000000000177
 11
453.3096669627317965
 21
798.0000000000001137
 31
-0.0000000000001772
210
0.0
220
1.0
230
-0.0000000000000002
  0
LINE
  5
1A3B
  8
0
  6
CONTINUOUS
 62
     0
 10
453.3096669627317965
 20
797.0000000000001137
 30
-0.000000000000177
 11
433.3096669627317965
 21
797.0000000000001137
 31
-0.000000000000177
210
0.0
220
1.0
230
-0.0000000000000002
  0
LINE
  5
1A3C
  8
0
  6
CONTINUOUS
 62
     0
 10
453.3096669627317965
 20
798.0000000000001137
 30
-0.0000000000001772
 11
433.3096669627317965
 21
798.0000000000001137
 31
-0.0000000000001772
210
0.0
220
1.0
230
-0.0000000000000002
  0
LINE
  5
1A3D
  8
0
  6
CONTINUOUS
 62
     0
 10
73.3096669627318533
 20
797.0000000000002274
 30
-0.000000000000177
 11
433.3096669627317965
 21
797.0000000000001137
 31
-0.000000000000177
210
0.0
220
1.0
230
-0.0000000000000002
  0
LINE
  5
1A3E
  8
0
  6
CONTINUOUS
 62
     0
 10
73.3096669627318533
 20
798.0000000000002274
 30
-0.0000000000001772
 11
433.3096669627317965
 21
798.0000000000001137
 31
-0.0000000000001772
210
0.0
220
1.0
230
-0.0000000000000002
  0
LINE
  5
1A3F
  8
0
  6
CONTINUOUS
 62
     0
 10
73.3096669627318533
 20
797.0000000000002274
 30
-0.000000000000177
 11
53.3096669627318533
 21
797.0000000000002274
 31
-0.000000000000177
210
0.0
220
1.0
230
-0.0000000000000002
  0
LINE
  5
1A40
  8
0
  6
CONTINUOUS
 62
     0
 10
73.3096669627318533
 20
798.0000000000002274
 30
-0.0000000000001772
 11
53.3096669627318533
 21
798.0000000000002274
 31
-0.0000000000001772
210
0.0
220
1.0
230
-0.0000000000000002
  0
LINE
  5
1A41
  8
0
  6
CONTINUOUS
 62
     0
 10
53.3096669627318533
 20
797.0000000000002274
 30
-0.000000000000177
 11
53.3096669627318533
 21
798.0000000000002274
 31
-0.0000000000001772
210
0.0
220
1.0
230
-0.0000000000000002
  0
LINE
  5
1A42
  8
0
  6
CONTINUOUS
 62
     0
 10
194.320877675954705
 20
785.0040351136342451
 30
-0.0000000000001743
 11
192.6729481441562939
 21
796.1463073619887609
 31
-0.0000000000001768
210
0.0
220
1.0
230
-0.0000000000000002
  0
LINE
  5
1A43
  8
0
  6
CONTINUOUS
 62
     0
 10
312.298456249508888
 20
785.0040351136342451
 30
-0.0000000000001743
 11
313.9463857813074128
 21
796.1463073619887609
 31
-0.0000000000001768
210
0.0
220
1.0
230
-0.0000000000000002
  0
ARC
  5
1A44
  8
0
  6
CONTINUOUS
 62
     0
 10
-191.6837089638626139
 20
796.0
 30
0.0
 40
1.0
210
0.0
220
-0.0000000000000002
230
-1.0
 50
90.0000000000032543
 51
171.5870070420193088
  0
ARC
  5
1A45
  8
0
  6
CONTINUOUS
 62
     0
 10
-314.9356249616009791
 20
796.0
 30
0.0
 40
0.9999999999999984
210
0.0
220
-0.0000000000000002
230
-1.0
 50
8.4129929579811211
 51
90.0
  0
LINE
  5
1A46
  8
0
  6
CONTINUOUS
 62
     0
 10
203.3845535979903048
 20
199.9999999999996874
 30
-0.0000000000000444
 11
303.2347803274724924
 21
199.9999999999996874
 31
-0.0000000000000444
210
0.0
220
1.0
230
-0.0000000000000002
  0
LINE
  5
1A47
  8
0
  6
CONTINUOUS
 62
     0
 10
199.022097618287205
 20
800.0
 30
-0.0000000000001776
 11
307.5972363071759901
 21
800.0
 31
-0.0000000000001776
210
0.0
220
1.0
230
-0.0000000000000002
  0
ARC
  5
1A48
  8
0
  6
CONTINUOUS
 62
     0
 10
-213.7096669627372876
 20
210.4890025605733115
 30
0.0
 40
11.20000000000584
210
0.0
220
-0.0000000000000002
230
-1.0
 50
355.0000000000047748
 51
359.9999999999992042
  0
ARC
  5
1A49
  8
0
  6
CONTINUOUS
 62
     0
 10
-292.9096669627256233
 20
210.4890025605733115
 30
0.0
 40
11.2000000000057796
210
0.0
220
-0.0000000000000002
230
-1.0
 50
180.0000000000005969
 51
184.9999999999951967
  0
LINE
  5
1A4A
  8
0
  6
CONTINUOUS
 62
     0
 10
203.3845535979899921
 20
199.9999999999996874
 30
-0.0000000000000444
 11
202.5522863441038908
 21
209.5128582417999041
 31
-0.0000000000000465
210
0.0
220
1.0
230
-0.0000000000000002
  0
LINE
  5
1A4B
  8
0
  6
CONTINUOUS
 62
     0
 10
303.2347803274727767
 20
199.9999999999996874
 30
-0.0000000000000444
 11
304.0670475813590201
 21
209.5128582417999041
 31
-0.0000000000000465
210
0.0
220
1.0
230
-0.0000000000000002
  0
ARC
  5
1A4C
  8
0
  6
CONTINUOUS
 62
     0
 10
-213.6096669627301026
 20
736.9274888769422205
 30
0.0
 40
14.1999999999982904
210
0.0
220
-0.0000000000000002
230
-1.0
 50
329.3570682370681766
 51
0.0000000000211048
  0
ARC
  5
1A4D
  8
0
  6
CONTINUOUS
 62
     0
 10
-293.0096669627333767
 20
736.9274888769422205
 30
0.0
 40
14.1999999999980506
210
0.0
220
-0.0000000000000002
230
-1.0
 50
179.9999999999789111
 51
210.6429317629317097
  0
ARC
  5
1A4E
  8
0
  6
CONTINUOUS
 62
     0
 10
-194.5096669627343999
 20
725.6124546304200749
 30
0.0
 40
7.99999999999718
210
0.0
220
-0.0000000000000002
230
-1.0
 50
149.3570682370454108
 51
180.0000000000129887
  0
ARC
  5
1A4F
  8
0
  6
CONTINUOUS
 62
     0
 10
-312.1096669627306142
 20
725.6124546304197338
 30
0.0
 40
7.9999999999990328
210
0.0
220
-0.0000000000000002
230
-1.0
 50
359.9999999999902229
 51
30.6429317629516085
  0
LINE
  5
1A50
  8
0
  6
CONTINUOUS
 62
     0
 10
307.5972363071758764
 20
800.0
 30
-0.0000000000001776
 11
308.5298516234857971
 21
798.0000000000001137
 31
-0.0000000000001772
210
0.0
220
1.0
230
-0.0000000000000002
  0
LINE
  5
1A51
  8
0
  6
CONTINUOUS
 62
     0
 10
199.0220976182872903
 20
800.0
 30
-0.0000000000001776
 11
198.089482301977398
 21
798.0000000000001137
 31
-0.0000000000001772
210
0.0
220
1.0
230
-0.0000000000000002
  0
LINE
  5
1A52
  8
0
  6
CONTINUOUS
 62
     0
 10
311.2096669627317169
 20
785.0040351136342451
 30
-0.0000000000001743
 11
311.2096669627317169
 21
772.2329999999998336
 31
-0.0000000000001715
210
0.0
220
1.0
230
-0.0000000000000002
  0
LINE
  5
1A53
  8
0
  6
CONTINUOUS
 62
     0
 10
195.4096669627315066
 20
785.0040351136343588
 30
-0.0000000000001743
 11
195.4096669627315066
 21
772.2329999999997199
 31
-0.0000000000001715
210
0.0
220
1.0
230
-0.0000000000000002
  0
ARC
  5
1A54
  8
0
  6
CONTINUOUS
 62
     0
 10
-219.6096669627335984
 20
772.2330000000002883
 30
0.0
 40
24.2000000000017614
210
0.0
220
-0.0000000000000002
230
-1.0
 50
333.1119523822765132
 51
359.9999999999986926
  0
ARC
  5
1A55
  8
0
  6
CONTINUOUS
 62
     0
 10
-287.0096669627304209
 20
772.2330000000002883
 30
0.0
 40
24.2000000000010687
210
0.0
220
-0.0000000000000002
230
-1.0
 50
180.0000000000009948
 51
206.8880476177236858
  0
ARC
  5
1A56
  8
0
  6
CONTINUOUS
 62
     0
 10
-186.609666962729392
 20
755.4997994693183045
 30
0.0
 40
12.8000000000020702
210
0.0
220
-0.0000000000000002
230
-1.0
 50
153.1119523822812027
 51
180.0
  0
ARC
  5
1A57
  8
0
  6
CONTINUOUS
 62
     0
 10
-320.0096669627325809
 20
755.4997994693186456
 30
0.0
 40
12.8000000000009209
210
0.0
220
-0.0000000000000002
230
-1.0
 50
359.9999999999984084
 51
26.888047617720229
  0
LINE
  5
1A58
  8
0
  6
CONTINUOUS
 62
     0
 10
307.2096669627314895
 20
755.4997994693183045
 30
-0.0000000000001678
 11
307.2096669627314895
 21
736.9274888769474501
 31
-0.0000000000001636
210
0.0
220
1.0
230
-0.0000000000000002
  0
LINE
  5
1A59
  8
0
  6
CONTINUOUS
 62
     0
 10
199.4096669627317056
 20
755.4997994693183045
 30
-0.0000000000001678
 11
199.4096669627317056
 21
736.9274888769474501
 31
-0.0000000000001636
210
0.0
220
1.0
230
-0.0000000000000002
  0
LINE
  5
1A5A
  8
0
  6
CONTINUOUS
 62
     0
 10
304.1096669627315237
 20
725.6124546304182559
 30
-0.0000000000001611
 11
304.10966696273141
 21
210.4890025605731978
 31
-0.0000000000000467
210
0.0
220
1.0
230
-0.0000000000000002
  0
LINE
  5
1A5B
  8
0
  6
CONTINUOUS
 62
     0
 10
202.5096669627315862
 20
725.6124546304182559
 30
-0.0000000000001611
 11
202.5096669627315009
 21
210.4890025605731978
 31
-0.0000000000000467
210
0.0
220
1.0
230
-0.0000000000000002
  0
LINE
  5
1A5C
  8
0
  6
VERDECKT
 62
     1
 10
195.310116856248186
 20
785.1503424756232334
 30
-0.0000000000001743
 11
311.3092170692154923
 21
785.1503424756232334
 31
-0.0000000000001743
210
0.0
220
1.0
230
-0.0000000000000002
  0
LINE
  5
1A5D
  8
0
  6
VERDECKT
 62
     1
 10
311.3092170692153786
 20
785.1503424756232334
 30
-0.0000000000001743
 11
312.298456249508888
 21
785.0040351136342451
 31
-0.0000000000001743
210
0.0
220
1.0
230
-0.0000000000000002
  0
LINE
  5
1A5E
  8
0
  6
VERDECKT
 62
     1
 10
195.3101168562482997
 20
785.1503424756232334
 30
-0.0000000000001743
 11
194.320877675954705
 21
785.0040351136342451
 31
-0.0000000000001743
210
0.0
220
1.0
230
-0.0000000000000002
  0
LINE
  5
1A5F
  8
0
  6
VERDECKT
 62
     1
 10
195.3101168562482997
 20
785.1503424756232334
 30
-0.0000000000001743
 11
193.6621873244498033
 21
796.2926147239770671
 31
-0.0000000000001768
210
0.0
220
1.0
230
-0.0000000000000002
  0
LINE
  5
1A60
  8
0
  6
VERDECKT
 62
     1
 10
311.3092170692153786
 20
785.1503424756232334
 30
-0.0000000000001743
 11
312.9571466010137897
 21
796.2926147239770671
 31
-0.0000000000001768
210
0.0
220
1.0
230
-0.0000000000000002
  0
ARC
  5
1A61
  8
0
  6
VERDECKT
 62
     1
 10
-191.6837089638628129
 20
796.0
 30
0.0
 40
1.9999999999998861
210
0.0
220
-0.0000000000000002
230
-1.0
 50
89.9999999999983658
 51
171.5870070420282048
  0
ARC
  5
1A62
  8
0
  6
VERDECKT
 62
     1
 10
-314.9356249616009791
 20
796.0
 30
0.0
 40
1.9999999999999469
210
0.0
220
-0.0000000000000002
230
-1.0
 50
8.4129929579714666
 51
90.0000000000000284
  0
LINE
  5
1A63
  8
0
  6
VERDECKT
 62
     1
 10
70.3096669627318533
 20
797.0000000000002274
 30
-0.000000000000177
 11
70.3096669627318533
 21
798.0000000000002274
 31
-0.0000000000001772
210
0.0
220
1.0
230
-0.0000000000000002
  0
LINE
  5
1A64
  8
0
  6
VERDECKT
 62
     1
 10
76.3096669627318533
 20
797.0000000000002274
 30
-0.000000000000177
 11
76.3096669627318533
 21
798.0000000000002274
 31
-0.0000000000001772
210
0.0
220
1.0
230
-0.0000000000000002
  0
LINE
  5
1A65
  8
0
  6
VERDECKT
 62
     1
 10
430.3096669627317965
 20
797.0000000000001137
 30
-0.000000000000177
 11
430.3096669627317965
 21
798.0000000000001137
 31
-0.0000000000001772
210
0.0
220
1.0
230
-0.0000000000000002
  0
LINE
  5
1A66
  8
0
  6
VERDECKT
 62
     1
 10
436.3096669627317965
 20
797.0000000000001137
 30
-0.000000000000177
 11
436.3096669627317965
 21
798.0000000000001137
 31
-0.0000000000001772
210
0.0
220
1.0
230
-0.0000000000000002
  0
LINE
  5
1A67
  8
0
  6
VERDECKT
 62
     1
 10
204.5799872357002016
 20
200.1045868912968899
 30
-0.0000000000000444
 11
302.039346689762624
 21
200.1045868912968899
 31
-0.0000000000000444
210
0.0
220
1.0
230
-0.0000000000000002
  0
LINE
  5
1A68
  8
0
  6
VERDECKT
 62
     1
 10
200.10966696273141
 20
799.4928580859110525
 30
-0.0000000000001775
 11
306.5096669627318988
 21
799.4928580859110525
 31
-0.0000000000001775
210
0.0
220
1.0
230
-0.0000000000000002
  0
ARC
  5
1A69
  8
0
  6
VERDECKT
 62
     1
 10
-213.7096669627235883
 20
210.4889072333390914
 30
0.0
 40
9.9999999999923546
210
0.0
220
-0.0000000000000002
230
-1.0
 50
354.9999501490602256
 51
0.0000000000027734
  0
ARC
  5
1A6A
  8
0
  6
VERDECKT
 62
     1
 10
-292.9096669627539882
 20
210.4889072333388071
 30
0.0
 40
9.99999999997749
210
0.0
220
-0.0000000000000002
230
-1.0
 50
179.9999999999953957
 51
185.0000498509452882
  0
LINE
  5
1A6B
  8
0
  6
VERDECKT
 62
     1
 10
204.5799872357002869
 20
200.1045868912968899
 30
-0.0000000000000444
 11
203.7477207401273915
 21
209.6173411383416862
 31
-0.0000000000000465
210
0.0
220
1.0
230
-0.0000000000000002
  0
LINE
  5
1A6C
  8
0
  6
VERDECKT
 62
     1
 10
302.0393466897625103
 20
200.1045868912968899
 30
-0.0000000000000444
 11
302.8716131853353204
 21
209.6173411383416862
 31
-0.0000000000000465
210
0.0
220
1.0
230
-0.0000000000000002
  0
LINE
  5
1A6D
  8
0
  6
VERDECKT
 62
     1
 10
203.3845535979903048
 20
199.9999999999996874
 30
-0.0000000000000444
 11
204.5799872357000027
 21
200.1045868912968899
 31
-0.0000000000000444
210
0.0
220
1.0
230
-0.0000000000000002
  0
LINE
  5
1A6E
  8
0
  6
VERDECKT
 62
     1
 10
302.0393466897627945
 20
200.1045868912968899
 30
-0.0000000000000444
 11
303.2347803274724924
 21
199.9999999999996874
 31
-0.0000000000000444
210
0.0
220
1.0
230
-0.0000000000000002
  0
ARC
  5
1A6F
  8
0
  6
VERDECKT
 62
     1
 10
-194.5096669627326094
 20
725.6124546304235992
 30
0.0
 40
9.1999999999986457
210
0.0
220
-0.0000000000000002
230
-1.0
 50
149.3570682370574048
 51
180.000000000032486
  0
ARC
  5
1A70
  8
0
  6
VERDECKT
 62
     1
 10
-312.1096669627307847
 20
725.6124546304235992
 30
0.0
 40
9.1999999999988518
210
0.0
220
-0.0000000000000002
230
-1.0
 50
359.9999999999985789
 51
30.6429317629425597
  0
ARC
  5
1A71
  8
0
  6
VERDECKT
 62
     1
 10
-213.6096669627312963
 20
736.9274888769459722
 30
0.0
 40
12.9999999999996696
210
0.0
220
-0.0000000000000002
230
-1.0
 50
329.3570682370669829
 51
0.0000000000060049
  0
ARC
  5
1A72
  8
0
  6
VERDECKT
 62
     1
 10
-293.0096669627318988
 20
736.9274888769461995
 30
0.0
 40
12.9999999999997708
210
0.0
220
-0.0000000000000002
230
-1.0
 50
179.9999999999944862
 51
210.6429317629327045
  0
LINE
  5
1A73
  8
0
  6
VERDECKT
 62
     1
 10
306.0096669627317283
 20
755.4997994693183045
 30
-0.0000000000001678
 11
306.0096669627317283
 21
736.9274888769474501
 31
-0.0000000000001636
210
0.0
220
1.0
230
-0.0000000000000002
  0
LINE
  5
1A74
  8
0
  6
VERDECKT
 62
     1
 10
200.6096669627316089
 20
755.4997994693183045
 30
-0.0000000000001678
 11
200.6096669627316089
 21
736.9274888769474501
 31
-0.0000000000001636
210
0.0
220
1.0
230
-0.0000000000000002
  0
ARC
  5
1A75
  8
0
  6
VERDECKT
 62
     1
 10
-186.609666962732291
 20
755.4997994693184182
 30
0.0
 40
13.9999999999993303
210
0.0
220
-0.0000000000000002
230
-1.0
 50
153.1119523822738984
 51
180.0000000000007958
  0
ARC
  5
1A76
  8
0
  6
VERDECKT
 62
     1
 10
-320.0096669627304209
 20
755.4997994693185319
 30
0.0
 40
13.9999999999986908
210
0.0
220
-0.0000000000000002
230
-1.0
 50
0.0
 51
26.8880476177272492
  0
ARC
  5
1A77
  8
0
  6
VERDECKT
 62
     1
 10
-219.609666962728113
 20
772.232999999998583
 30
0.0
 40
22.999999999996291
210
0.0
220
-0.0000000000000002
230
-1.0
 50
333.1119523822757174
 51
0.0000000000034096
  0
ARC
  5
1A78
  8
0
  6
VERDECKT
 62
     1
 10
-287.0096669627350821
 20
772.232999999998583
 30
0.0
 40
22.9999999999963585
210
0.0
220
-0.0000000000000002
230
-1.0
 50
179.999999999996902
 51
206.88804761772451
  0
LINE
  5
1A79
  8
0
  6
VERDECKT
 62
     1
 10
310.0096669627317283
 20
786.8881066233400361
 30
-0.0000000000001747
 11
310.0096669627317283
 21
772.2329999999998336
 31
-0.0000000000001715
210
0.0
220
1.0
230
-0.0000000000000002
  0
LINE
  5
1A7A
  8
0
  6
VERDECKT
 62
     1
 10
196.6096669627316089
 20
786.8881066233400361
 30
-0.0000000000001747
 11
196.6096669627316089
 21
772.2329999999997199
 31
-0.0000000000001715
210
0.0
220
1.0
230
-0.0000000000000002
  0
ARC
  5
1A7B
  8
0
  6
VERDECKT
 62
     1
 10
-219.6096669627306142
 20
786.8881066233406045
 30
0.0
 40
22.9999999999990301
210
0.0
220
-0.0000000000000002
230
-1.0
 50
359.9999999999985789
 51
24.9999999999998685
  0
ARC
  5
1A7C
  8
0
  6
VERDECKT
 62
     1
 10
-287.009666962732922
 20
786.8881066233406045
 30
0.0
 40
22.9999999999988312
210
0.0
220
-0.0000000000000002
230
-1.0
 50
155.000000000000199
 51
180.0000000000013074
  0
LINE
  5
1A7D
  8
0
  6
VERDECKT
 62
     1
 10
306.5096669627317851
 20
799.4928580859110525
 30
-0.0000000000001775
 11
307.8547460645747265
 21
796.608326643376131
 31
-0.0000000000001769
210
0.0
220
1.0
230
-0.0000000000000002
  0
LINE
  5
1A7E
  8
0
  6
VERDECKT
 62
     1
 10
200.1096669627314952
 20
799.4928580859110525
 30
-0.0000000000001775
 11
198.7645878608886107
 21
796.6083266433762446
 31
-0.0000000000001769
210
0.0
220
1.0
230
-0.0000000000000002
  0
LINE
  5
1A7F
  8
0
  6
VERDECKT
 62
     1
 10
200.10966696273141
 20
799.4928580859110525
 30
-0.0000000000001775
 11
199.022097618287205
 21
800.0
 31
-0.0000000000001776
210
0.0
220
1.0
230
-0.0000000000000002
  0
LINE
  5
1A80
  8
0
  6
VERDECKT
 62
     1
 10
306.5096669627318988
 20
799.4928580859110525
 30
-0.0000000000001775
 11
307.5972363071759901
 21
800.0
 31
-0.0000000000001776
210
0.0
220
1.0
230
-0.0000000000000002
  0
LINE
  5
1A81
  8
0
  6
VERDECKT
 62
     1
 10
308.5298516234857971
 20
798.0000000000001137
 30
-0.0000000000001772
 11
308.9423154090188177
 21
797.1154685574648511
 31
-0.000000000000177
210
0.0
220
1.0
230
-0.0000000000000002
  0
LINE
  5
1A82
  8
0
  6
VERDECKT
 62
     1
 10
198.089482301977398
 20
798.0000000000001137
 30
-0.0000000000001772
 11
197.6770185164444911
 21
797.1154685574649648
 31
-0.000000000000177
210
0.0
220
1.0
230
-0.0000000000000002
  0
ARC
  5
1A83
  8
0
  6
VERDECKT
 62
     1
 10
-219.6096669627318079
 20
786.8881066233400361
 30
0.0
 40
24.2000000000005002
210
0.0
220
-0.0000000000000002
230
-1.0
 50
0.0
 51
24.9999999999997513
  0
ARC
  5
1A84
  8
0
  6
VERDECKT
 62
     1
 10
-287.0096669627300798
 20
786.8881066233398087
 30
0.0
 40
24.2000000000018396
210
0.0
220
-0.0000000000000002
230
-1.0
 50
155.0000000000013927
 51
179.9999999999994884
  0
LINE
  5
1A85
  8
0
  6
VERDECKT
 62
     1
 10
311.2096669627317169
 20
786.8881066233400361
 30
-0.0000000000001747
 11
311.2096669627317169
 21
785.0040351136342451
 31
-0.0000000000001743
210
0.0
220
1.0
230
-0.0000000000000002
  0
LINE
  5
1A86
  8
0
  6
VERDECKT
 62
     1
 10
195.4096669627315066
 20
786.8881066233400361
 30
-0.0000000000001747
 11
195.4096669627315066
 21
785.0040351136343588
 31
-0.0000000000001743
210
0.0
220
1.0
230
-0.0000000000000002
  0
LINE
  5
1A87
  8
0
  6
VERDECKT
 62
     1
 10
302.9096669627317056
 20
725.6124546304232581
 30
-0.0000000000001611
 11
302.9096669627315919
 21
210.488907233339603
 31
-0.0000000000000467
210
0.0
220
1.0
230
-0.0000000000000002
  0
LINE
  5
1A88
  8
0
  6
VERDECKT
 62
     1
 10
203.7096669627314043
 20
725.6124546304182559
 30
-0.0000000000001611
 11
203.7096669627312906
 21
210.488907233339603
 31
-0.0000000000000467
210
0.0
220
1.0
230
-0.0000000000000002
  0
ENDBLK
  5
1A8A
  8
0
  0
ENDSEC
  0
SECTION
  2
ENTITIES
  0
INSERT
  5
1391
  8
ADSK_ASSOC_ENTITY_BACKUPS
  2
*S4
 10
0.0
 20
0.0
 30
0.0
  0
INSERT
  5
1A36
  8
DEFPOINTS
  2
A$C8B960C05
 10
-21.5399698683428404
 20
506.1428308179999931
 30
0.0
  0
INSERT
  5
1A8B
  8
DEFPOINTS
  2
A$CBF64B0E8
 10
-21.5399698683422685
 20
980.4579866338748388
 30
0.0000000000001137
  0
VIEWPORT
  5
AB9
 67
     1
  8
0
 10
631.4753084093641746
 20
370.8637852362214744
 30
0.0
 40
2118.9126823331721425
 41
1222.5587230061539685
 68
     1
 69
     1
1001
ACAD
1000
MVIEW
1002
{
1070
    16
1010
0.0
1020
0.0
1030
0.0
1010
0.0
1020
0.0
1030
1.0
1040
0.0
1040
1222.5587230061539685
1040
631.4753084093641746
1040
370.8637852362214744
1040
50.0
1040
0.0
1040
0.0
1070
     0
1070
  1500
1070
     1
1070
     1
1070
     0
1070
     0
1070
     0
1070
     0
1040
0.0
1040
0.0
1040
0.0
1040
10.0
1040
10.0
1040
10.0
1040
10.0
1070
     0
1002
{
1002
}
1002
}
  0
ENDSEC
  0
EOF
