  0
SECTION
  2
HEADER
  9
$ACADVER
  1
AC1009
  9
$INSBASE
 10
0.0
 20
0.0
 30
0.0
  9
$EXTMIN
 10
-150.0000000000001137
 20
-850.0
 30
-0.0000000000000333
  9
$EXTMAX
 10
149.9999999999998863
 20
150.000000000000199
 30
0.0000000000000333
  9
$LIMMIN
 10
0.0
 20
0.0
  9
$LIMMAX
 10
420.0
 20
297.0
  9
$ORTHOMODE
 70
     1
  9
$REGENMODE
 70
     1
  9
$FILLMODE
 70
     1
  9
$QTEXTMODE
 70
     0
  9
$MIRRTEXT
 70
     1
  9
$DRAGMODE
 70
     2
  9
$LTSCALE
 40
10.0
  9
$OSMODE
 70
   511
  9
$ATTMODE
 70
     2
  9
$TEXTSIZE
 40
3.5
  9
$TRACEWID
 40
1.0
  9
$TEXTSTYLE
  7
STANDARD
  9
$CLAYER
  8
STEMPEL
  9
$CELTYPE
  6
BYLAYER
  9
$CECOLOR
 62
   256
  9
$DIMSCALE
 40
1.0
  9
$DIMASZ
 40
3.5
  9
$DIMEXO
 40
1.0
  9
$DIMDLI
 40
0.38
  9
$DIMRND
 40
0.0
  9
$DIMDLE
 40
0.0
  9
$DIMEXE
 40
1.0
  9
$DIMTP
 40
0.0
  9
$DIMTM
 40
0.000000001
  9
$DIMTXT
 40
3.5
  9
$DIMCEN
 40
0.09
  9
$DIMTSZ
 40
0.0
  9
$DIMTOL
 70
     0
  9
$DIMLIM
 70
     0
  9
$DIMTIH
 70
     0
  9
$DIMTOH
 70
     0
  9
$DIMSE1
 70
     0
  9
$DIMSE2
 70
     0
  9
$DIMTAD
 70
     1
  9
$DIMZIN
 70
     8
  9
$DIMBLK
  1

  9
$DIMASO
 70
     1
  9
$DIMSHO
 70
     0
  9
$DIMPOST
  1

  9
$DIMAPOST
  1

  9
$DIMALT
 70
     0
  9
$DIMALTD
 70
     2
  9
$DIMALTF
 40
25.3999999999999986
  9
$DIMLFAC
 40
2.0
  9
$DIMTOFL
 70
     1
  9
$DIMTVP
 40
0.0
  9
$DIMTIX
 70
     0
  9
$DIMSOXD
 70
     0
  9
$DIMSAH
 70
     0
  9
$DIMBLK1
  1

  9
$DIMBLK2
  1

  9
$DIMSTYLE
  2
LORO
  9
$DIMCLRD
 70
     0
  9
$DIMCLRE
 70
     0
  9
$DIMCLRT
 70
     1
  9
$DIMTFAC
 40
0.5
  9
$DIMGAP
 40
1.5
  9
$LUNITS
 70
     2
  9
$LUPREC
 70
     2
  9
$SKETCHINC
 40
1.0
  9
$FILLETRAD
 40
0.0
  9
$AUNITS
 70
     0
  9
$AUPREC
 70
     0
  9
$MENU
  1
ACAD
  9
$ELEVATION
 40
0.0
  9
$PELEVATION
 40
0.0
  9
$THICKNESS
 40
0.0
  9
$LIMCHECK
 70
     0
  9
$BLIPMODE
 70
     0
  9
$CHAMFERA
 40
0.0
  9
$CHAMFERB
 40
0.0
  9
$SKPOLY
 70
     0
  9
$TDCREATE
 40
2455397.867048610933125
  9
$TDUPDATE
 40
2460454.438310184981674
  9
$TDINDWG
 40
0.4577834838
  9
$TDUSRTIMER
 40
0.4577834838
  9
$USRTIMER
 70
     1
  9
$ANGBASE
 50
0.0
  9
$ANGDIR
 70
     0
  9
$PDMODE
 70
     0
  9
$PDSIZE
 40
0.0
  9
$PLINEWID
 40
0.0
  9
$COORDS
 70
     1
  9
$SPLFRAME
 70
     0
  9
$SPLINETYPE
 70
     6
  9
$SPLINESEGS
 70
     8
  9
$ATTDIA
 70
     1
  9
$ATTREQ
 70
     1
  9
$HANDLING
 70
     1
  9
$HANDSEED
  5
4163
  9
$SURFTAB1
 70
     6
  9
$SURFTAB2
 70
     6
  9
$SURFTYPE
 70
     6
  9
$SURFU
 70
     6
  9
$SURFV
 70
     6
  9
$UCSNAME
  2

  9
$UCSORG
 10
0.0
 20
0.0
 30
0.0
  9
$UCSXDIR
 10
1.0
 20
0.0
 30
0.0
  9
$UCSYDIR
 10
0.0
 20
1.0
 30
0.0
  9
$PUCSNAME
  2

  9
$PUCSORG
 10
0.0
 20
0.0
 30
0.0
  9
$PUCSXDIR
 10
1.0
 20
0.0
 30
0.0
  9
$PUCSYDIR
 10
0.0
 20
1.0
 30
0.0
  9
$USERI1
 70
     0
  9
$USERI2
 70
     0
  9
$USERI3
 70
     0
  9
$USERI4
 70
     0
  9
$USERI5
 70
     0
  9
$USERR1
 40
0.0
  9
$USERR2
 40
0.0
  9
$USERR3
 40
0.0
  9
$USERR4
 40
0.0
  9
$USERR5
 40
0.0
  9
$WORLDVIEW
 70
     1
  9
$SHADEDGE
 70
     3
  9
$SHADEDIF
 70
    70
  9
$TILEMODE
 70
     1
  9
$MAXACTVP
 70
    16
  9
$PLIMCHECK
 70
     0
  9
$PEXTMIN
 10
1.0000000000000000E+20
 20
1.0000000000000000E+20
 30
1.0000000000000000E+20
  9
$PEXTMAX
 10
-1.0000000000000000E+20
 20
-1.0000000000000000E+20
 30
-1.0000000000000000E+20
  9
$PLIMMIN
 10
-0.2555668337663519
 20
-0.2525749932190138
  9
$PLIMMAX
 10
593.7444331662336481
 20
419.7474250067808725
  9
$UNITMODE
 70
     0
  9
$VISRETAIN
 70
     0
  9
$PLINEGEN
 70
     0
  9
$PSLTSCALE
 70
     0
  0
ENDSEC
  0
SECTION
  2
TABLES
  0
TABLE
  2
VPORT
 70
     1
  0
VPORT
  2
*ACTIVE
 70
     0
 10
0.0
 20
0.0
 11
1.0
 21
1.0
 12
222.877320583867089
 22
-844.4786065521954015
 13
0.0
 23
0.0
 14
1.0
 24
1.0
 15
10.0
 25
10.0
 16
-0.0000000000011653
 26
0.0
 36
5224.8172531294358123
 17
-222.8773205838672027
 27
494.478606552195572
 37
-0.0000000000000495
 40
1005.1150895140669945
 41
1.8720136518771331
 42
50.0
 43
0.0
 44
0.0
 50
0.0
 51
0.0
 71
     0
 72
  1500
 73
     1
 74
     0
 75
     0
 76
     0
 77
     0
 78
     0
  0
ENDTAB
  0
TABLE
  2
LTYPE
 70
     4
  0
LTYPE
  2
CONTINUOUS
 70
     0
  3
Solid line
 72
    65
 73
     0
 40
0.0
  0
LTYPE
  2
STRICHPUNKT
 70
     0
  3
__ . __ . __ . __ . __ . __ . __ . __ . __ . __
 72
    65
 73
     4
 40
1.0
 49
0.5
 49
-0.25
 49
0.0
 49
-0.25
  0
LTYPE
  2
AUSGEZOGEN
 70
     0
  3
Ausgezogene Linie
 72
    65
 73
     0
 40
0.0
  0
LTYPE
  2
VERDECKT
 70
     0
  3
Verdeckt __ __ __ __ __ __ __ __ __ __ __ __ __
 72
    65
 73
     2
 40
0.375
 49
0.25
 49
-0.125
  0
ENDTAB
  0
TABLE
  2
LAYER
 70
     5
  0
LAYER
  2
0
 70
     0
 62
     7
  6
CONTINUOUS
  0
LAYER
  2
STEMPEL
 70
     0
 62
     3
  6
CONTINUOUS
  0
LAYER
  2
DEFPOINTS
 70
     0
 62
     7
  6
AUSGEZOGEN
  0
LAYER
  2
ADSK_ASSOC_ENTITY_BACKUPS
 70
     1
 62
    -7
  6
CONTINUOUS
  0
ENDTAB
  0
TABLE
  2
STYLE
 70
     1
  0
STYLE
  2
STANDARD
 70
     0
 40
0.0
 41
0.8
 50
0.0
 71
     0
 42
3.5
  3
simplex.shx
  4

  0
ENDTAB
  0
TABLE
  2
VIEW
 70
     0
  0
ENDTAB
  0
TABLE
  2
UCS
 70
     0
  0
ENDTAB
  0
TABLE
  2
APPID
 70
    29
  0
APPID
  2
ACAD
 70
     0
  0
APPID
  2
ACAD_NAV_VCDISPLAY
 70
     0
  0
APPID
  2
GRADIENTCOLOR1ACI
 70
     0
  0
APPID
  2
GRADIENTCOLOR2ACI
 70
     0
  0
APPID
  2
ACAD_DSTYLE_DIMRADIAL_EXTENSION
 70
     0
  0
APPID
  2
ACADANNOMONITORALERTICONDI
 70
     0
  0
APPID
  2
ACAD_EXEMPT_FROM_CAD_STANDARDS
 70
     0
  0
APPID
  2
ACAD_MLEADERVER
 70
     0
  0
APPID
  2
ACAD_PSEXT
 70
     0
  0
APPID
  2
ACAECLAYERSTANDARD
 70
     0
  0
APPID
  2
ACAUTHENVIRON
 70
     0
  0
APPID
  2
ACDBDYNAMICBLOCKTRUENAME
 70
     0
  0
APPID
  2
ACDBDYNAMICBLOCKGUID
 70
     0
  0
APPID
  2
ACCMTRANSPARENCY
 70
     0
  0
APPID
  2
ACAD_STEPID
 70
     0
  0
APPID
  2
ACAD_DSTYLE_DIMJAG
 70
     0
  0
APPID
  2
ACAD_DSTYLE_DIMTALN
 70
     0
  0
APPID
  2
ACAD_DSTYLE_DIMBREAK
 70
     0
  0
APPID
  2
ACSYNERGY
 70
     0
  0
APPID
  2
SYNERGY_BODY_TBR_ID
 70
     0
  0
APPID
  2
ACAD_VIEW_EDGE_ID
 70
     0
  0
APPID
  2
ACSYNERGYSKETCH
 70
     0
  0
APPID
  2
ACAD_MODELDOC_XFORM
 70
     0
  0
APPID
  2
ACAD_DIMASSOC_CALC_DIMLFAC
 70
     0
  0
APPID
  2
ACAD_DIMASSOC_DIMLFAC
 70
     0
  0
APPID
  2
ACAD_DIMASSOC_OVERRIDDEN_D
 70
     0
  0
APPID
  2
ACADANNOPO
 70
     0
  0
APPID
  2
ACADANNOTATIVE
 70
     0
  0
APPID
  2
PLOTTRANSPARENCY
 70
     0
  0
ENDTAB
  0
TABLE
  2
DIMSTYLE
 70
     3
  0
DIMSTYLE
  2
LORO
 70
     0
  3

  4

  5

  6

  7

 40
1.0
 41
3.5
 42
1.0
 43
0.38
 44
1.0
 45
0.0
 46
0.0
 47
0.0
 48
0.000000001
140
3.5
141
0.09
142
0.0
143
25.3999999999999986
144
2.0
145
0.0
146
0.5
147
1.5
 71
     0
 72
     0
 73
     0
 74
     0
 75
     0
 76
     0
 77
     1
 78
     8
170
     0
171
     2
172
     1
173
     0
174
     0
175
     0
176
     0
177
     0
178
     1
  0
ENDTAB
  0
ENDSEC
  0
SECTION
  2
BLOCKS
  0
BLOCK
  8
0
  2
$MODEL_SPACE
 70
     0
 10
0.0
 20
0.0
 30
0.0
  3
$MODEL_SPACE
  1

  0
ENDBLK
  5
38
  8
0
  0
BLOCK
 67
     1
  8
0
  2
$PAPER_SPACE
 70
     0
 10
0.0
 20
0.0
 30
0.0
  3
$PAPER_SPACE
  1

  0
ENDBLK
  5
36
 67
     1
  8
0
  0
BLOCK
  8
0
  2
*S0
 70
     1
 10
0.0
 20
0.0
 30
0.0
  3
*S0
  1

  0
ENDBLK
  5
1C1E
  8
0
  0
BLOCK
  8
0
  2
A$C34401800
 70
     0
 10
0.0
 20
0.0
 30
0.0
  3
A$C34401800
  1

  0
CIRCLE
  5
409C
  8
0
  6
CONTINUOUS
 62
     3
 10
0.0000000000001137
 20
0.0000000000002274
 30
0.0
 40
41.9500000000000028
210
0.0
220
-0.0000000000000002
230
-1.0
  0
CIRCLE
  5
409D
  8
0
  6
CONTINUOUS
 62
     3
 10
-129.999999999999801
 20
-129.999999999999801
 30
0.0
 40
3.0
210
0.0
220
-0.0000000000000002
230
-1.0
  0
CIRCLE
  5
409E
  8
0
  6
CONTINUOUS
 62
     3
 10
130.0000000000001137
 20
130.000000000000199
 30
0.0
 40
3.0
210
0.0
220
-0.0000000000000002
230
-1.0
  0
CIRCLE
  5
409F
  8
0
  6
CONTINUOUS
 62
     3
 10
-129.9999999999998863
 20
130.000000000000199
 30
0.0
 40
3.0
210
0.0
220
-0.0000000000000002
230
-1.0
  0
CIRCLE
  5
40A0
  8
0
  6
CONTINUOUS
 62
     3
 10
130.0000000000001137
 20
-129.999999999999801
 30
0.0
 40
3.0
210
0.0
220
-0.0000000000000002
230
-1.0
  0
ARC
  5
40A1
  8
0
  6
CONTINUOUS
 62
     3
 10
-129.9999999999998863
 20
130.000000000000199
 30
0.0
 40
20.0
210
0.0
220
-0.0000000000000002
230
-1.0
 50
90.0
 51
180.0
  0
LINE
  5
40A2
  8
0
  6
CONTINUOUS
 62
     3
 10
149.9999999999998863
 20
-129.999999999999801
 30
0.0000000000000289
 11
149.9999999999998863
 21
130.000000000000199
 31
-0.0000000000000289
210
0.0
220
1.0
230
-0.0000000000000002
  0
LINE
  5
40A3
  8
0
  6
CONTINUOUS
 62
     3
 10
129.9999999999998863
 20
150.000000000000199
 30
-0.0000000000000333
 11
-130.0000000000001137
 21
150.000000000000199
 31
-0.0000000000000333
210
0.0
220
1.0
230
-0.0000000000000002
  0
ARC
  5
40A4
  8
0
  6
CONTINUOUS
 62
     3
 10
130.0000000000001137
 20
130.000000000000199
 30
0.0
 40
20.0
210
0.0
220
-0.0000000000000002
230
-1.0
 50
0.0
 51
90.0
  0
LINE
  5
40A5
  8
0
  6
CONTINUOUS
 62
     3
 10
-150.0000000000001137
 20
130.000000000000199
 30
-0.0000000000000289
 11
-150.0000000000001137
 21
-129.999999999999801
 31
0.0000000000000289
210
0.0
220
1.0
230
-0.0000000000000002
  0
ARC
  5
40A6
  8
0
  6
CONTINUOUS
 62
     3
 10
130.0000000000001137
 20
-129.999999999999801
 30
0.0
 40
20.0
210
0.0
220
-0.0000000000000002
230
-1.0
 50
270.0
 51
0.0
  0
LINE
  5
40A7
  8
0
  6
CONTINUOUS
 62
     3
 10
-130.0000000000001137
 20
-149.999999999999801
 30
0.0000000000000333
 11
129.9999999999998863
 21
-149.999999999999801
 31
0.0000000000000333
210
0.0
220
1.0
230
-0.0000000000000002
  0
ARC
  5
40A8
  8
0
  6
CONTINUOUS
 62
     3
 10
-129.9999999999998863
 20
-129.999999999999801
 30
0.0
 40
20.0
210
0.0
220
-0.0000000000000002
230
-1.0
 50
180.0
 51
270.0
  0
CIRCLE
  5
40A9
  8
0
  6
CONTINUOUS
 62
     3
 10
-0.0000000000000374
 20
0.0
 30
0.0
 40
34.6921457176084687
210
0.0
220
-0.0000000000000002
230
-1.0
  0
CIRCLE
  5
40AA
  8
0
  6
CONTINUOUS
 62
     3
 10
-0.0000000000000116
 20
0.0
 30
0.0
 40
39.2594616805545229
  0
CIRCLE
  5
40AB
  8
0
  6
CONTINUOUS
 62
     3
 10
-0.0000000000000115
 20
0.0
 30
0.0
 40
38.1718923361102114
  0
CIRCLE
  5
40AC
  8
0
  6
CONTINUOUS
 62
     3
 10
-0.0000000000000102
 20
0.0
 30
0.0
 40
41.8999999999996291
  0
CIRCLE
  5
40AD
  8
0
  6
CONTINUOUS
 62
     3
 10
-0.0000000000000003
 20
0.0
 30
0.0
 40
35.2999999999999616
  0
CIRCLE
  5
40AE
  8
0
  6
CONTINUOUS
 62
     3
 10
0.0000000000000097
 20
0.0
 30
0.0
 40
41.9000862159354028
210
0.0
220
-0.0000000000000002
230
-1.0
  0
CIRCLE
  5
40AF
  8
0
  6
VERDECKT
 62
     1
 10
0.0000000000001137
 20
0.0000000000002274
 30
0.0
 40
42.9368770777892834
210
0.0
220
-0.0000000000000002
230
-1.0
  0
CIRCLE
  5
40B0
  8
0
  6
VERDECKT
 62
     1
 10
-0.0000000000000374
 20
0.0
 30
0.0
 40
35.8875793553185076
210
0.0
220
-0.0000000000000002
230
-1.0
  0
CIRCLE
  5
40B1
  8
0
  6
VERDECKT
 62
     1
 10
-0.000000000000008
 20
0.0
 30
0.0
 40
38.1999999999995907
  0
CIRCLE
  5
40B2
  8
0
  6
VERDECKT
 62
     1
 10
-0.000000000000008
 20
0.0
 30
0.0
 40
39.3999999999996433
  0
CIRCLE
  5
40B3
  8
0
  6
VERDECKT
 62
     1
 10
-0.0000000000000102
 20
0.0
 30
0.0
 40
40.6999999999995907
  0
CIRCLE
  5
40B4
  8
0
  6
VERDECKT
 62
     1
 10
-0.0000000000000003
 20
0.0
 30
0.0
 40
36.5
  0
CIRCLE
  5
40B5
  8
0
  6
VERDECKT
 62
     1
 10
0.0000000000000097
 20
0.0
 30
0.0
 40
40.7000862159353431
210
0.0
220
-0.0000000000000002
230
-1.0
  0
ENDBLK
  5
40B7
  8
0
  0
BLOCK
  8
0
  2
A$C566E4785
 70
     0
 10
0.0
 20
0.0
 30
0.0
  3
A$C566E4785
  1

  0
LINE
  5
40BB
  8
0
  6
CONTINUOUS
 62
     3
 10
42.9368770777891697
 20
14.9999999999994902
 30
0.0000000000000095
 11
-42.9368770777893971
 21
14.9999999999994795
 31
-0.0000000000000095
  0
LINE
  5
40BC
  8
0
  6
CONTINUOUS
 62
     3
 10
129.9999999999998863
 20
2.9999999999993761
 30
0.0000000000000284
 11
149.9999999999998863
 21
2.9999999999993778
 31
0.0000000000000284
  0
LINE
  5
40BD
  8
0
  6
CONTINUOUS
 62
     3
 10
149.9999999999998863
 20
1.999999999999492
 30
0.0000000000000284
 11
129.9999999999998863
 21
1.9999999999994891
 31
0.0000000000000284
  0
LINE
  5
40BE
  8
0
  6
CONTINUOUS
 62
     3
 10
149.9999999999998863
 20
1.999999999999488
 30
0.0000000000000284
 11
149.9999999999998863
 21
2.999999999999488
 31
0.0000000000000284
  0
LINE
  5
40BF
  8
0
  6
CONTINUOUS
 62
     3
 10
129.9999999999998863
 20
1.999999999999488
 30
0.0000000000000284
 11
-130.0
 21
1.99999999999944
 31
-0.0000000000000293
  0
LINE
  5
40C0
  8
0
  6
CONTINUOUS
 62
     3
 10
-130.0000000000001137
 20
1.999999999999432
 30
-0.0000000000000284
 11
-150.0000000000001137
 21
1.9999999999994269
 31
-0.0000000000000284
  0
LINE
  5
40C1
  8
0
  6
CONTINUOUS
 62
     3
 10
-150.0000000000001137
 20
2.9999999999994311
 30
-0.0000000000000284
 11
-150.0000000000001137
 21
1.9999999999994309
 31
-0.0000000000000284
  0
LINE
  5
40C2
  8
0
  6
CONTINUOUS
 62
     3
 10
-150.0000000000001137
 20
2.9999999999993139
 30
-0.0000000000000284
 11
-130.0000000000001137
 21
2.9999999999993192
 31
-0.0000000000000284
  0
LINE
  5
40C3
  8
0
  6
CONTINUOUS
 62
     3
 10
-130.0000000000001137
 20
2.9999999999994311
 30
-0.0000000000000284
 11
129.9999999999998863
 21
2.9999999999994791
 31
0.0000000000000293
  0
ARC
  5
40C4
  8
0
  6
CONTINUOUS
 62
     3
 10
45.7499999999998934
 20
3.9999999999994951
 30
0.0000000000000102
 40
1.0000000000000071
 50
189.2924233757254058
 51
270.0
  0
ARC
  5
40C5
  8
0
  6
CONTINUOUS
 62
     3
 10
-45.7500000000001208
 20
3.9999999999994929
 30
-0.0000000000000102
 40
1.0000000000000051
 50
270.0000000000003979
 51
350.7075766242782038
  0
LINE
  5
40C6
  8
0
  6
CONTINUOUS
 62
     3
 10
42.9368770777891697
 20
14.9999999999994902
 30
0.0000000000000095
 11
44.7631229222106199
 21
3.8385266791873418
 31
0.0000000000000099
  0
LINE
  5
40C7
  8
0
  6
CONTINUOUS
 62
     3
 10
-42.93687707778939
 20
14.9999999999994902
 30
-0.0000000000000095
 11
-44.7631229222108402
 21
3.8385266791873951
 31
-0.0000000000000099
  0
LINE
  5
40C8
  8
0
  6
CONTINUOUS
 62
     3
 10
35.8875793553188416
 20
600.0
 30
0.000000000000008
 11
0.0000000000000995
 21
600.0
 31
0.0
  0
LINE
  5
40C9
  8
0
  6
CONTINUOUS
 62
     3
 10
0.0000000000000966
 20
600.0
 30
0.0
 11
-35.8875793553184721
 21
600.0
 31
-0.000000000000008
  0
LINE
  5
40CA
  8
0
  6
CONTINUOUS
 62
     3
 10
-39.2594616805545371
 20
-0.0000000000000805
 30
-0.0000000000000087
 11
39.2594616805545087
 21
-0.0000000000000901
 31
0.0000000000000087
  0
ARC
  5
40CB
  8
0
  6
CONTINUOUS
 62
     3
 10
35.4999999999983871
 20
592.9563390570924639
 30
0.0000000000000079
 40
1.0000000000016449
 50
0.0
 51
4.9999999999915472
  0
ARC
  5
40CC
  8
0
  6
CONTINUOUS
 62
     3
 10
-35.4999999999983231
 20
592.9563390570924639
 30
-0.0000000000000079
 40
1.000000000001648
 50
175.0000000000084128
 51
180.0
  0
LINE
  5
40CD
  8
0
  6
CONTINUOUS
 62
     3
 10
35.8875793553184934
 20
600.0
 30
0.000000000000008
 11
36.4961946980917915
 21
593.0434947998401185
 31
0.0000000000000081
  0
LINE
  5
40CE
  8
0
  6
CONTINUOUS
 62
     3
 10
-35.8875793553184224
 20
600.0
 30
-0.000000000000008
 11
-36.4961946980917205
 21
593.0434947998401185
 31
-0.0000000000000081
  0
LINE
  5
40CF
  8
0
  6
CONTINUOUS
 62
     3
 10
39.3999999999996291
 20
49.1484939899709374
 30
0.0000000000000087
 11
39.3999999999996291
 21
28.8718289426859904
 31
0.0000000000000087
  0
LINE
  5
40D0
  8
0
  6
CONTINUOUS
 62
     3
 10
-39.3999999999996433
 20
49.1484939899709516
 30
-0.0000000000000087
 11
-39.3999999999996433
 21
28.8718289426860011
 31
-0.0000000000000087
  0
ARC
  5
40D1
  8
0
  6
CONTINUOUS
 62
     3
 10
-51.8999999999656509
 20
28.8718289426792296
 30
-0.0000000000000115
 40
12.4999999999660005
 50
338.8331479601881142
 51
0.0000000000310422
  0
ARC
  5
40D2
  8
0
  6
CONTINUOUS
 62
     3
 10
51.8999999999659778
 20
28.87182894267929
 30
0.0000000000000115
 40
12.4999999999663505
 50
179.9999999999693046
 51
201.1668520398116868
  0
ARC
  5
40D3
  8
0
  6
CONTINUOUS
 62
     3
 10
-16.9941909850606585
 20
15.4262594256517502
 30
-0.0000000000000038
 40
24.9058952308747514
 50
158.9839059890084059
 51
180.1507580287745043
  0
ARC
  5
40D4
  8
0
  6
CONTINUOUS
 62
     3
 10
16.9941909850608788
 20
15.4262594256518106
 30
0.0000000000000038
 40
24.9058952308745098
 50
359.8492419712251831
 51
21.0160940109916901
  0
LINE
  5
40D5
  8
0
  6
CONTINUOUS
 62
     3
 10
41.8999999999996291
 20
15.3607265125960097
 30
0.0000000000000093
 11
41.8999999999996291
 21
14.9999999999994902
 31
0.0000000000000093
  0
LINE
  5
40D6
  8
0
  6
CONTINUOUS
 62
     3
 10
-41.8999999999996433
 20
15.3607265125960204
 30
-0.0000000000000093
 11
-41.8999999999996433
 21
14.9999999999994902
 31
-0.0000000000000093
  0
ARC
  5
40D7
  8
0
  6
CONTINUOUS
 62
     3
 10
-17.0000000000821885
 20
11.1828497997105298
 30
-0.0000000000000038
 40
24.8999999999165489
 50
201.6409603100154868
 51
205.0000000000416094
  0
ARC
  5
40D8
  8
0
  6
CONTINUOUS
 62
     3
 10
17.0000000000678888
 20
11.1828497997168697
 30
0.0000000000000038
 40
24.8999999999321702
 50
334.9999999999590159
 51
338.3590396899829784
  0
LINE
  5
40D9
  8
0
  6
CONTINUOUS
 62
     3
 10
-39.2594616805545371
 20
-0.0000000000000804
 30
-0.0000000000000087
 11
-39.5670638972114972
 21
0.6596550823859721
 31
-0.0000000000000088
  0
LINE
  5
40DA
  8
0
  6
CONTINUOUS
 62
     3
 10
39.2594616805545087
 20
-0.0000000000000902
 30
0.0000000000000087
 11
39.5670638972114688
 21
0.6596550823859624
 31
0.0000000000000088
  0
ARC
  5
40DB
  8
0
  6
CONTINUOUS
 62
     3
 10
-27.4999999999917897
 20
49.1484939899678608
 30
-0.0000000000000061
 40
11.9000000000078394
 50
148.6793304115938952
 51
179.999999999985107
  0
ARC
  5
40DC
  8
0
  6
CONTINUOUS
 62
     3
 10
27.4999999999918501
 20
49.1484939899678821
 30
0.0000000000000061
 40
11.9000000000077897
 50
0.0000000000147578
 51
31.3206695884061403
  0
ARC
  5
40DD
  8
0
  6
CONTINUOUS
 62
     3
 10
-44.4999999999829967
 20
59.4930577797047704
 30
-0.0000000000000099
 40
7.9999999999829958
 50
328.6793304115628871
 51
0.0000000000446295
  0
ARC
  5
40DE
  8
0
  6
CONTINUOUS
 62
     3
 10
44.4999999999830891
 20
59.4930577797047704
 30
0.0000000000000099
 40
7.9999999999830944
 50
179.9999999999546105
 51
211.3206695884368003
  0
LINE
  5
40DF
  8
0
  6
CONTINUOUS
 62
     3
 10
-36.5
 20
59.4930577797109876
 30
-0.0000000000000081
 11
-36.4999999999999432
 21
592.9563390570924639
 31
-0.0000000000000081
  0
LINE
  5
40E0
  8
0
  6
CONTINUOUS
 62
     3
 10
36.5
 20
59.4930577797111084
 30
0.0000000000000081
 11
36.5000000000000711
 21
592.9563390570924639
 31
0.0000000000000081
  0
LINE
  5
40E1
  8
0
  6
VERDECKT
 62
     1
 10
41.9499999999998678
 20
14.8385266791873391
 30
0.0000000000000093
 11
-41.9500000000001023
 21
14.8385266791873303
 31
-0.0000000000000093
  0
LINE
  5
40E2
  8
0
  6
VERDECKT
 62
     1
 10
-41.9500000000001023
 20
14.8385266791873693
 30
-0.0000000000000093
 11
-42.93687707778939
 21
14.9999999999995008
 31
-0.0000000000000095
  0
LINE
  5
40E3
  8
0
  6
VERDECKT
 62
     1
 10
41.9499999999998607
 20
14.8385266791873693
 30
0.0000000000000093
 11
42.9368770777891697
 21
14.9999999999995008
 31
0.0000000000000095
  0
LINE
  5
40E4
  8
0
  6
VERDECKT
 62
     1
 10
41.9499999999998892
 20
14.8385266791873391
 30
0.0000000000000093
 11
43.7762458444213323
 21
3.6770533583752441
 31
0.0000000000000097
  0
LINE
  5
40E5
  8
0
  6
VERDECKT
 62
     1
 10
-41.9500000000001165
 20
14.8385266791873391
 30
-0.0000000000000093
 11
-43.7762458444215525
 21
3.6770533583752458
 31
-0.0000000000000097
  0
ARC
  5
40E6
  8
0
  6
VERDECKT
 62
     1
 10
45.7499999999998792
 20
3.9999999999994809
 30
0.0000000000000102
 40
1.999999999999992
 50
189.2924233757229047
 51
270.0
  0
ARC
  5
40E7
  8
0
  6
VERDECKT
 62
     1
 10
-45.7500000000001066
 20
3.9999999999994822
 30
-0.0000000000000102
 40
1.999999999999996
 50
270.0
 51
350.7075766242771238
  0
LINE
  5
40E8
  8
0
  6
VERDECKT
 62
     1
 10
-133.0000000000001137
 20
1.999999999999488
 30
-0.0000000000000284
 11
-133.0000000000001137
 21
2.9999999999993738
 31
-0.0000000000000284
  0
LINE
  5
40E9
  8
0
  6
VERDECKT
 62
     1
 10
-127.0000000000000995
 20
1.999999999999488
 30
-0.0000000000000284
 11
-127.0000000000000995
 21
2.9999999999993752
 31
-0.0000000000000284
  0
LINE
  5
40EA
  8
0
  6
VERDECKT
 62
     1
 10
126.9999999999999005
 20
1.999999999999488
 30
0.0000000000000284
 11
126.9999999999999005
 21
2.9999999999993738
 31
0.0000000000000284
  0
LINE
  5
40EB
  8
0
  6
VERDECKT
 62
     1
 10
132.9999999999998863
 20
1.9999999999994309
 30
0.0000000000000284
 11
132.9999999999998863
 21
2.9999999999993752
 31
0.0000000000000284
  0
LINE
  5
40EC
  8
0
  6
VERDECKT
 62
     1
 10
34.692145717608561
 20
599.8954131087026553
 30
0.0000000000000077
 11
0.0000000000000995
 21
599.8954131087026553
 31
0.0
  0
LINE
  5
40ED
  8
0
  6
VERDECKT
 62
     1
 10
0.0000000000000982
 20
599.8954131087026553
 30
0.0
 11
-34.6921457176084331
 21
599.8954131087026553
 31
-0.0000000000000077
  0
LINE
  5
40EE
  8
0
  6
VERDECKT
 62
     1
 10
-38.1718923361102185
 20
0.5071419140880711
 30
-0.0000000000000085
 11
38.1718923361101901
 21
0.5071419140880618
 31
0.0000000000000085
  0
ARC
  5
40EF
  8
0
  6
VERDECKT
 62
     1
 10
34.2999999999983416
 20
592.9039459256035798
 30
0.0000000000000076
 40
1.0000000000016449
 50
0.0
 51
4.9999999999915472
  0
ARC
  5
40F0
  8
0
  6
VERDECKT
 62
     1
 10
-34.2999999999982705
 20
592.9039459256035798
 30
-0.0000000000000076
 40
1.000000000001648
 50
175.0000000000084128
 51
180.0
  0
LINE
  5
40F1
  8
0
  6
VERDECKT
 62
     1
 10
34.6921457176084473
 20
599.8954131087026553
 30
0.0000000000000077
 11
35.2961946980917318
 21
592.9911016683513481
 31
0.0000000000000078
  0
LINE
  5
40F2
  8
0
  6
VERDECKT
 62
     1
 10
-34.6921457176083834
 20
599.8954131087026553
 30
-0.0000000000000077
 11
-35.2961946980916608
 21
592.9911016683513481
 31
-0.0000000000000078
  0
LINE
  5
40F3
  8
0
  6
VERDECKT
 62
     1
 10
-34.6921457176084402
 20
599.8954131087026553
 30
-0.0000000000000077
 11
-35.8875793553184721
 21
600.0
 31
-0.000000000000008
  0
LINE
  5
40F4
  8
0
  6
VERDECKT
 62
     1
 10
34.6921457176085113
 20
599.8954131087026553
 30
0.0000000000000077
 11
35.8875793553185432
 21
600.0
 31
0.000000000000008
  0
LINE
  5
40F5
  8
0
  6
VERDECKT
 62
     1
 10
38.1999999999995907
 20
49.1484939899709374
 30
0.0000000000000085
 11
38.1999999999995907
 21
28.8718289426865589
 31
0.0000000000000085
  0
LINE
  5
40F6
  8
0
  6
VERDECKT
 62
     1
 10
-38.1999999999995978
 20
49.1484939899709516
 30
-0.0000000000000085
 11
-38.1999999999995978
 21
28.8718289426865589
 31
-0.0000000000000085
  0
LINE
  5
40F7
  8
0
  6
VERDECKT
 62
     1
 10
38.1718923361102114
 20
0.5071419140881054
 30
0.0000000000000085
 11
39.25946168055453
 21
-0.0000000000000465
 31
0.0000000000000087
  0
LINE
  5
40F8
  8
0
  6
VERDECKT
 62
     1
 10
-38.1718923361102398
 20
0.5071419140881146
 30
-0.0000000000000085
 11
-39.2594616805545584
 21
-0.000000000000037
 31
-0.0000000000000087
  0
LINE
  5
40F9
  8
0
  6
VERDECKT
 62
     1
 10
-38.1718923361102185
 20
0.5071419140880711
 30
-0.0000000000000085
 11
-38.479494552767143
 21
1.1667969964740359
 31
-0.0000000000000085
  0
LINE
  5
40FA
  8
0
  6
VERDECKT
 62
     1
 10
38.1718923361101901
 20
0.5071419140880618
 30
0.0000000000000085
 11
38.4794945527671075
 21
1.166796996474027
 31
0.0000000000000085
  0
ARC
  5
40FB
  8
0
  6
VERDECKT
 62
     1
 10
-17.0000000000704894
 20
11.1828497997152407
 30
-0.0000000000000038
 40
23.6999999999291084
 50
179.9999999999928093
 51
205.0000000000441958
  0
ARC
  5
40FC
  8
0
  6
VERDECKT
 62
     1
 10
17.000000000070731
 20
11.1828497997151697
 30
0.0000000000000038
 40
23.6999999999288384
 50
334.999999999955719
 51
0.0000000000072771
  0
LINE
  5
40FD
  8
0
  6
VERDECKT
 62
     1
 10
40.6999999999995765
 20
15.3623247367274001
 30
0.000000000000009
 11
40.6999999999995765
 21
11.1828497997181806
 31
0.000000000000009
  0
LINE
  5
40FE
  8
0
  6
VERDECKT
 62
     1
 10
-40.6999999999995978
 20
15.3623247367274107
 30
-0.000000000000009
 11
-40.6999999999995978
 21
11.1828497997181895
 31
-0.000000000000009
  0
ARC
  5
40FF
  8
0
  6
VERDECKT
 62
     1
 10
-16.9941909850668083
 20
15.4262594256528303
 30
-0.0000000000000038
 40
23.7058952308685384
 50
158.9875872062667952
 51
180.1545266375777032
  0
ARC
  5
4100
  8
0
  6
VERDECKT
 62
     1
 10
16.9941909850666697
 20
15.4262594256528107
 30
0.0000000000000038
 40
23.7058952308686592
 50
359.8454733624221831
 51
21.0124127937330591
  0
ARC
  5
4101
  8
0
  6
VERDECKT
 62
     1
 10
-51.8999999999707384
 20
28.8718289426825514
 30
-0.0000000000000115
 40
13.6999999999711406
 50
338.8399832291506755
 51
0.0000000000168188
  0
ARC
  5
4102
  8
0
  6
VERDECKT
 62
     1
 10
51.8999999999708805
 20
28.8718289426825514
 30
0.0000000000000115
 40
13.6999999999712898
 50
179.9999999999832028
 51
201.1600167708490119
  0
LINE
  5
4103
  8
0
  6
VERDECKT
 62
     1
 10
41.8999999999996291
 20
14.9999999999994902
 30
0.0000000000000093
 11
41.8999999999996291
 21
11.1828497997182907
 31
0.0000000000000093
  0
LINE
  5
4104
  8
0
  6
VERDECKT
 62
     1
 10
-41.8999999999996433
 20
14.9999999999994902
 30
-0.0000000000000093
 11
-41.8999999999996433
 21
11.1828497997182996
 31
-0.0000000000000093
  0
ARC
  5
4105
  8
0
  6
VERDECKT
 62
     1
 10
-17.0000000000723013
 20
11.1828497997148997
 30
-0.0000000000000038
 40
24.8999999999273598
 50
179.9999999999920988
 51
201.6409603100163963
  0
ARC
  5
4106
  8
0
  6
VERDECKT
 62
     1
 10
17.0000000000724789
 20
11.1828497997148393
 30
0.0000000000000038
 40
24.8999999999271502
 50
338.35903968998349
 51
0.0000000000079387
  0
ARC
  5
4107
  8
0
  6
VERDECKT
 62
     1
 10
-44.4999999999828901
 20
59.493057779704742
 30
-0.0000000000000099
 40
9.1999999999829356
 50
328.679330411566923
 51
0.00000000003893
  0
ARC
  5
4108
  8
0
  6
VERDECKT
 62
     1
 10
44.4999999999829399
 20
59.4930577797047277
 30
0.0000000000000099
 40
9.1999999999829871
 50
179.9999999999560885
 51
211.3206695884329065
  0
ARC
  5
4109
  8
0
  6
VERDECKT
 62
     1
 10
-27.4999999999948699
 20
49.1484939899688626
 30
-0.0000000000000061
 40
10.7000000000047102
 50
148.6793304115898025
 51
179.9999999999888018
  0
ARC
  5
410A
  8
0
  6
VERDECKT
 62
     1
 10
27.4999999999950511
 20
49.1484939899688911
 30
0.0000000000000061
 40
10.7000000000045308
 50
0.0000000000109411
 51
31.3206695884105102
  0
LINE
  5
410B
  8
0
  6
VERDECKT
 62
     1
 10
-35.2999999999999616
 20
59.4930577797109876
 30
-0.0000000000000078
 11
-35.2999999999998906
 21
592.9039459256035798
 31
-0.0000000000000078
  0
LINE
  5
410C
  8
0
  6
VERDECKT
 62
     1
 10
35.2999999999999616
 20
59.4930577797117621
 30
0.0000000000000078
 11
35.3000000000000185
 21
592.9039459256035798
 31
0.0000000000000078
  0
ENDBLK
  5
410E
  8
0
  0
ENDSEC
  0
SECTION
  2
ENTITIES
  0
INSERT
  5
1C20
  8
ADSK_ASSOC_ENTITY_BACKUPS
  2
*S0
 10
0.0
 20
0.0
 30
0.0
  0
LINE
  5
2EA9
  8
DEFPOINTS
  6
STRICHPUNKT
 62
     6
 10
0.0
 20
-849.9999999999997726
 30
0.0
 11
0.0000000000000245
 21
-249.9999999999998863
 31
0.0
  0
INSERT
  5
40B8
  8
STEMPEL
  2
A$C34401800
 10
0.0
 20
0.0
 30
0.0
  0
INSERT
  5
410F
  8
STEMPEL
  2
A$C566E4785
 10
0.0
 20
-849.9999999999997726
 30
0.0
  0
VIEWPORT
  5
1B12
 67
     1
  8
0
 10
296.7444331662335912
 20
209.7474250067809862
 30
0.0
 40
790.2674510967764263
 41
422.1483375959078899
 68
     1
 69
     1
1001
ACAD
1000
MVIEW
1002
{
1070
    16
1010
0.0
1020
0.0
1030
0.0
1010
0.0
1020
0.0
1030
1.0
1040
0.0
1040
422.1483375959078899
1040
296.7444331662335912
1040
209.7474250067809862
1040
50.0
1040
0.0
1040
0.0
1070
     0
1070
  1500
1070
     1
1070
     1
1070
     0
1070
     0
1070
     0
1070
     0
1040
0.0
1040
0.0
1040
0.0
1040
10.0
1040
10.0
1040
10.0
1040
10.0
1070
     0
1002
{
1002
}
1002
}
  0
ENDSEC
  0
EOF
