  0
SECTION
  2
HEADER
  9
$ACADVER
  1
AC1009
  9
$INSBASE
 10
0.0
 20
0.0
 30
0.0
  9
$EXTMIN
 10
-90.5
 20
-90.5
 30
-0.0000000000000018
  9
$EXTMAX
 10
90.5
 20
158.0
 30
0.000000000000006
  9
$LIMMIN
 10
0.0
 20
0.0
  9
$LIMMAX
 10
419.9999999999998863
 20
297.0000000000001137
  9
$ORTHOMODE
 70
     1
  9
$REGENMODE
 70
     1
  9
$FILLMODE
 70
     1
  9
$QTEXTMODE
 70
     0
  9
$MIRRTEXT
 70
     1
  9
$DRAGMODE
 70
     2
  9
$LTSCALE
 40
10.0
  9
$OSMODE
 70
  1535
  9
$ATTMODE
 70
     1
  9
$TEXTSIZE
 40
3.5
  9
$TRACEWID
 40
1.0
  9
$TEXTSTYLE
  7
STANDARD
  9
$CLAYER
  8
STEMPEL
  9
$CELTYPE
  6
BYLAYER
  9
$CECOLOR
 62
   256
  9
$DIMSCALE
 40
1.0
  9
$DIMASZ
 40
3.5
  9
$DIMEXO
 40
1.0
  9
$DIMDLI
 40
7.0
  9
$DIMRND
 40
0.0
  9
$DIMDLE
 40
0.0
  9
$DIMEXE
 40
1.0
  9
$DIMTP
 40
0.0
  9
$DIMTM
 40
0.0
  9
$DIMTXT
 40
3.5
  9
$DIMCEN
 40
1.5
  9
$DIMTSZ
 40
0.0
  9
$DIMTOL
 70
     0
  9
$DIMLIM
 70
     0
  9
$DIMTIH
 70
     0
  9
$DIMTOH
 70
     0
  9
$DIMSE1
 70
     0
  9
$DIMSE2
 70
     0
  9
$DIMTAD
 70
     1
  9
$DIMZIN
 70
     8
  9
$DIMBLK
  1

  9
$DIMASO
 70
     1
  9
$DIMSHO
 70
     0
  9
$DIMPOST
  1

  9
$DIMAPOST
  1

  9
$DIMALT
 70
     0
  9
$DIMALTD
 70
     2
  9
$DIMALTF
 40
25.3999999999999986
  9
$DIMLFAC
 40
1.0
  9
$DIMTOFL
 70
     1
  9
$DIMTVP
 40
0.5714285714285714
  9
$DIMTIX
 70
     0
  9
$DIMSOXD
 70
     0
  9
$DIMSAH
 70
     0
  9
$DIMBLK1
  1

  9
$DIMBLK2
  1

  9
$DIMSTYLE
  2
STANDARD
  9
$DIMCLRD
 70
     0
  9
$DIMCLRE
 70
     0
  9
$DIMCLRT
 70
     1
  9
$DIMTFAC
 40
1.0
  9
$DIMGAP
 40
1.5
  9
$LUNITS
 70
     2
  9
$LUPREC
 70
     2
  9
$SKETCHINC
 40
1.0
  9
$FILLETRAD
 40
0.0
  9
$AUNITS
 70
     0
  9
$AUPREC
 70
     0
  9
$MENU
  1
ACAD
  9
$ELEVATION
 40
0.0
  9
$PELEVATION
 40
0.0
  9
$THICKNESS
 40
0.0
  9
$LIMCHECK
 70
     0
  9
$BLIPMODE
 70
     0
  9
$CHAMFERA
 40
0.5
  9
$CHAMFERB
 40
0.5
  9
$SKPOLY
 70
     0
  9
$TDCREATE
 40
2451729.5233101858757436
  9
$TDUPDATE
 40
2460893.4872569451108575
  9
$TDINDWG
 40
0.114208588
  9
$TDUSRTIMER
 40
0.114208588
  9
$USRTIMER
 70
     1
  9
$ANGBASE
 50
0.0
  9
$ANGDIR
 70
     0
  9
$PDMODE
 70
     0
  9
$PDSIZE
 40
0.0
  9
$PLINEWID
 40
0.0
  9
$COORDS
 70
     1
  9
$SPLFRAME
 70
     0
  9
$SPLINETYPE
 70
     6
  9
$SPLINESEGS
 70
     8
  9
$ATTDIA
 70
     1
  9
$ATTREQ
 70
     1
  9
$HANDLING
 70
     1
  9
$HANDSEED
  5
A65
  9
$SURFTAB1
 70
     6
  9
$SURFTAB2
 70
     6
  9
$SURFTYPE
 70
     6
  9
$SURFU
 70
     6
  9
$SURFV
 70
     6
  9
$UCSNAME
  2

  9
$UCSORG
 10
0.0
 20
0.0
 30
0.0
  9
$UCSXDIR
 10
1.0
 20
0.0
 30
0.0
  9
$UCSYDIR
 10
0.0
 20
1.0
 30
0.0
  9
$PUCSNAME
  2

  9
$PUCSORG
 10
0.0
 20
0.0
 30
0.0
  9
$PUCSXDIR
 10
1.0
 20
0.0
 30
0.0
  9
$PUCSYDIR
 10
0.0
 20
1.0
 30
0.0
  9
$USERI1
 70
     0
  9
$USERI2
 70
     0
  9
$USERI3
 70
     0
  9
$USERI4
 70
     0
  9
$USERI5
 70
     0
  9
$USERR1
 40
0.0
  9
$USERR2
 40
0.0
  9
$USERR3
 40
0.0
  9
$USERR4
 40
0.0
  9
$USERR5
 40
0.0
  9
$WORLDVIEW
 70
     1
  9
$SHADEDGE
 70
     3
  9
$SHADEDIF
 70
    70
  9
$TILEMODE
 70
     1
  9
$MAXACTVP
 70
    16
  9
$PLIMCHECK
 70
     0
  9
$PEXTMIN
 10
1.0000000000000000E+20
 20
1.0000000000000000E+20
 30
1.0000000000000000E+20
  9
$PEXTMAX
 10
-1.0000000000000000E+20
 20
-1.0000000000000000E+20
 30
-1.0000000000000000E+20
  9
$PLIMMIN
 10
-0.2500002402958907
 20
-0.2499999962453767
  9
$PLIMMAX
 10
10.7499995194082203
 20
8.2499997634587334
  9
$UNITMODE
 70
     0
  9
$VISRETAIN
 70
     0
  9
$PLINEGEN
 70
     0
  9
$PSLTSCALE
 70
     0
  0
ENDSEC
  0
SECTION
  2
TABLES
  0
TABLE
  2
VPORT
 70
     1
  0
VPORT
  2
*ACTIVE
 70
     0
 10
0.0
 20
0.0
 11
1.0
 21
1.0
 12
-20.7889404463701588
 22
33.9479102212781498
 13
0.0
 23
0.0
 14
2.5
 24
2.5
 15
10.0
 25
10.0
 16
-0.0000000000002309
 26
0.0
 36
1039.8833809581440164
 17
20.7889404463701801
 27
-0.19791022127813
 37
0.0000000000000067
 40
249.7809278350516138
 41
1.8839208942390371
 42
50.0
 43
0.0
 44
0.0
 50
0.0
 51
0.0
 71
     0
 72
   500
 73
     1
 74
     0
 75
     0
 76
     0
 77
     0
 78
     0
  0
ENDTAB
  0
TABLE
  2
LTYPE
 70
     3
  0
LTYPE
  2
CONTINUOUS
 70
     0
  3
Solid line
 72
    65
 73
     0
 40
0.0
  0
LTYPE
  2
VERDECKT
 70
     0
  3
Verdeckt __ __ __ __ __ __ __ __ __ __ __ __ __
 72
    65
 73
     2
 40
0.375
 49
0.25
 49
-0.125
  0
ENDTAB
  0
TABLE
  2
LAYER
 70
     5
  0
LAYER
  2
0
 70
     0
 62
     7
  6
CONTINUOUS
  0
LAYER
  2
STEMPEL
 70
     0
 62
     3
  6
CONTINUOUS
  0
LAYER
  2
ADSK_ASSOC_ENTITY_BACKUPS
 70
     1
 62
    -7
  6
CONTINUOUS
  0
ENDTAB
  0
TABLE
  2
STYLE
 70
     2
  0
STYLE
  2
STANDARD
 70
     0
 40
0.0
 41
0.8
 50
0.0
 71
     0
 42
3.5
  3
simplex.shx
  4

  0
ENDTAB
  0
TABLE
  2
VIEW
 70
     0
  0
ENDTAB
  0
TABLE
  2
UCS
 70
     0
  0
ENDTAB
  0
TABLE
  2
APPID
 70
    21
  0
APPID
  2
ACAD
 70
     0
  0
APPID
  2
ACAECLAYERSTANDARD
 70
     0
  0
APPID
  2
ACCMTRANSPARENCY
 70
     0
  0
APPID
  2
ACAD_NAV_VCDISPLAY
 70
     0
  0
APPID
  2
ACAD_PSEXT
 70
     0
  0
APPID
  2
ACAD_EXEMPT_FROM_CAD_STANDARDS
 70
     0
  0
APPID
  2
ACSYNERGY
 70
     0
  0
APPID
  2
SYNERGY_BODY_TBR_ID
 70
     0
  0
APPID
  2
ACAD_VIEW_EDGE_ID
 70
     0
  0
APPID
  2
ACSYNERGYSKETCH
 70
     0
  0
APPID
  2
ACAD_MODELDOC_XFORM
 70
     0
  0
APPID
  2
ACAD_DIMASSOC_CALC_DIMLFAC
 70
     0
  0
APPID
  2
ACAD_DIMASSOC_DIMLFAC
 70
     0
  0
APPID
  2
ACAD_DIMASSOC_OVERRIDDEN_D
 70
     0
  0
APPID
  2
ACAD_DSTYLE_DIMRADIAL_EXTENSION
 70
     0
  0
APPID
  2
ACADANNOMONITORALERTICONDI
 70
     0
  0
APPID
  2
ACAD_DSTYLE_DIMJAG
 70
     0
  0
APPID
  2
ACAD_DSTYLE_DIMBREAK
 70
     0
  0
APPID
  2
ACAD_DSTYLE_DIMTALN
 70
     0
  0
APPID
  2
ACADANNOTATIVE
 70
     0
  0
APPID
  2
ACAD_MLEADERVER
 70
     0
  0
ENDTAB
  0
TABLE
  2
DIMSTYLE
 70
     1
  0
DIMSTYLE
  2
STANDARD
 70
     0
  3

  4

  5

  6

  7

 40
1.0
 41
0.18
 42
0.0625
 43
0.38
 44
0.18
 45
0.0
 46
0.0
 47
0.0
 48
0.0
140
0.18
141
0.09
142
0.0
143
25.3999999999999986
144
1.0
145
0.0
146
1.0
147
0.09
 71
     0
 72
     0
 73
     1
 74
     1
 75
     0
 76
     0
 77
     0
 78
     0
170
     0
171
     2
172
     0
173
     0
174
     0
175
     0
176
     0
177
     0
178
     0
  0
ENDTAB
  0
ENDSEC
  0
SECTION
  2
BLOCKS
  0
BLOCK
  8
0
  2
$MODEL_SPACE
 70
     0
 10
0.0
 20
0.0
 30
0.0
  3
$MODEL_SPACE
  1

  0
ENDBLK
  5
43
  8
0
  0
BLOCK
 67
     1
  8
0
  2
$PAPER_SPACE
 70
     0
 10
0.0
 20
0.0
 30
0.0
  3
$PAPER_SPACE
  1

  0
ENDBLK
  5
41
 67
     1
  8
0
  0
BLOCK
  8
0
  2
*S0
 70
     1
 10
0.0
 20
0.0
 30
0.0
  3
*S0
  1

  0
ENDBLK
  5
471
  8
0
  0
BLOCK
  8
0
  2
A$CFDEF3F4C
 70
     0
 10
0.0
 20
0.0
 30
0.0
  3
A$CFDEF3F4C
  1

  0
CIRCLE
  5
9C7
  8
0
  6
CONTINUOUS
 62
     3
 10
-0.0000000000000056
 20
0.0000000000000011
 30
0.0
 40
72.5000000000000284
  0
CIRCLE
  5
9C8
  8
0
  6
CONTINUOUS
 62
     3
 10
0.0
 20
0.0000000000000026
 30
0.0
 40
80.5
  0
CIRCLE
  5
9C9
  8
0
  6
CONTINUOUS
 62
     3
 10
0.0000000000000001
 20
0.0000000000000026
 30
0.0
 40
90.5
  0
CIRCLE
  5
9CA
  8
0
  6
VERDECKT
 62
     1
 10
-0.0000000000000002
 20
0.0000000000000025
 30
0.0
 40
84.5000000000000142
  0
CIRCLE
  5
9CB
  8
0
  6
VERDECKT
 62
     1
 10
-0.0000000000000007
 20
0.0000000000000024
 30
0.0
 40
85.6073547818157294
  0
CIRCLE
  5
9CC
  8
0
  6
VERDECKT
 62
     1
 10
-0.0000000000000018
 20
0.0000000000000021
 30
0.0
 40
87.5
  0
CIRCLE
  5
9CD
  8
0
  6
VERDECKT
 62
     1
 10
-0.0000000000000058
 20
0.000000000000001
 30
0.0
 40
88.4999999999999858
  0
CIRCLE
  5
9CE
  8
0
  6
VERDECKT
 62
     1
 10
-0.0000000000000051
 20
0.0000000000000012
 30
0.0
 40
85.5
  0
CIRCLE
  5
9CF
  8
0
  6
VERDECKT
 62
     1
 10
-0.0000000000000051
 20
0.0000000000000012
 30
0.0
 40
83.4282032302756704
  0
ENDBLK
  5
9D1
  8
0
  0
BLOCK
  8
0
  2
A$CF5E3ED45
 70
     0
 10
0.0
 20
0.0
 30
0.0
  3
A$CF5E3ED45
  1

  0
LINE
  5
9D5
  8
0
  6
CONTINUOUS
 62
     3
 10
-90.5
 20
0.0
 30
0.0
 11
90.5
 21
0.0
 31
0.0
210
0.0
220
1.0
230
-0.0000000000000002
  0
LINE
  5
9D6
  8
0
  6
CONTINUOUS
 62
     3
 10
-85.6073547818157294
 20
-3.0
 30
0.0000000000000007
 11
85.6073547818157294
 21
-3.0
 31
0.0000000000000007
210
0.0
220
1.0
230
-0.0000000000000002
  0
LINE
  5
9D7
  8
0
  6
CONTINUOUS
 62
     3
 10
-87.5
 20
-8.1999999999999904
 30
0.0000000000000018
 11
87.5
 21
-8.1999999999999904
 31
0.0000000000000018
210
0.0
220
1.0
230
-0.0000000000000002
  0
LINE
  5
9D8
  8
0
  6
CONTINUOUS
 62
     3
 10
-87.5
 20
-12.9999999999999396
 30
0.0000000000000029
 11
87.5
 21
-12.9999999999999396
 31
0.0000000000000029
210
0.0
220
1.0
230
-0.0000000000000002
  0
LINE
  5
9D9
  8
0
  6
CONTINUOUS
 62
     3
 10
-90.5
 20
-16.0
 30
0.0000000000000036
 11
90.5
 21
-16.0
 31
0.0000000000000036
210
0.0
220
1.0
230
-0.0000000000000002
  0
LINE
  5
9DA
  8
0
  6
CONTINUOUS
 62
     3
 10
-90.5
 20
-17.0
 30
0.0000000000000038
 11
90.5
 21
-17.0
 31
0.0000000000000038
210
0.0
220
1.0
230
-0.0000000000000002
  0
LINE
  5
9DB
  8
0
  6
CONTINUOUS
 62
     3
 10
-87.5
 20
-20.0
 30
0.0000000000000044
 11
87.5
 21
-20.0
 31
0.0000000000000044
210
0.0
220
1.0
230
-0.0000000000000002
  0
LINE
  5
9DC
  8
0
  6
CONTINUOUS
 62
     3
 10
-87.5
 20
-20.8038475772933182
 30
0.0000000000000046
 11
87.5
 21
-20.8038475772933182
 31
0.0000000000000046
210
0.0
220
1.0
230
-0.0000000000000002
  0
LINE
  5
9DD
  8
0
  6
CONTINUOUS
 62
     3
 10
-90.5
 20
-26.0000000000000107
 30
0.0000000000000058
 11
90.5
 21
-26.0000000000000107
 31
0.0000000000000058
210
0.0
220
1.0
230
-0.0000000000000002
  0
LINE
  5
9DE
  8
0
  6
CONTINUOUS
 62
     3
 10
-76.5
 20
-27.0000000000000107
 30
0.000000000000006
 11
76.5
 21
-27.0000000000000107
 31
0.000000000000006
210
0.0
220
1.0
230
-0.0000000000000002
  0
LINE
  5
9DF
  8
0
  6
CONTINUOUS
 62
     3
 10
-85.0151724426985282
 20
8.0000000000000302
 30
-0.0000000000000018
 11
85.0151724426985282
 21
8.0000000000000302
 31
-0.0000000000000018
210
0.0
220
1.0
230
-0.0000000000000002
  0
ARC
  5
9E0
  8
0
  6
CONTINUOUS
 62
     3
 10
85.4999999999999858
 20
-0.9999999999999895
 30
0.0
 40
0.9999999999999893
210
0.0
220
-0.0000000000000002
230
-1.0
 50
89.9999999999992042
 51
180.0000000000005969
  0
ARC
  5
9E1
  8
0
  6
CONTINUOUS
 62
     3
 10
-85.4999999999999858
 20
-0.99999999999999
 30
0.0
 40
0.9999999999999857
210
0.0
220
-0.0000000000000002
230
-1.0
 50
359.9999999999993747
 51
90.00000000000081
  0
LINE
  5
9E2
  8
0
  6
CONTINUOUS
 62
     3
 10
84.5000000000000142
 20
-1.0
 30
0.0000000000000002
 11
84.5000000000000142
 21
-2.0
 31
0.0000000000000004
210
0.0
220
1.0
230
-0.0000000000000002
  0
LINE
  5
9E3
  8
0
  6
CONTINUOUS
 62
     3
 10
-84.5000000000000142
 20
-1.0
 30
0.0000000000000002
 11
-84.5000000000000142
 21
-2.0
 31
0.0000000000000004
210
0.0
220
1.0
230
-0.0000000000000002
  0
ARC
  5
9E4
  8
0
  6
CONTINUOUS
 62
     3
 10
85.4999999999999858
 20
-2.0000000000000111
 30
0.0
 40
0.9999999999999857
210
0.0
220
-0.0000000000000002
230
-1.0
 50
179.9999999999994031
 51
270.0000000000007958
  0
ARC
  5
9E5
  8
0
  6
CONTINUOUS
 62
     3
 10
-85.4999999999999858
 20
-2.0000000000000111
 30
0.0
 40
0.9999999999999893
210
0.0
220
-0.0000000000000002
230
-1.0
 50
269.9999999999992042
 51
0.0000000000005966
  0
LINE
  5
9E6
  8
0
  6
CONTINUOUS
 62
     3
 10
85.6073547818157294
 20
-3.0
 30
0.0000000000000007
 11
87.5
 21
-8.1999999999999904
 31
0.0000000000000018
210
0.0
220
1.0
230
-0.0000000000000002
  0
LINE
  5
9E7
  8
0
  6
CONTINUOUS
 62
     3
 10
-85.6073547818157294
 20
-3.0
 30
0.0000000000000007
 11
-87.5
 21
-8.1999999999999904
 31
0.0000000000000018
210
0.0
220
1.0
230
-0.0000000000000002
  0
LINE
  5
9E8
  8
0
  6
CONTINUOUS
 62
     3
 10
87.5
 20
-8.1999999999999904
 30
0.0000000000000018
 11
87.5
 21
-12.9999999999999396
 31
0.0000000000000029
210
0.0
220
1.0
230
-0.0000000000000002
  0
LINE
  5
9E9
  8
0
  6
CONTINUOUS
 62
     3
 10
-87.5
 20
-8.1999999999999904
 30
0.0000000000000018
 11
-87.5
 21
-12.9999999999999396
 31
0.0000000000000029
210
0.0
220
1.0
230
-0.0000000000000002
  0
LINE
  5
9EA
  8
0
  6
CONTINUOUS
 62
     3
 10
87.5
 20
-12.9999999999999396
 30
0.0000000000000029
 11
90.5
 21
-16.0
 31
0.0000000000000036
210
0.0
220
1.0
230
-0.0000000000000002
  0
LINE
  5
9EB
  8
0
  6
CONTINUOUS
 62
     3
 10
-87.5
 20
-12.9999999999999396
 30
0.0000000000000029
 11
-90.5
 21
-16.0
 31
0.0000000000000036
210
0.0
220
1.0
230
-0.0000000000000002
  0
LINE
  5
9EC
  8
0
  6
CONTINUOUS
 62
     3
 10
90.5
 20
-16.0
 30
0.0000000000000036
 11
90.5
 21
-17.0
 31
0.0000000000000038
210
0.0
220
1.0
230
-0.0000000000000002
  0
LINE
  5
9ED
  8
0
  6
CONTINUOUS
 62
     3
 10
-90.5
 20
-16.0
 30
0.0000000000000036
 11
-90.5
 21
-17.0
 31
0.0000000000000038
210
0.0
220
1.0
230
-0.0000000000000002
  0
LINE
  5
9EE
  8
0
  6
CONTINUOUS
 62
     3
 10
-87.5
 20
-20.0
 30
0.0000000000000044
 11
-90.5
 21
-17.0
 31
0.0000000000000038
210
0.0
220
1.0
230
-0.0000000000000002
  0
LINE
  5
9EF
  8
0
  6
CONTINUOUS
 62
     3
 10
87.5
 20
-20.0
 30
0.0000000000000044
 11
90.5
 21
-17.0
 31
0.0000000000000038
210
0.0
220
1.0
230
-0.0000000000000002
  0
LINE
  5
9F0
  8
0
  6
CONTINUOUS
 62
     3
 10
87.5
 20
-20.0
 30
0.0000000000000044
 11
87.5
 21
-20.8038475772933182
 31
0.0000000000000046
210
0.0
220
1.0
230
-0.0000000000000002
  0
LINE
  5
9F1
  8
0
  6
CONTINUOUS
 62
     3
 10
-87.5
 20
-20.0
 30
0.0000000000000044
 11
-87.5
 21
-20.8038475772933182
 31
0.0000000000000046
210
0.0
220
1.0
230
-0.0000000000000002
  0
LINE
  5
9F2
  8
0
  6
CONTINUOUS
 62
     3
 10
87.5
 20
-20.8038475772933182
 30
0.0000000000000046
 11
90.5
 21
-26.0000000000000107
 31
0.0000000000000058
210
0.0
220
1.0
230
-0.0000000000000002
  0
LINE
  5
9F3
  8
0
  6
CONTINUOUS
 62
     3
 10
-87.5
 20
-20.8038475772933182
 30
0.0000000000000046
 11
-90.5
 21
-26.0000000000000107
 31
0.0000000000000058
210
0.0
220
1.0
230
-0.0000000000000002
  0
ARC
  5
9F4
  8
0
  6
CONTINUOUS
 62
     3
 10
76.5000000000000853
 20
-18.9999999999998401
 30
0.0
 40
8.0000000000001652
210
0.0
220
-0.0000000000000002
230
-1.0
 50
270.0
 51
298.9550243718603042
  0
ARC
  5
9F5
  8
0
  6
CONTINUOUS
 62
     3
 10
-76.5000000000000995
 20
-18.9999999999998899
 30
0.0
 40
8.0000000000001172
210
0.0
220
-0.0000000000000002
230
-1.0
 50
241.0449756281402074
 51
270.0000000000006821
  0
ARC
  5
9F6
  8
0
  6
CONTINUOUS
 62
     3
 10
85.015172442698514
 20
5.4999999999999973
 30
0.0
 40
2.500000000000032
210
0.0
220
-0.0000000000000002
230
-1.0
 50
30.0000000000002309
 51
89.9999999999993605
  0
ARC
  5
9F7
  8
0
  6
CONTINUOUS
 62
     3
 10
-85.015172442698514
 20
5.5000000000000009
 30
0.0
 40
2.5000000000000271
210
0.0
220
-0.0000000000000002
230
-1.0
 50
90.0000000000006253
 51
149.999999999999801
  0
LINE
  5
9F8
  8
0
  6
CONTINUOUS
 62
     3
 10
87.1802359521596486
 20
6.7500000000000258
 30
-0.0000000000000015
 11
90.1650635094611062
 21
1.5801270189222161
 31
-0.0000000000000004
210
0.0
220
1.0
230
-0.0000000000000002
  0
LINE
  5
9F9
  8
0
  6
CONTINUOUS
 62
     3
 10
-87.1802359521596486
 20
6.7500000000000258
 30
-0.0000000000000015
 11
-90.1650635094611062
 21
1.5801270189222161
 31
-0.0000000000000004
210
0.0
220
1.0
230
-0.0000000000000002
  0
ARC
  5
9FA
  8
0
  6
CONTINUOUS
 62
     3
 10
88.0000000000000853
 20
0.330127018922256
 30
0.0
 40
2.4999999999999001
210
0.0
220
-0.0000000000000002
230
-1.0
 50
0.0
 51
30.0000000000011795
  0
ARC
  5
9FB
  8
0
  6
CONTINUOUS
 62
     3
 10
-88.0000000000000853
 20
0.3301270189222563
 30
0.0
 40
2.4999999999999001
210
0.0
220
-0.0000000000000002
230
-1.0
 50
149.999999999999801
 51
180.0000000000009095
  0
LINE
  5
9FC
  8
0
  6
CONTINUOUS
 62
     3
 10
90.5
 20
0.3301270189222123
 30
-0.0000000000000001
 11
90.5
 21
0.0
 31
0.0
210
0.0
220
1.0
230
-0.0000000000000002
  0
LINE
  5
9FD
  8
0
  6
CONTINUOUS
 62
     3
 10
-90.5
 20
0.3301270189222123
 30
-0.0000000000000001
 11
-90.5
 21
0.0
 31
0.0
210
0.0
220
1.0
230
-0.0000000000000002
  0
LINE
  5
9FE
  8
0
  6
VERDECKT
 62
     1
 10
-85.5
 20
-23.0
 30
0.0000000000000051
 11
85.5
 21
-23.0
 31
0.0000000000000051
210
0.0
220
1.0
230
-0.0000000000000002
  0
LINE
  5
9FF
  8
0
  6
VERDECKT
 62
     1
 10
-72.5000000000000284
 20
-25.0000000000000107
 30
0.0000000000000056
 11
72.5000000000000284
 21
-25.0000000000000107
 31
0.0000000000000056
210
0.0
220
1.0
230
-0.0000000000000002
  0
LINE
  5
A00
  8
0
  6
VERDECKT
 62
     1
 10
85.5
 20
-23.0
 30
0.0000000000000051
 11
88.4999999999999858
 21
-26.0000000000000107
 31
0.0000000000000058
210
0.0
220
1.0
230
-0.0000000000000002
  0
LINE
  5
A01
  8
0
  6
VERDECKT
 62
     1
 10
-85.5
 20
-23.0
 30
0.0000000000000051
 11
-88.4999999999999858
 21
-26.0000000000000107
 31
0.0000000000000058
210
0.0
220
1.0
230
-0.0000000000000002
  0
ARC
  5
A02
  8
0
  6
VERDECKT
 62
     1
 10
76.5000000000000853
 20
-18.9999999999999112
 30
0.0
 40
8.0000000000001155
210
0.0
220
-0.0000000000000002
230
-1.0
 50
298.9550243718597926
 51
329.9999999999997158
  0
ARC
  5
A03
  8
0
  6
VERDECKT
 62
     1
 10
-76.5000000000000995
 20
-18.9999999999999289
 30
0.0
 40
8.0000000000000888
210
0.0
220
-0.0000000000000002
230
-1.0
 50
210.000000000000199
 51
241.0449756281400937
  0
LINE
  5
A04
  8
0
  6
VERDECKT
 62
     1
 10
72.5000000000000284
 20
-25.0000000000000107
 30
0.0000000000000056
 11
72.5000000000000284
 21
-27.0000000000000107
 31
0.000000000000006
210
0.0
220
1.0
230
-0.0000000000000002
  0
LINE
  5
A05
  8
0
  6
VERDECKT
 62
     1
 10
-72.5000000000000284
 20
-25.0000000000000107
 30
0.0000000000000056
 11
-72.5000000000000284
 21
-27.0000000000000107
 31
0.000000000000006
210
0.0
220
1.0
230
-0.0000000000000002
  0
ARC
  5
A06
  8
0
  6
VERDECKT
 62
     1
 10
72.5000000000000284
 20
-17.0000000000000284
 30
0.0
 40
7.9999999999999707
210
0.0
220
-0.0000000000000002
230
-1.0
 50
270.0
 51
0.0000000000001781
  0
ARC
  5
A07
  8
0
  6
VERDECKT
 62
     1
 10
-72.5000000000000284
 20
-17.0000000000000284
 30
0.0
 40
7.9999999999999707
210
0.0
220
-0.0000000000000002
230
-1.0
 50
179.999999999999801
 51
270.0
  0
LINE
  5
A08
  8
0
  6
VERDECKT
 62
     1
 10
80.5
 20
0.0
 30
0.0
 11
80.5
 21
-17.0
 31
0.0000000000000038
210
0.0
220
1.0
230
-0.0000000000000002
  0
LINE
  5
A09
  8
0
  6
VERDECKT
 62
     1
 10
-80.5
 20
0.0
 30
0.0
 11
-80.5
 21
-17.0
 31
0.0000000000000038
210
0.0
220
1.0
230
-0.0000000000000002
  0
LINE
  5
A0A
  8
0
  6
VERDECKT
 62
     1
 10
-80.5
 20
0.0
 30
0.0
 11
-82.1470964436737177
 21
6.1470476127563263
 31
-0.0000000000000014
210
0.0
220
1.0
230
-0.0000000000000002
  0
LINE
  5
A0B
  8
0
  6
VERDECKT
 62
     1
 10
80.5
 20
0.0
 30
0.0
 11
82.1470964436737177
 21
6.1470476127563263
 31
-0.0000000000000014
210
0.0
220
1.0
230
-0.0000000000000002
  0
ARC
  5
A0C
  8
0
  6
VERDECKT
 62
     1
 10
84.5619110093963968
 20
5.5000000000000346
 30
0.0
 40
2.499999999999992
210
0.0
220
-0.0000000000000002
230
-1.0
 50
89.9999999999996874
 51
165.000000000000199
  0
ARC
  5
A0D
  8
0
  6
VERDECKT
 62
     1
 10
-84.5619110093963968
 20
5.5000000000000311
 30
0.0
 40
2.499999999999992
210
0.0
220
-0.0000000000000002
230
-1.0
 50
14.9999999999998508
 51
90.0000000000003268
  0
ENDBLK
  5
A0F
  8
0
  0
ENDSEC
  0
SECTION
  2
ENTITIES
  0
INSERT
  5
473
  8
ADSK_ASSOC_ENTITY_BACKUPS
  2
*S0
 10
0.0
 20
0.0
 30
0.0
  0
INSERT
  5
9D2
  8
STEMPEL
  2
A$CFDEF3F4C
 10
0.0
 20
0.0
 30
0.0
  0
INSERT
  5
A10
  8
STEMPEL
  2
A$CF5E3ED45
 10
0.0
 20
150.0
 30
0.0
  0
VIEWPORT
  5
430
 67
     1
  8
0
 10
5.2499996395561652
 20
3.9999998836066779
 30
0.0
 40
16.0958700717783785
 41
8.5438141914551622
 68
     1
 69
     1
1001
ACAD
1000
MVIEW
1002
{
1070
    16
1010
0.0
1020
0.0
1030
0.0
1010
0.0
1020
0.0
1030
1.0
1040
0.0
1040
8.5438141914551622
1040
5.2499996395561652
1040
3.9999998836066779
1040
50.0
1040
0.0
1040
0.0
1070
     0
1070
   500
1070
     1
1070
     1
1070
     0
1070
     0
1070
     0
1070
     0
1040
0.0
1040
0.0
1040
0.0
1040
10.0
1040
10.0
1040
10.0
1040
10.0
1070
     0
1002
{
1002
}
1002
}
  0
ENDSEC
  0
EOF
