  0
SECTION
  2
HEADER
  9
$ACADVER
  1
AC1009
  9
$INSBASE
 10
0.0
 20
0.0
 30
0.0
  9
$EXTMIN
 10
33.6750818047552016
 20
-257.3777386444886019
 30
-0.000000000000004
  9
$EXTMAX
 10
214.965145314216187
 20
18.1250000000000107
 30
0.0000000000000284
  9
$LIMMIN
 10
0.0
 20
0.0
  9
$LIMMAX
 10
419.9999999999998863
 20
297.0000000000001137
  9
$ORTHOMODE
 70
     1
  9
$REGENMODE
 70
     1
  9
$FILLMODE
 70
     1
  9
$QTEXTMODE
 70
     0
  9
$MIRRTEXT
 70
     1
  9
$DRAGMODE
 70
     2
  9
$LTSCALE
 40
10.0
  9
$OSMODE
 70
   183
  9
$ATTMODE
 70
     1
  9
$TEXTSIZE
 40
3.5
  9
$TRACEWID
 40
1.0
  9
$TEXTSTYLE
  7
STANDARD
  9
$CLAYER
  8
DEFPOINTS
  9
$CELTYPE
  6
BYLAYER
  9
$CECOLOR
 62
   256
  9
$DIMSCALE
 40
1.0
  9
$DIMASZ
 40
3.5
  9
$DIMEXO
 40
1.0
  9
$DIMDLI
 40
7.0
  9
$DIMRND
 40
0.0
  9
$DIMDLE
 40
0.0
  9
$DIMEXE
 40
1.0
  9
$DIMTP
 40
0.0
  9
$DIMTM
 40
0.0
  9
$DIMTXT
 40
3.5
  9
$DIMCEN
 40
1.5
  9
$DIMTSZ
 40
0.0
  9
$DIMTOL
 70
     0
  9
$DIMLIM
 70
     0
  9
$DIMTIH
 70
     0
  9
$DIMTOH
 70
     0
  9
$DIMSE1
 70
     0
  9
$DIMSE2
 70
     0
  9
$DIMTAD
 70
     1
  9
$DIMZIN
 70
     8
  9
$DIMBLK
  1

  9
$DIMASO
 70
     1
  9
$DIMSHO
 70
     0
  9
$DIMPOST
  1

  9
$DIMAPOST
  1

  9
$DIMALT
 70
     0
  9
$DIMALTD
 70
     2
  9
$DIMALTF
 40
25.3999999999999986
  9
$DIMLFAC
 40
1.0
  9
$DIMTOFL
 70
     1
  9
$DIMTVP
 40
0.5714285714285714
  9
$DIMTIX
 70
     0
  9
$DIMSOXD
 70
     0
  9
$DIMSAH
 70
     0
  9
$DIMBLK1
  1

  9
$DIMBLK2
  1

  9
$DIMSTYLE
  2
STANDARD
  9
$DIMCLRD
 70
     0
  9
$DIMCLRE
 70
     0
  9
$DIMCLRT
 70
     1
  9
$DIMTFAC
 40
1.0
  9
$DIMGAP
 40
1.5
  9
$LUNITS
 70
     2
  9
$LUPREC
 70
     2
  9
$SKETCHINC
 40
1.0
  9
$FILLETRAD
 40
0.0
  9
$AUNITS
 70
     0
  9
$AUPREC
 70
     0
  9
$MENU
  1
ACAD
  9
$ELEVATION
 40
0.0
  9
$PELEVATION
 40
0.0
  9
$THICKNESS
 40
0.0
  9
$LIMCHECK
 70
     0
  9
$BLIPMODE
 70
     0
  9
$CHAMFERA
 40
0.0
  9
$CHAMFERB
 40
0.0
  9
$SKPOLY
 70
     0
  9
$TDCREATE
 40
2451729.5233101858757436
  9
$TDUPDATE
 40
2458402.5981365740299225
  9
$TDINDWG
 40
0.1211298843
  9
$TDUSRTIMER
 40
0.1211298843
  9
$USRTIMER
 70
     1
  9
$ANGBASE
 50
0.0
  9
$ANGDIR
 70
     0
  9
$PDMODE
 70
     0
  9
$PDSIZE
 40
0.0
  9
$PLINEWID
 40
0.0
  9
$COORDS
 70
     1
  9
$SPLFRAME
 70
     0
  9
$SPLINETYPE
 70
     6
  9
$SPLINESEGS
 70
     8
  9
$ATTDIA
 70
     1
  9
$ATTREQ
 70
     1
  9
$HANDLING
 70
     1
  9
$HANDSEED
  5
ACD
  9
$SURFTAB1
 70
     6
  9
$SURFTAB2
 70
     6
  9
$SURFTYPE
 70
     6
  9
$SURFU
 70
     6
  9
$SURFV
 70
     6
  9
$UCSNAME
  2

  9
$UCSORG
 10
0.0
 20
0.0
 30
0.0
  9
$UCSXDIR
 10
1.0
 20
0.0
 30
0.0
  9
$UCSYDIR
 10
0.0
 20
1.0
 30
0.0
  9
$PUCSNAME
  2

  9
$PUCSORG
 10
0.0
 20
0.0
 30
0.0
  9
$PUCSXDIR
 10
1.0
 20
0.0
 30
0.0
  9
$PUCSYDIR
 10
0.0
 20
1.0
 30
0.0
  9
$USERI1
 70
     0
  9
$USERI2
 70
     0
  9
$USERI3
 70
     0
  9
$USERI4
 70
     0
  9
$USERI5
 70
     0
  9
$USERR1
 40
0.0
  9
$USERR2
 40
0.0
  9
$USERR3
 40
0.0
  9
$USERR4
 40
0.0
  9
$USERR5
 40
0.0
  9
$WORLDVIEW
 70
     1
  9
$SHADEDGE
 70
     3
  9
$SHADEDIF
 70
    70
  9
$TILEMODE
 70
     1
  9
$MAXACTVP
 70
    16
  9
$PLIMCHECK
 70
     0
  9
$PEXTMIN
 10
-221.5962356355911993
 20
-87.6519663675646967
 30
-0.0000000000000296
  9
$PEXTMAX
 10
198.4550354603404116
 20
544.318528493739791
 30
0.0000000000000315
  9
$PLIMMIN
 10
-0.2500002402958907
 20
-0.2499999962453767
  9
$PLIMMAX
 10
10.7499995194082203
 20
8.2499997634587334
  9
$UNITMODE
 70
     0
  9
$VISRETAIN
 70
     0
  9
$PLINEGEN
 70
     0
  9
$PSLTSCALE
 70
     0
  0
ENDSEC
  0
SECTION
  2
TABLES
  0
TABLE
  2
VPORT
 70
     1
  0
VPORT
  2
*ACTIVE
 70
     0
 10
0.0
 20
0.0
 11
1.0
 21
1.0
 12
0.0
 22
0.0
 13
0.0
 23
0.0
 14
2.5
 24
2.5
 15
10.0
 25
10.0
 16
-0.0000000000002274
 26
0.0
 36
984.4726988565508918
 17
214.4353728758578939
 27
-87.1278503447644255
 37
0.0000000000000316
 40
402.7638791946681067
 41
1.7932242990654199
 42
50.0
 43
0.0
 44
0.0
 50
0.0
 51
0.0
 71
     0
 72
   500
 73
     1
 74
     0
 75
     0
 76
     0
 77
     0
 78
     0
  0
ENDTAB
  0
TABLE
  2
LTYPE
 70
     5
  0
LTYPE
  2
CONTINUOUS
 70
     0
  3
Solid line
 72
    65
 73
     0
 40
0.0
  0
LTYPE
  2
ACAD_VIEWBORDER_LINETYPE
 70
     0
  3
Dashed line in view border
 72
    83
 73
     2
 40
0.3937007874
 49
0.0625984251966
 49
-0.249999999999
  0
LTYPE
  2
HIDDEN2
 70
     0
  3

 72
    65
 73
     2
 40
0.1875
 49
0.125
 49
-0.0625
  0
LTYPE
  2
VERDECKT
 70
     0
  3
Verdeckt __ __ __ __ __ __ __ __ __ __ __ __ __
 72
    65
 73
     2
 40
0.375
 49
0.25
 49
-0.125
  0
ENDTAB
  0
TABLE
  2
LAYER
 70
    14
  0
LAYER
  2
0
 70
     0
 62
     7
  6
CONTINUOUS
  0
LAYER
  2
DEFPOINTS
 70
     0
 62
     7
  6
CONTINUOUS
  0
LAYER
  2
GUMMI
 70
     0
 62
    15
  6
CONTINUOUS
  0
LAYER
  2
ADSK_ASSOC_ENTITY_BACKUPS
 70
     1
 62
    -7
  6
CONTINUOUS
  0
LAYER
  2
MD_VERDECKT
 70
     0
 62
     7
  6
HIDDEN2
  0
LAYER
  2
MD_SICHTBAR
 70
     0
 62
     7
  6
CONTINUOUS
  0
ENDTAB
  0
TABLE
  2
STYLE
 70
     4
  0
STYLE
  2
STANDARD
 70
     0
 40
0.0
 41
0.8
 50
0.0
 71
     0
 42
3.5
  3
simplex.shx
  4

  0
STYLE
  2

 70
     1
 40
0.0
 41
1.0
 50
0.0
 71
     0
 42
3.5
  3
ltypeshp.shx
  4

  0
ENDTAB
  0
TABLE
  2
VIEW
 70
     1
  0
ENDTAB
  0
TABLE
  2
UCS
 70
     0
  0
ENDTAB
  0
TABLE
  2
APPID
 70
    18
  0
APPID
  2
ACAD
 70
     0
  0
APPID
  2
ACAECLAYERSTANDARD
 70
     0
  0
APPID
  2
ACCMTRANSPARENCY
 70
     0
  0
APPID
  2
ACAD_NAV_VCDISPLAY
 70
     0
  0
APPID
  2
ACAD_PSEXT
 70
     0
  0
APPID
  2
ACAD_EXEMPT_FROM_CAD_STANDARDS
 70
     0
  0
APPID
  2
ACSYNERGY
 70
     0
  0
APPID
  2
SYNERGY_BODY_TBR_ID
 70
     0
  0
APPID
  2
ACAD_VIEW_EDGE_ID
 70
     0
  0
APPID
  2
ACSYNERGYSKETCH
 70
     0
  0
APPID
  2
ACAD_MODELDOC_XFORM
 70
     0
  0
APPID
  2
ACAD_DIMASSOC_CALC_DIMLFAC
 70
     0
  0
APPID
  2
ACAD_DIMASSOC_DIMLFAC
 70
     0
  0
APPID
  2
ACAD_DIMASSOC_OVERRIDDEN_D
 70
     0
  0
APPID
  2
ACAD_DSTYLE_DIMRADIAL_EXTENSION
 70
     0
  0
APPID
  2
ACADANNOMONITORALERTICONDI
 70
     0
  0
APPID
  2
ACDBDYNAMICBLOCKTRUENAME2
 70
     0
  0
APPID
  2
ACAD_MLEADERVER
 70
     0
  0
ENDTAB
  0
TABLE
  2
DIMSTYLE
 70
     2
  0
DIMSTYLE
  2
STANDARD
 70
     0
  3

  4

  5

  6

  7

 40
1.0
 41
0.18
 42
0.0625
 43
0.38
 44
0.18
 45
0.0
 46
0.0
 47
0.0
 48
0.0
140
0.18
141
0.09
142
0.0
143
25.3999999999999986
144
1.0
145
0.0
146
1.0
147
0.09
 71
     0
 72
     0
 73
     1
 74
     1
 75
     0
 76
     0
 77
     0
 78
     0
170
     0
171
     2
172
     0
173
     0
174
     0
175
     0
176
     0
177
     0
178
     0
  0
ENDTAB
  0
ENDSEC
  0
SECTION
  2
BLOCKS
  0
BLOCK
  8
0
  2
$MODEL_SPACE
 70
     0
 10
0.0
 20
0.0
 30
0.0
  3
$MODEL_SPACE
  1

  0
ENDBLK
  5
43
  8
0
  0
BLOCK
 67
     1
  8
0
  2
$PAPER_SPACE
 70
     0
 10
0.0
 20
0.0
 30
0.0
  3
$PAPER_SPACE
  1

  0
ENDBLK
  5
41
 67
     1
  8
0
  0
BLOCK
  8
0
  2
*S0
 70
     1
 10
0.0
 20
0.0
 30
0.0
  3
*S0
  1

  0
CIRCLE
  5
486
  8
MD_VERDECKT
 10
124.1750818047551945
 20
0.0
 30
-25.6222613555113696
 40
80.4999999999999858
210
0.0
220
-1.0
230
0.0
1001
ACAD_VIEW_EDGE_ID
1071
       19
1071
       -1
1071
        2
1071
        0
  0
CIRCLE
  5
487
  8
MD_SICHTBAR
 10
124.1750818047551945
 20
0.0
 30
-15.6222613555113696
 40
72.5000000000000142
210
0.0
220
-1.0
230
0.0
1001
ACAD_VIEW_EDGE_ID
1071
       17
1071
       -1
1071
        2
1071
        0
  0
CIRCLE
  5
488
  8
MD_SICHTBAR
 10
124.1750818047551945
 20
0.0
 30
-19.6222613555113696
 40
83.4282032302756562
210
0.0
220
-1.0
230
0.0
1001
ACAD_VIEW_EDGE_ID
1071
       15
1071
       -1
1071
        2
1071
        0
  0
CIRCLE
  5
48A
  8
MD_SICHTBAR
 10
124.1750818047551945
 20
0.0
 30
-19.622261355511359
 40
85.5
210
0.0
220
-1.0
230
0.0
1001
ACAD_VIEW_EDGE_ID
1071
       14
1071
       -1
1071
        2
1071
        0
  0
CIRCLE
  5
48B
  8
MD_SICHTBAR
 10
124.1750818047551945
 20
0.0
 30
-16.6222613555113696
 40
88.4999999999999858
210
0.0
220
-1.0
230
0.0
1001
ACAD_VIEW_EDGE_ID
1071
       13
1071
       -1
1071
        2
1071
        0
  0
CIRCLE
  5
48C
  8
MD_SICHTBAR
 10
124.1750818047551945
 20
0.0
 30
-16.6222613555113696
 40
90.5
210
0.0
220
-1.0
230
0.0
1001
ACAD_VIEW_EDGE_ID
1071
       12
1071
       -1
1071
        2
1071
        0
  0
CIRCLE
  5
48D
  8
MD_VERDECKT
 10
124.1750818047551945
 20
0.0
 30
-21.8184137782180585
 40
87.4999999999999858
210
0.0
220
-1.0
230
0.0
1001
ACAD_VIEW_EDGE_ID
1071
       11
1071
       -1
1071
        2
1071
        0
  0
CIRCLE
  5
48E
  8
MD_VERDECKT
 10
124.1750818047551945
 20
0.0
 30
-39.6222613555113696
 40
85.6073547818157152
210
0.0
220
-1.0
230
0.0
1001
ACAD_VIEW_EDGE_ID
1071
        5
1071
       -1
1071
        2
1071
        0
  0
CIRCLE
  5
48F
  8
MD_VERDECKT
 10
124.1750818047551945
 20
0.0
 30
-40.6222613555113696
 40
84.4999999999999858
210
0.0
220
-1.0
230
0.0
1001
ACAD_VIEW_EDGE_ID
1071
        3
1071
       -1
1071
        2
1071
        0
  0
ENDBLK
  5
469
  8
0
  0
BLOCK
  8
0
  2
*S1
 70
     1
 10
0.0
 20
0.0
 30
0.0
  3
*S1
  1

  0
ENDBLK
  5
46D
  8
0
  0
BLOCK
  8
0
  2
*S2
 70
     1
 10
0.0
 20
0.0
 30
0.0
  3
*S2
  1

  0
ENDBLK
  5
471
  8
0
  0
BLOCK
  8
0
  2
A$C1D4D3777
 70
     0
 10
0.0
 20
0.0
 30
0.0
  3
A$C1D4D3777
  1

  0
CIRCLE
  5
9E5
  8
0
  6
CONTINUOUS
 62
     1
 10
124.1750818047551945
 20
33.1222613555113909
 30
0.0000000000000266
 40
72.5000000000000284
  0
CIRCLE
  5
9E6
  8
0
  6
CONTINUOUS
 62
     1
 10
124.1750818047551945
 20
33.1222613555113909
 30
0.0000000000000266
 40
80.5
  0
CIRCLE
  5
9E7
  8
0
  6
CONTINUOUS
 62
     1
 10
124.1750818047551945
 20
33.1222613555113909
 30
0.0000000000000266
 40
90.5
  0
CIRCLE
  5
9E8
  8
0
  6
VERDECKT
 62
     3
 10
124.1750818047551945
 20
33.1222613555113909
 30
0.0000000000000266
 40
84.5000000000000142
  0
CIRCLE
  5
9E9
  8
0
  6
VERDECKT
 62
     3
 10
124.1750818047551945
 20
33.1222613555113909
 30
0.0000000000000266
 40
85.6073547818157294
  0
CIRCLE
  5
9EA
  8
0
  6
VERDECKT
 62
     3
 10
124.1750818047551945
 20
33.1222613555113909
 30
0.0000000000000269
 40
87.5
  0
CIRCLE
  5
9EB
  8
0
  6
VERDECKT
 62
     3
 10
124.1750818047551945
 20
33.1222613555113909
 30
0.0000000000000284
 40
88.4999999999999858
  0
CIRCLE
  5
9EC
  8
0
  6
VERDECKT
 62
     3
 10
124.1750818047551945
 20
33.1222613555113909
 30
0.0000000000000266
 40
85.5
  0
CIRCLE
  5
9ED
  8
0
  6
VERDECKT
 62
     3
 10
124.1750818047551945
 20
33.1222613555113909
 30
0.0000000000000266
 40
83.4282032302756704
  0
ENDBLK
  5
9EF
  8
0
  0
BLOCK
  8
0
  2
A$C49756C08
 70
     0
 10
0.0
 20
0.0
 30
0.0
  3
A$C49756C08
  1

  0
LINE
  5
9F3
  8
0
  6
CONTINUOUS
 62
     1
 10
33.6750818047552016
 20
9.4999999999999876
 30
-0.0000000000000021
 11
214.6750818047551945
 21
9.4999999999999876
 31
-0.0000000000000021
210
0.0
220
1.0
230
-0.0000000000000002
  0
LINE
  5
9F4
  8
0
  6
CONTINUOUS
 62
     1
 10
38.5677270229394722
 20
6.4999999999999867
 30
-0.0000000000000014
 11
209.7824365865708955
 21
6.4999999999999867
 31
-0.0000000000000014
210
0.0
220
1.0
230
-0.0000000000000002
  0
LINE
  5
9F5
  8
0
  6
CONTINUOUS
 62
     1
 10
36.6750818047552016
 20
1.2999999999999969
 30
-0.0000000000000003
 11
211.6750818047551945
 21
1.2999999999999969
 31
-0.0000000000000003
210
0.0
220
1.0
230
-0.0000000000000002
  0
LINE
  5
9F6
  8
0
  6
CONTINUOUS
 62
     1
 10
36.6750818047552016
 20
-3.4999999999999578
 30
0.0000000000000008
 11
211.6750818047551945
 21
-3.4999999999999578
 31
0.0000000000000008
210
0.0
220
1.0
230
-0.0000000000000002
  0
LINE
  5
9F7
  8
0
  6
CONTINUOUS
 62
     1
 10
33.6750818047552016
 20
-6.5000000000000151
 30
0.0000000000000014
 11
214.6750818047551945
 21
-6.5000000000000151
 31
0.0000000000000014
210
0.0
220
1.0
230
-0.0000000000000002
  0
LINE
  5
9F8
  8
0
  6
CONTINUOUS
 62
     1
 10
33.6750818047552016
 20
-7.5000000000000151
 30
0.0000000000000017
 11
214.6750818047551945
 21
-7.5000000000000151
 31
0.0000000000000017
210
0.0
220
1.0
230
-0.0000000000000002
  0
LINE
  5
9F9
  8
0
  6
CONTINUOUS
 62
     1
 10
36.6750818047552016
 20
-10.5000000000000107
 30
0.0000000000000023
 11
211.6750818047551945
 21
-10.5000000000000107
 31
0.0000000000000023
210
0.0
220
1.0
230
-0.0000000000000002
  0
LINE
  5
9FA
  8
0
  6
CONTINUOUS
 62
     1
 10
36.6750818047552016
 20
-11.30384757729332
 30
0.0000000000000025
 11
211.6750818047551945
 21
-11.30384757729332
 31
0.0000000000000025
210
0.0
220
1.0
230
-0.0000000000000002
  0
LINE
  5
9FB
  8
0
  6
CONTINUOUS
 62
     1
 10
33.6750818047552016
 20
-16.5000000000000213
 30
0.0000000000000037
 11
214.6750818047551945
 21
-16.5000000000000213
 31
0.0000000000000037
210
0.0
220
1.0
230
-0.0000000000000002
  0
LINE
  5
9FC
  8
0
  6
CONTINUOUS
 62
     1
 10
47.6750818047551874
 20
-17.5000000000000213
 30
0.0000000000000039
 11
200.6750818047551945
 21
-17.5000000000000213
 31
0.0000000000000039
210
0.0
220
1.0
230
-0.0000000000000002
  0
LINE
  5
9FD
  8
0
  6
CONTINUOUS
 62
     1
 10
39.1599093620566592
 20
17.5000000000000107
 30
-0.0000000000000039
 11
209.1902542474537086
 21
17.5000000000000107
 31
-0.0000000000000039
210
0.0
220
1.0
230
-0.0000000000000002
  0
ARC
  5
9FE
  8
0
  6
CONTINUOUS
 62
     1
 10
-38.6750818047552016
 20
8.4999999999999876
 30
0.0
 40
1.0
210
0.0
220
-0.0000000000000002
230
-1.0
 50
89.9999999999995879
 51
180.0
  0
ARC
  5
9FF
  8
0
  6
CONTINUOUS
 62
     1
 10
-209.6750818047551945
 20
8.4999999999999964
 30
0.0
 40
1.0
210
0.0
220
-0.0000000000000002
230
-1.0
 50
0.0
 51
90.0000000000004832
  0
LINE
  5
A00
  8
0
  6
CONTINUOUS
 62
     1
 10
208.6750818047551945
 20
8.4999999999999876
 30
-0.0000000000000019
 11
208.6750818047551945
 21
7.4999999999999867
 31
-0.0000000000000017
210
0.0
220
1.0
230
-0.0000000000000002
  0
LINE
  5
A01
  8
0
  6
CONTINUOUS
 62
     1
 10
39.6750818047551874
 20
8.4999999999999876
 30
-0.0000000000000019
 11
39.6750818047551874
 21
7.4999999999999867
 31
-0.0000000000000017
210
0.0
220
1.0
230
-0.0000000000000002
  0
ARC
  5
A02
  8
0
  6
CONTINUOUS
 62
     1
 10
-38.6750818047552016
 20
7.4999999999999867
 30
0.0
 40
1.0
210
0.0
220
-0.0000000000000002
230
-1.0
 50
180.0
 51
270.0000000000003979
  0
ARC
  5
A03
  8
0
  6
CONTINUOUS
 62
     1
 10
-209.6750818047551945
 20
7.499999999999976
 30
0.0
 40
0.9999999999999893
210
0.0
220
-0.0000000000000002
230
-1.0
 50
270.0
 51
0.0000000000005966
  0
LINE
  5
A04
  8
0
  6
CONTINUOUS
 62
     1
 10
209.7824365865708955
 20
6.4999999999999867
 30
-0.0000000000000014
 11
211.6750818047551945
 21
1.2999999999999969
 31
-0.0000000000000003
210
0.0
220
1.0
230
-0.0000000000000002
  0
LINE
  5
A05
  8
0
  6
CONTINUOUS
 62
     1
 10
38.5677270229394722
 20
6.4999999999999867
 30
-0.0000000000000014
 11
36.6750818047552016
 21
1.2999999999999969
 31
-0.0000000000000003
210
0.0
220
1.0
230
-0.0000000000000002
  0
LINE
  5
A06
  8
0
  6
CONTINUOUS
 62
     1
 10
211.6750818047551945
 20
1.2999999999999969
 30
-0.0000000000000003
 11
211.6750818047551945
 21
-3.4999999999999578
 31
0.0000000000000008
210
0.0
220
1.0
230
-0.0000000000000002
  0
LINE
  5
A07
  8
0
  6
CONTINUOUS
 62
     1
 10
36.6750818047552016
 20
1.2999999999999969
 30
-0.0000000000000003
 11
36.6750818047552016
 21
-3.4999999999999578
 31
0.0000000000000008
210
0.0
220
1.0
230
-0.0000000000000002
  0
LINE
  5
A08
  8
0
  6
CONTINUOUS
 62
     1
 10
211.6750818047551945
 20
-3.4999999999999578
 30
0.0000000000000008
 11
214.6750818047551945
 21
-6.5000000000000151
 31
0.0000000000000014
210
0.0
220
1.0
230
-0.0000000000000002
  0
LINE
  5
A09
  8
0
  6
CONTINUOUS
 62
     1
 10
36.6750818047552016
 20
-3.4999999999999578
 30
0.0000000000000008
 11
33.6750818047552016
 21
-6.5000000000000151
 31
0.0000000000000014
210
0.0
220
1.0
230
-0.0000000000000002
  0
LINE
  5
A0A
  8
0
  6
CONTINUOUS
 62
     1
 10
214.6750818047551945
 20
-6.5000000000000151
 30
0.0000000000000014
 11
214.6750818047551945
 21
-7.5000000000000151
 31
0.0000000000000017
210
0.0
220
1.0
230
-0.0000000000000002
  0
LINE
  5
A0B
  8
0
  6
CONTINUOUS
 62
     1
 10
33.6750818047552016
 20
-6.5000000000000151
 30
0.0000000000000014
 11
33.6750818047552016
 21
-7.5000000000000151
 31
0.0000000000000017
210
0.0
220
1.0
230
-0.0000000000000002
  0
LINE
  5
A0C
  8
0
  6
CONTINUOUS
 62
     1
 10
36.6750818047552016
 20
-10.5000000000000107
 30
0.0000000000000023
 11
33.6750818047552016
 21
-7.5000000000000151
 31
0.0000000000000017
210
0.0
220
1.0
230
-0.0000000000000002
  0
LINE
  5
A0D
  8
0
  6
CONTINUOUS
 62
     1
 10
211.6750818047551945
 20
-10.5000000000000107
 30
0.0000000000000023
 11
214.6750818047551945
 21
-7.5000000000000151
 31
0.0000000000000017
210
0.0
220
1.0
230
-0.0000000000000002
  0
LINE
  5
A0E
  8
0
  6
CONTINUOUS
 62
     1
 10
211.6750818047551945
 20
-10.5000000000000107
 30
0.0000000000000023
 11
211.6750818047551945
 21
-11.30384757729332
 31
0.0000000000000025
210
0.0
220
1.0
230
-0.0000000000000002
  0
LINE
  5
A0F
  8
0
  6
CONTINUOUS
 62
     1
 10
36.6750818047552016
 20
-10.5000000000000107
 30
0.0000000000000023
 11
36.6750818047552016
 21
-11.30384757729332
 31
0.0000000000000025
210
0.0
220
1.0
230
-0.0000000000000002
  0
LINE
  5
A10
  8
0
  6
CONTINUOUS
 62
     1
 10
211.6750818047551945
 20
-11.30384757729332
 30
0.0000000000000025
 11
214.6750818047551945
 21
-16.5000000000000213
 31
0.0000000000000037
210
0.0
220
1.0
230
-0.0000000000000002
  0
LINE
  5
A11
  8
0
  6
CONTINUOUS
 62
     1
 10
36.6750818047552016
 20
-11.30384757729332
 30
0.0000000000000025
 11
33.6750818047552016
 21
-16.5000000000000213
 31
0.0000000000000037
210
0.0
220
1.0
230
-0.0000000000000002
  0
ARC
  5
A12
  8
0
  6
CONTINUOUS
 62
     1
 10
-47.6750818047550666
 20
-9.4999999999999467
 30
0.0
 40
8.0000000000000764
210
0.0
220
-0.0000000000000002
230
-1.0
 50
270.0
 51
298.9550243718607021
  0
ARC
  5
A13
  8
0
  6
CONTINUOUS
 62
     1
 10
-200.6750818047553082
 20
-9.4999999999998774
 30
0.0
 40
8.0000000000001528
210
0.0
220
-0.0000000000000002
230
-1.0
 50
241.0449756281400937
 51
270.0000000000006253
  0
ARC
  5
A14
  8
0
  6
CONTINUOUS
 62
     1
 10
-39.1599093620566805
 20
14.9999999999999805
 30
0.0
 40
2.5000000000000369
210
0.0
220
-0.0000000000000002
230
-1.0
 50
30.0000000000004086
 51
89.9999999999993463
  0
ARC
  5
A15
  8
0
  6
CONTINUOUS
 62
     1
 10
-209.1902542474537086
 20
14.9999999999999396
 30
0.0
 40
2.5000000000000711
210
0.0
220
-0.0000000000000002
230
-1.0
 50
90.0000000000006253
 51
149.9999999999992895
  0
LINE
  5
A16
  8
0
  6
CONTINUOUS
 62
     1
 10
211.3553177569147863
 20
16.2500000000000107
 30
-0.0000000000000036
 11
214.3401453142163007
 21
11.0801270189221999
 31
-0.0000000000000025
210
0.0
220
1.0
230
-0.0000000000000002
  0
LINE
  5
A17
  8
0
  6
CONTINUOUS
 62
     1
 10
36.994845852595553
 20
16.2500000000000107
 30
-0.0000000000000036
 11
34.0100182952940813
 21
11.0801270189221999
 31
-0.0000000000000025
210
0.0
220
1.0
230
-0.0000000000000002
  0
ARC
  5
A18
  8
0
  6
CONTINUOUS
 62
     1
 10
-36.1750818047552798
 20
9.8301270189221928
 30
0.0
 40
2.5000000000000848
210
0.0
220
-0.0000000000000002
230
-1.0
 50
0.0000000000001654
 51
29.9999999999990692
  0
ARC
  5
A19
  8
0
  6
CONTINUOUS
 62
     1
 10
-212.1750818047545977
 20
9.8301270189220347
 30
0.0
 40
2.5000000000006271
210
0.0
220
-0.0000000000000002
230
-1.0
 50
150.0000000000042064
 51
179.9999999999961915
  0
LINE
  5
A1A
  8
0
  6
CONTINUOUS
 62
     1
 10
214.6750818047551945
 20
9.8301270189221999
 30
-0.0000000000000022
 11
214.6750818047551945
 21
9.4999999999999876
 31
-0.0000000000000021
210
0.0
220
1.0
230
-0.0000000000000002
  0
LINE
  5
A1B
  8
0
  6
CONTINUOUS
 62
     1
 10
33.6750818047552016
 20
9.8301270189221999
 30
-0.0000000000000022
 11
33.6750818047552016
 21
9.4999999999999876
 31
-0.0000000000000021
210
0.0
220
1.0
230
-0.0000000000000002
  0
LINE
  5
A1C
  8
0
  6
VERDECKT
 62
     3
 10
38.6750818047552016
 20
-13.5000000000000195
 30
0.000000000000003
 11
209.6750818047551945
 21
-13.5000000000000195
 31
0.000000000000003
210
0.0
220
1.0
230
-0.0000000000000002
  0
LINE
  5
A1D
  8
0
  6
VERDECKT
 62
     3
 10
51.675081804755159
 20
-15.5000000000000195
 30
0.0000000000000034
 11
196.6750818047551945
 21
-15.5000000000000195
 31
0.0000000000000034
210
0.0
220
1.0
230
-0.0000000000000002
  0
LINE
  5
A1E
  8
0
  6
VERDECKT
 62
     3
 10
209.6750818047551945
 20
-13.5000000000000195
 30
0.000000000000003
 11
212.6750818047551945
 21
-16.5000000000000213
 31
0.0000000000000037
210
0.0
220
1.0
230
-0.0000000000000002
  0
LINE
  5
A1F
  8
0
  6
VERDECKT
 62
     3
 10
38.6750818047552016
 20
-13.5000000000000195
 30
0.000000000000003
 11
35.6750818047551874
 21
-16.5000000000000213
 31
0.0000000000000037
210
0.0
220
1.0
230
-0.0000000000000002
  0
ARC
  5
A20
  8
0
  6
VERDECKT
 62
     3
 10
-47.6750818047550311
 20
-9.4999999999999982
 30
0.0
 40
8.0000000000000089
210
0.0
220
-0.0000000000000002
230
-1.0
 50
298.9550243718596789
 51
329.9999999999997726
  0
ARC
  5
A21
  8
0
  6
VERDECKT
 62
     3
 10
-200.6750818047551945
 20
-9.4999999999998224
 30
0.0
 40
8.0000000000002363
210
0.0
220
-0.0000000000000002
230
-1.0
 50
210.0000000000005969
 51
241.0449756281398095
  0
LINE
  5
A22
  8
0
  6
VERDECKT
 62
     3
 10
196.6750818047551945
 20
-15.5000000000000195
 30
0.0000000000000034
 11
196.6750818047551945
 21
-17.5000000000000107
 31
0.0000000000000039
210
0.0
220
1.0
230
-0.0000000000000002
  0
LINE
  5
A23
  8
0
  6
VERDECKT
 62
     3
 10
51.675081804755159
 20
-15.5000000000000195
 30
0.0000000000000034
 11
51.675081804755159
 21
-17.5000000000000107
 31
0.0000000000000039
210
0.0
220
1.0
230
-0.0000000000000002
  0
ARC
  5
A24
  8
0
  6
VERDECKT
 62
     3
 10
-51.675081804755159
 20
-7.5000000000000346
 30
0.0
 40
7.9999999999999796
210
0.0
220
-0.0000000000000002
230
-1.0
 50
270.0
 51
0.0000000000001272
  0
ARC
  5
A25
  8
0
  6
VERDECKT
 62
     3
 10
-196.6750818047551945
 20
-7.5000000000000524
 30
0.0
 40
7.9999999999999707
210
0.0
220
-0.0000000000000002
230
-1.0
 50
179.9999999999996874
 51
270.0
  0
LINE
  5
A26
  8
0
  6
VERDECKT
 62
     3
 10
204.6750818047551945
 20
9.4999999999999876
 30
-0.0000000000000021
 11
204.6750818047551945
 21
-7.5000000000000151
 31
0.0000000000000017
210
0.0
220
1.0
230
-0.0000000000000002
  0
LINE
  5
A27
  8
0
  6
VERDECKT
 62
     3
 10
43.6750818047551874
 20
9.4999999999999876
 30
-0.0000000000000021
 11
43.6750818047551874
 21
-7.5000000000000151
 31
0.0000000000000017
210
0.0
220
1.0
230
-0.0000000000000002
  0
LINE
  5
A28
  8
0
  6
VERDECKT
 62
     3
 10
43.6750818047551874
 20
9.4999999999999876
 30
-0.0000000000000021
 11
42.0279853610814698
 21
15.6470476127563103
 31
-0.0000000000000035
210
0.0
220
1.0
230
-0.0000000000000002
  0
LINE
  5
A29
  8
0
  6
VERDECKT
 62
     3
 10
204.6750818047551945
 20
9.4999999999999876
 30
-0.0000000000000021
 11
206.3221782484289122
 21
15.6470476127563103
 31
-0.0000000000000035
210
0.0
220
1.0
230
-0.0000000000000002
  0
ARC
  5
A2A
  8
0
  6
VERDECKT
 62
     3
 10
-39.6131707953588119
 20
15.0000000000000195
 30
0.0
 40
2.499999999999996
210
0.0
220
-0.0000000000000002
230
-1.0
 50
89.9999999999998437
 51
165.000000000000199
  0
ARC
  5
A2B
  8
0
  6
VERDECKT
 62
     3
 10
-208.7369928141515061
 20
15.0000000000000409
 30
0.0
 40
2.4999999999999751
210
0.0
220
-0.0000000000000002
230
-1.0
 50
14.9999999999996803
 51
90.0000000000006679
  0
ENDBLK
  5
A2D
  8
0
  0
ENDSEC
  0
SECTION
  2
ENTITIES
  0
INSERT
  5
473
  8
ADSK_ASSOC_ENTITY_BACKUPS
  2
*S2
 10
0.0
 20
0.0
 30
0.0
  0
INSERT
  5
9F0
  8
DEFPOINTS
  2
A$C1D4D3777
 10
0.0
 20
-200.0
 30
0.0
  0
INSERT
  5
A2E
  8
DEFPOINTS
  2
A$C49756C08
 10
0.0
 20
0.0
 30
0.0
  0
VIEWPORT
  5
430
 67
     1
  8
0
 10
59.9391177500651224
 20
391.4636881686687957
 30
0.0
 40
825.1870643088312818
 41
460.1694638751528146
 68
     1
 69
     1
1001
ACAD
1000
MVIEW
1002
{
1070
    16
1010
0.0
1020
0.0
1030
0.0
1010
0.0
1020
0.0
1030
1.0
1040
0.0
1040
460.1694638751528146
1040
59.9391177500651224
1040
391.4636881686687957
1040
50.0
1040
0.0
1040
0.0
1070
     0
1070
   500
1070
     1
1070
     1
1070
     0
1070
     0
1070
     0
1070
     0
1040
0.0
1040
0.0
1040
0.0
1040
10.0
1040
10.0
1040
10.0
1040
10.0
1070
     0
1002
{
1002
}
1002
}
  0
VIEWPORT
  5
461
 67
     1
  8
0
 10
5.0819175363472482
 20
3.0145532925894249
 30
0.0
 40
181.2559074318108969
 41
181.2559074318108969
 68
     2
 69
     2
1001
ACAD
1000
MVIEW
1002
{
1070
    16
1010
0.0
1020
0.0
1030
0.0
1010
0.0
1020
0.0
1030
1.0
1040
0.0
1040
181.2559074318108969
1040
0.0
1040
0.0
1040
50.0
1040
0.0
1040
0.0
1070
     0
1070
   500
1070
     1
1070
     0
1070
     0
1070
     0
1070
     0
1070
     0
1040
0.0
1040
0.0
1040
0.0
1040
10.0
1040
10.0
1040
10.0
1040
10.0
1070
     0
1002
{
1002
}
1002
}
1001
ACSYNERGY
1070
     1
  0
VIEWPORT
  5
464
 67
     1
  8
0
 10
5.0819175363472482
 20
3.0145532925894249
 30
0.0
 40
181.2559074318108969
 41
181.2559074318108969
 68
     3
 69
     3
1001
ACAD
1000
MVIEW
1002
{
1070
    16
1010
-9870.7430006588983815
1020
-9963.8631853519000288
1030
0.0
1010
0.0
1020
-1.0
1030
0.0
1040
0.0
1040
181.2559074318108969
1040
-0.0000000000003411
1040
0.0
1040
50.0
1040
0.0
1040
0.0
1070
     0
1070
   500
1070
     1
1070
     0
1070
     0
1070
     0
1070
     0
1070
     0
1040
0.0
1040
0.0
1040
0.0
1040
10.0
1040
10.0
1040
10.0
1040
10.0
1070
     0
1002
{
1002
}
1002
}
1001
ACSYNERGY
1070
     1
  0
LINE
  5
491
 67
     1
  8
0
 10
-90.4180824636523965
 20
3.0145532925894249
 30
0.0
 11
100.5819175363476035
 21
3.0145532925894249
 31
0.0
  0
ENDSEC
  0
EOF
