  0
SECTION
  2
HEADER
  9
$ACADVER
  1
AC1009
  9
$INSBASE
 10
0.0
 20
0.0
 30
0.0
  9
$EXTMIN
 10
47.3342650141352905
 20
-33.4518971165889027
 30
-75.7000000000000597
  9
$EXTMAX
 10
198.7342650141353886
 20
215.4999478828322026
 30
75.7000000000000597
  9
$LIMMIN
 10
0.0
 20
0.0
  9
$LIMMAX
 10
420.0000000000001137
 20
297.0
  9
$ORTHOMODE
 70
     1
  9
$REGENMODE
 70
     1
  9
$FILLMODE
 70
     1
  9
$QTEXTMODE
 70
     0
  9
$MIRRTEXT
 70
     1
  9
$DRAGMODE
 70
     2
  9
$LTSCALE
 40
10.0
  9
$OSMODE
 70
   183
  9
$ATTMODE
 70
     1
  9
$TEXTSIZE
 40
3.5
  9
$TRACEWID
 40
1.0
  9
$TEXTSTYLE
  7
STANDARD
  9
$CLAYER
  8
DEFPOINTS
  9
$CELTYPE
  6
BYLAYER
  9
$CECOLOR
 62
   256
  9
$DIMSCALE
 40
1.0
  9
$DIMASZ
 40
3.5
  9
$DIMEXO
 40
1.0
  9
$DIMDLI
 40
7.0
  9
$DIMRND
 40
0.0
  9
$DIMDLE
 40
0.0
  9
$DIMEXE
 40
1.0
  9
$DIMTP
 40
0.1
  9
$DIMTM
 40
0.1
  9
$DIMTXT
 40
3.5
  9
$DIMCEN
 40
1.5
  9
$DIMTSZ
 40
0.0
  9
$DIMTOL
 70
     0
  9
$DIMLIM
 70
     0
  9
$DIMTIH
 70
     0
  9
$DIMTOH
 70
     0
  9
$DIMSE1
 70
     0
  9
$DIMSE2
 70
     0
  9
$DIMTAD
 70
     1
  9
$DIMZIN
 70
     8
  9
$DIMBLK
  1

  9
$DIMASO
 70
     1
  9
$DIMSHO
 70
     0
  9
$DIMPOST
  1

  9
$DIMAPOST
  1

  9
$DIMALT
 70
     0
  9
$DIMALTD
 70
     2
  9
$DIMALTF
 40
25.3999999999999986
  9
$DIMLFAC
 40
1.0
  9
$DIMTOFL
 70
     1
  9
$DIMTVP
 40
0.5714285714285714
  9
$DIMTIX
 70
     0
  9
$DIMSOXD
 70
     0
  9
$DIMSAH
 70
     0
  9
$DIMBLK1
  1

  9
$DIMBLK2
  1

  9
$DIMSTYLE
  2
STANDARD
  9
$DIMCLRD
 70
     0
  9
$DIMCLRE
 70
     0
  9
$DIMCLRT
 70
     1
  9
$DIMTFAC
 40
1.0
  9
$DIMGAP
 40
1.5
  9
$LUNITS
 70
     2
  9
$LUPREC
 70
     2
  9
$SKETCHINC
 40
1.0
  9
$FILLETRAD
 40
0.0
  9
$AUNITS
 70
     0
  9
$AUPREC
 70
     0
  9
$MENU
  1
ACAD
  9
$ELEVATION
 40
0.0
  9
$PELEVATION
 40
0.0
  9
$THICKNESS
 40
0.0
  9
$LIMCHECK
 70
     0
  9
$BLIPMODE
 70
     0
  9
$CHAMFERA
 40
0.5
  9
$CHAMFERB
 40
0.5
  9
$SKPOLY
 70
     0
  9
$TDCREATE
 40
2451729.5050347219221294
  9
$TDUPDATE
 40
2458402.5951041667722166
  9
$TDINDWG
 40
0.1212481829
  9
$TDUSRTIMER
 40
0.1212481829
  9
$USRTIMER
 70
     1
  9
$ANGBASE
 50
0.0
  9
$ANGDIR
 70
     0
  9
$PDMODE
 70
     0
  9
$PDSIZE
 40
0.0
  9
$PLINEWID
 40
0.0
  9
$COORDS
 70
     1
  9
$SPLFRAME
 70
     0
  9
$SPLINETYPE
 70
     6
  9
$SPLINESEGS
 70
     8
  9
$ATTDIA
 70
     1
  9
$ATTREQ
 70
     1
  9
$HANDLING
 70
     1
  9
$HANDSEED
  5
C60
  9
$SURFTAB1
 70
     6
  9
$SURFTAB2
 70
     6
  9
$SURFTYPE
 70
     6
  9
$SURFU
 70
     6
  9
$SURFV
 70
     6
  9
$UCSNAME
  2

  9
$UCSORG
 10
0.0
 20
0.0
 30
0.0
  9
$UCSXDIR
 10
1.0
 20
0.0
 30
0.0
  9
$UCSYDIR
 10
0.0
 20
1.0
 30
0.0
  9
$PUCSNAME
  2

  9
$PUCSORG
 10
0.0
 20
0.0
 30
0.0
  9
$PUCSXDIR
 10
1.0
 20
0.0
 30
0.0
  9
$PUCSYDIR
 10
0.0
 20
1.0
 30
0.0
  9
$USERI1
 70
     0
  9
$USERI2
 70
     0
  9
$USERI3
 70
     0
  9
$USERI4
 70
     0
  9
$USERI5
 70
     0
  9
$USERR1
 40
0.0
  9
$USERR2
 40
0.0
  9
$USERR3
 40
0.0
  9
$USERR4
 40
0.0
  9
$USERR5
 40
0.0
  9
$WORLDVIEW
 70
     1
  9
$SHADEDGE
 70
     3
  9
$SHADEDIF
 70
    70
  9
$TILEMODE
 70
     1
  9
$MAXACTVP
 70
    16
  9
$PLIMCHECK
 70
     0
  9
$PEXTMIN
 10
-231.3331365512854063
 20
-71.9703428112924257
 30
-0.0000000000000298
  9
$PEXTMAX
 10
188.7181345446462899
 20
426.2971797533566019
 30
0.0000000000000313
  9
$PLIMMIN
 10
-0.2500002402958907
 20
-0.2499999962453767
  9
$PLIMMAX
 10
10.7499995194082203
 20
8.2499997634587334
  9
$UNITMODE
 70
     0
  9
$VISRETAIN
 70
     0
  9
$PLINEGEN
 70
     0
  9
$PSLTSCALE
 70
     0
  0
ENDSEC
  0
SECTION
  2
TABLES
  0
TABLE
  2
VPORT
 70
     1
  0
VPORT
  2
*ACTIVE
 70
     0
 10
0.0
 20
0.0
 11
1.0
 21
1.0
 12
0.0
 22
0.0
 13
0.0
 23
0.0
 14
2.5
 24
2.5
 15
10.0
 25
10.0
 16
-0.0000000000001705
 26
0.0
 36
735.2464947532599808
 17
183.1041514865925137
 27
97.3538342355028732
 37
0.000000000000025
 40
300.8013637504179769
 41
1.7932242990654199
 42
50.0
 43
0.0
 44
0.0
 50
0.0
 51
0.0
 71
     0
 72
   500
 73
     1
 74
     0
 75
     0
 76
     0
 77
     0
 78
     0
  0
ENDTAB
  0
TABLE
  2
LTYPE
 70
     5
  0
LTYPE
  2
CONTINUOUS
 70
     0
  3
Solid line
 72
    65
 73
     0
 40
0.0
  0
LTYPE
  2
VERDECKT
 70
     0
  3
Verdeckt __ __ __ __ __ __ __ __ __ __ __ __ __
 72
    65
 73
     2
 40
0.375
 49
0.25
 49
-0.125
  0
ENDTAB
  0
TABLE
  2
LAYER
 70
    14
  0
LAYER
  2
0
 70
     0
 62
     7
  6
CONTINUOUS
  0
LAYER
  2
DEFPOINTS
 70
     0
 62
     7
  6
CONTINUOUS
  0
LAYER
  2
GUMMI
 70
     0
 62
    15
  6
CONTINUOUS
  0
LAYER
  2
ADSK_ASSOC_ENTITY_BACKUPS
 70
     1
 62
    -7
  6
CONTINUOUS
  0
ENDTAB
  0
TABLE
  2
STYLE
 70
     4
  0
STYLE
  2
STANDARD
 70
     0
 40
0.0
 41
0.8
 50
0.0
 71
     0
 42
3.5
  3
simplex.shx
  4

  0
STYLE
  2

 70
     1
 40
0.0
 41
1.0
 50
0.0
 71
     0
 42
3.5
  3
ltypeshp.shx
  4

  0
ENDTAB
  0
TABLE
  2
VIEW
 70
     2
  0
ENDTAB
  0
TABLE
  2
UCS
 70
     0
  0
ENDTAB
  0
TABLE
  2
APPID
 70
    21
  0
APPID
  2
ACAD
 70
     0
  0
APPID
  2
ACAD_NAV_VCDISPLAY
 70
     0
  0
APPID
  2
ACAECLAYERSTANDARD
 70
     0
  0
APPID
  2
ACCMTRANSPARENCY
 70
     0
  0
APPID
  2
ACAD_PSEXT
 70
     0
  0
APPID
  2
ACAD_EXEMPT_FROM_CAD_STANDARDS
 70
     0
  0
APPID
  2
ACSYNERGY
 70
     0
  0
APPID
  2
SYNERGY_BODY_TBR_ID
 70
     0
  0
APPID
  2
ACAD_VIEW_EDGE_ID
 70
     0
  0
APPID
  2
ACSYNERGYSKETCH
 70
     0
  0
APPID
  2
ACAD_MODELDOC_XFORM
 70
     0
  0
APPID
  2
ACAD_MLEADERVER
 70
     0
  0
APPID
  2
GRADIENTCOLOR1ACI
 70
     0
  0
APPID
  2
GRADIENTCOLOR2ACI
 70
     0
  0
APPID
  2
ACAD_DSTYLE_DIMRADIAL_EXTENSION
 70
     0
  0
APPID
  2
ACADANNOMONITORALERTICONDI
 70
     0
  0
APPID
  2
ACAD_DSTYLE_DIMJAG
 70
     0
  0
APPID
  2
ACAD_DSTYLE_DIMTALN
 70
     0
  0
APPID
  2
ACAD_DIMASSOC_CALC_DIMLFAC
 70
     0
  0
APPID
  2
ACAD_DIMASSOC_DIMLFAC
 70
     0
  0
APPID
  2
ACAD_DIMASSOC_OVERRIDDEN_D
 70
     0
  0
ENDTAB
  0
TABLE
  2
DIMSTYLE
 70
     2
  0
DIMSTYLE
  2
STANDARD
 70
     0
  3

  4

  5

  6

  7

 40
1.0
 41
0.18
 42
0.0625
 43
0.38
 44
0.18
 45
0.0
 46
0.0
 47
0.0
 48
0.0
140
0.18
141
0.09
142
0.0
143
25.3999999999999986
144
1.0
145
0.0
146
1.0
147
0.09
 71
     0
 72
     0
 73
     1
 74
     1
 75
     0
 76
     0
 77
     0
 78
     0
170
     0
171
     2
172
     0
173
     0
174
     0
175
     0
176
     0
177
     0
178
     0
  0
ENDTAB
  0
ENDSEC
  0
SECTION
  2
BLOCKS
  0
BLOCK
  8
0
  2
$MODEL_SPACE
 70
     0
 10
0.0
 20
0.0
 30
0.0
  3
$MODEL_SPACE
  1

  0
ENDBLK
  5
43
  8
0
  0
BLOCK
 67
     1
  8
0
  2
$PAPER_SPACE
 70
     0
 10
0.0
 20
0.0
 30
0.0
  3
$PAPER_SPACE
  1

  0
ENDBLK
  5
41
 67
     1
  8
0
  0
BLOCK
  8
0
  2
*S2
 70
     1
 10
0.0
 20
0.0
 30
0.0
  3
*S2
  1

  0
ENDBLK
  5
595
  8
0
  0
BLOCK
  8
0
  2
A$C43DD3471
 70
     0
 10
0.0
 20
0.0
 30
0.0
  3
A$C43DD3471
  1

  0
CIRCLE
  5
BC2
  8
0
  6
CONTINUOUS
 62
     3
 10
123.0342650141353005
 20
42.2481028834111498
 30
0.0000000000000266
 40
75.5
  0
CIRCLE
  5
BC3
  8
0
  6
CONTINUOUS
 62
     3
 10
123.0342650141353005
 20
42.2481028834111498
 30
0.0000000000000258
 40
75.7000000000000455
  0
CIRCLE
  5
BC4
  8
0
  6
CONTINUOUS
 62
     3
 10
123.0342650141353005
 20
42.2481028834111498
 30
0.0000000000000266
 40
61.5
  0
CIRCLE
  5
BC5
  8
0
  6
CONTINUOUS
 62
     3
 10
123.0342650141353005
 20
42.2481028834111498
 30
0.0000000000000266
 40
67.5
  0
CIRCLE
  5
BC6
  8
0
  6
VERDECKT
 62
     1
 10
123.0342650141353005
 20
42.2481028834111498
 30
0.0000000000000258
 40
70.0
  0
CIRCLE
  5
BC7
  8
0
  6
VERDECKT
 62
     1
 10
123.0342650141353005
 20
42.2481028834111498
 30
0.0000000000000258
 40
71.4801488286690301
  0
CIRCLE
  5
BC8
  8
0
  6
VERDECKT
 62
     1
 10
123.0342650141353005
 20
42.2481028834111498
 30
0.0000000000000259
 40
73.3000000000000114
  0
CIRCLE
  5
BC9
  8
0
  6
VERDECKT
 62
     1
 10
123.0342650141353005
 20
42.2481028834111498
 30
0.0000000000000266
 40
73.5
  0
CIRCLE
  5
BCA
  8
0
  6
VERDECKT
 62
     1
 10
123.0342650141353005
 20
42.2481028834111498
 30
0.0000000000000266
 40
73.7000000000000455
  0
CIRCLE
  5
BCB
  8
0
  6
VERDECKT
 62
     1
 10
123.0342650141353005
 20
42.2481028834111498
 30
0.0000000000000266
 40
70.7000000000000455
  0
CIRCLE
  5
BCC
  8
0
  6
VERDECKT
 62
     1
 10
123.0342650141353005
 20
42.2481028834111498
 30
0.0000000000000266
 40
70.1568542494921985
  0
ENDBLK
  5
BCE
  8
0
  0
BLOCK
  8
0
  2
A$C3A35120F
 70
     0
 10
0.0
 20
0.0
 30
0.0
  3
A$C3A35120F
  1

  0
LINE
  5
BD2
  8
0
  6
CONTINUOUS
 62
     3
 10
47.5342650141353431
 20
8.5000521171677121
 30
-0.0000000000000019
 11
198.5342650141352863
 21
8.5000521171677121
 31
-0.0000000000000019
210
0.0
220
1.0
230
-0.0000000000000002
  0
LINE
  5
BD3
  8
0
  6
CONTINUOUS
 62
     3
 10
51.554116185466313
 20
5.500052117167713
 30
-0.0000000000000012
 11
194.5144138428042879
 21
5.500052117167713
 31
-0.0000000000000012
210
0.0
220
1.0
230
-0.0000000000000002
  0
LINE
  5
BD4
  8
0
  6
CONTINUOUS
 62
     3
 10
49.7342650141353388
 20
0.5000521171677123
 30
-0.0000000000000001
 11
196.3342650141352976
 21
0.5000521171677123
 31
-0.0000000000000001
210
0.0
220
1.0
230
-0.0000000000000002
  0
LINE
  5
BD5
  8
0
  6
CONTINUOUS
 62
     3
 10
49.7342650141353388
 20
-2.599947882832311
 30
0.0000000000000006
 11
196.3342650141352976
 21
-2.599947882832311
 31
0.0000000000000006
210
0.0
220
1.0
230
-0.0000000000000002
  0
LINE
  5
BD6
  8
0
  6
CONTINUOUS
 62
     3
 10
47.3342650141352905
 20
-4.9999478828322879
 30
0.0000000000000011
 11
198.7342650141353886
 21
-4.9999478828322879
 31
0.0000000000000011
210
0.0
220
1.0
230
-0.0000000000000002
  0
LINE
  5
BD7
  8
0
  6
CONTINUOUS
 62
     3
 10
47.3342650141352905
 20
-5.9999478828322879
 30
0.0000000000000013
 11
198.7342650141353886
 21
-5.9999478828322879
 31
0.0000000000000013
210
0.0
220
1.0
230
-0.0000000000000002
  0
LINE
  5
BD8
  8
0
  6
CONTINUOUS
 62
     3
 10
49.5342650141353502
 20
-8.1999478828323351
 30
0.0000000000000018
 11
196.5342650141352863
 21
-8.1999478828323351
 31
0.0000000000000018
210
0.0
220
1.0
230
-0.0000000000000002
  0
LINE
  5
BD9
  8
0
  6
CONTINUOUS
 62
     3
 10
49.5342650141353502
 20
-10.6894361061807501
 30
0.0000000000000024
 11
196.5342650141352863
 21
-10.6894361061807501
 31
0.0000000000000024
210
0.0
220
1.0
230
-0.0000000000000002
  0
LINE
  5
BDA
  8
0
  6
CONTINUOUS
 62
     3
 10
47.3342650141352905
 20
-14.4999478828322896
 30
0.0000000000000032
 11
198.7342650141353886
 21
-14.4999478828322896
 31
0.0000000000000032
210
0.0
220
1.0
230
-0.0000000000000002
  0
LINE
  5
BDB
  8
0
  6
CONTINUOUS
 62
     3
 10
58.5342650141354568
 20
-15.4999478828323003
 30
0.0000000000000034
 11
187.534265014135201
 21
-15.4999478828323003
 31
0.0000000000000034
210
0.0
220
1.0
230
-0.0000000000000002
  0
LINE
  5
BDC
  8
0
  6
CONTINUOUS
 62
     3
 10
51.5342650141352578
 20
15.4999478828323003
 30
-0.0000000000000034
 11
194.5342650141354
 21
15.4999478828323003
 31
-0.0000000000000034
210
0.0
220
1.0
230
-0.0000000000000002
  0
ARC
  5
BDD
  8
0
  6
CONTINUOUS
 62
     3
 10
-52.0342650141353502
 20
7.500052117167713
 30
0.0
 40
1.0
210
0.0
220
-0.0000000000000002
230
-1.0
 50
89.9999999999995879
 51
180.0
  0
ARC
  5
BDE
  8
0
  6
CONTINUOUS
 62
     3
 10
-194.0342650141352863
 20
7.5000521171677237
 30
0.0
 40
1.0
210
0.0
220
-0.0000000000000002
230
-1.0
 50
0.0
 51
90.0000000000006253
  0
LINE
  5
BDF
  8
0
  6
CONTINUOUS
 62
     3
 10
193.0342650141352863
 20
7.500052117167713
 30
-0.0000000000000017
 11
193.0342650141352863
 21
6.500052117167713
 31
-0.0000000000000014
210
0.0
220
1.0
230
-0.0000000000000002
  0
LINE
  5
BE0
  8
0
  6
CONTINUOUS
 62
     3
 10
53.0342650141353431
 20
7.500052117167713
 30
-0.0000000000000017
 11
53.0342650141353431
 21
6.500052117167713
 31
-0.0000000000000014
210
0.0
220
1.0
230
-0.0000000000000002
  0
ARC
  5
BE1
  8
0
  6
CONTINUOUS
 62
     3
 10
-52.0342650141353502
 20
6.500052117167713
 30
0.0
 40
1.0
210
0.0
220
-0.0000000000000002
230
-1.0
 50
180.0
 51
270.0000000000003979
  0
ARC
  5
BE2
  8
0
  6
CONTINUOUS
 62
     3
 10
-194.0342650141352863
 20
6.5000521171677033
 30
0.0
 40
0.9999999999999893
210
0.0
220
-0.0000000000000002
230
-1.0
 50
270.0
 51
0.0000000000005966
  0
LINE
  5
BE3
  8
0
  6
CONTINUOUS
 62
     3
 10
194.5144138428042879
 20
5.500052117167713
 30
-0.0000000000000012
 11
196.3342650141352976
 21
0.5000521171677123
 31
-0.0000000000000001
210
0.0
220
1.0
230
-0.0000000000000002
  0
LINE
  5
BE4
  8
0
  6
CONTINUOUS
 62
     3
 10
51.554116185466313
 20
5.500052117167713
 30
-0.0000000000000012
 11
49.7342650141353317
 21
0.5000521171677123
 31
-0.0000000000000001
210
0.0
220
1.0
230
-0.0000000000000002
  0
LINE
  5
BE5
  8
0
  6
CONTINUOUS
 62
     3
 10
196.3342650141352976
 20
0.5000521171677123
 30
-0.0000000000000001
 11
196.3342650141352976
 21
-2.599947882832311
 31
0.0000000000000006
210
0.0
220
1.0
230
-0.0000000000000002
  0
LINE
  5
BE6
  8
0
  6
CONTINUOUS
 62
     3
 10
49.7342650141353317
 20
0.5000521171677123
 30
-0.0000000000000001
 11
49.7342650141353317
 21
-2.599947882832311
 31
0.0000000000000006
210
0.0
220
1.0
230
-0.0000000000000002
  0
LINE
  5
BE7
  8
0
  6
CONTINUOUS
 62
     3
 10
196.3342650141352976
 20
-2.599947882832311
 30
0.0000000000000006
 11
198.7342650141353886
 21
-4.9999478828322879
 31
0.0000000000000011
210
0.0
220
1.0
230
-0.0000000000000002
  0
LINE
  5
BE8
  8
0
  6
CONTINUOUS
 62
     3
 10
49.7342650141353317
 20
-2.599947882832311
 30
0.0000000000000006
 11
47.3342650141352905
 21
-4.9999478828322879
 31
0.0000000000000011
210
0.0
220
1.0
230
-0.0000000000000002
  0
LINE
  5
BE9
  8
0
  6
CONTINUOUS
 62
     3
 10
198.7342650141353886
 20
-4.9999478828322879
 30
0.0000000000000011
 11
198.7342650141353886
 21
-5.9999478828322879
 31
0.0000000000000013
210
0.0
220
1.0
230
-0.0000000000000002
  0
LINE
  5
BEA
  8
0
  6
CONTINUOUS
 62
     3
 10
47.3342650141352905
 20
-4.9999478828322879
 30
0.0000000000000011
 11
47.3342650141352905
 21
-5.9999478828322879
 31
0.0000000000000013
210
0.0
220
1.0
230
-0.0000000000000002
  0
LINE
  5
BEB
  8
0
  6
CONTINUOUS
 62
     3
 10
49.5342650141353502
 20
-8.1999478828323351
 30
0.0000000000000018
 11
47.3342650141352905
 21
-5.9999478828322879
 31
0.0000000000000013
210
0.0
220
1.0
230
-0.0000000000000002
  0
LINE
  5
BEC
  8
0
  6
CONTINUOUS
 62
     3
 10
196.5342650141352863
 20
-8.1999478828323351
 30
0.0000000000000018
 11
198.7342650141353886
 21
-5.9999478828322879
 31
0.0000000000000013
210
0.0
220
1.0
230
-0.0000000000000002
  0
LINE
  5
BED
  8
0
  6
CONTINUOUS
 62
     3
 10
196.5342650141352863
 20
-8.1999478828323351
 30
0.0000000000000018
 11
196.5342650141352863
 21
-10.6894361061807501
 31
0.0000000000000024
210
0.0
220
1.0
230
-0.0000000000000002
  0
LINE
  5
BEE
  8
0
  6
CONTINUOUS
 62
     3
 10
49.5342650141353502
 20
-8.1999478828323351
 30
0.0000000000000018
 11
49.5342650141353502
 21
-10.6894361061807501
 31
0.0000000000000024
210
0.0
220
1.0
230
-0.0000000000000002
  0
LINE
  5
BEF
  8
0
  6
CONTINUOUS
 62
     3
 10
196.5342650141352863
 20
-10.6894361061807501
 30
0.0000000000000024
 11
198.7342650141353886
 21
-14.4999478828322896
 31
0.0000000000000032
210
0.0
220
1.0
230
-0.0000000000000002
  0
LINE
  5
BF0
  8
0
  6
CONTINUOUS
 62
     3
 10
49.5342650141353502
 20
-10.6894361061807501
 30
0.0000000000000024
 11
47.3342650141352905
 21
-14.4999478828322896
 31
0.0000000000000032
210
0.0
220
1.0
230
-0.0000000000000002
  0
ARC
  5
BF1
  8
0
  6
CONTINUOUS
 62
     3
 10
-58.534265014135471
 20
-9.4999478828323731
 30
0.0
 40
5.9999999999999227
210
0.0
220
-0.0000000000000002
230
-1.0
 50
270.0000000000001137
 51
303.5573097619209193
  0
ARC
  5
BF2
  8
0
  6
CONTINUOUS
 62
     3
 10
-187.5342650141350873
 20
-9.4999478828323323
 30
0.0
 40
5.9999999999999707
210
0.0
220
-0.0000000000000002
230
-1.0
 50
236.4426902380791091
 51
269.9999999999994884
  0
ARC
  5
BF3
  8
0
  6
CONTINUOUS
 62
     3
 10
-51.5584249274942792
 20
12.7000521171677097
 30
0.0
 40
2.7999999999999901
210
0.0
220
-0.0000000000000002
230
-1.0
 50
15.0000000000000497
 51
89.5056149120657807
  0
ARC
  5
BF4
  8
0
  6
CONTINUOUS
 62
     3
 10
-194.5101051007763999
 20
12.7000521171677008
 30
0.0
 40
2.8000000000000012
210
0.0
220
-0.0000000000000002
230
-1.0
 50
90.4943850879346883
 51
164.9999999999998863
  0
LINE
  5
BF5
  8
0
  6
CONTINUOUS
 62
     3
 10
197.2146974143857108
 20
13.4247454434547606
 30
-0.000000000000003
 11
198.5342650141352863
 21
8.5000521171677121
 31
-0.0000000000000019
210
0.0
220
1.0
230
-0.0000000000000002
  0
LINE
  5
BF6
  8
0
  6
CONTINUOUS
 62
     3
 10
48.8538326138849186
 20
13.4247454434547606
 30
-0.000000000000003
 11
47.5342650141353431
 21
8.5000521171677121
 31
-0.0000000000000019
210
0.0
220
1.0
230
-0.0000000000000002
  0
LINE
  5
BF7
  8
0
  6
VERDECKT
 62
     1
 10
52.3342650141352905
 20
-11.4999478828322896
 30
0.0000000000000026
 11
193.7342650141353886
 21
-11.4999478828322896
 31
0.0000000000000026
210
0.0
220
1.0
230
-0.0000000000000002
  0
LINE
  5
BF8
  8
0
  6
VERDECKT
 62
     1
 10
61.5342650141353431
 20
-13.4999478828322896
 30
0.000000000000003
 11
184.5342650141352863
 21
-13.4999478828322896
 31
0.000000000000003
210
0.0
220
1.0
230
-0.0000000000000002
  0
LINE
  5
BF9
  8
0
  6
VERDECKT
 62
     1
 10
193.7342650141353886
 20
-11.4999478828322896
 30
0.0000000000000026
 11
196.7342650141353886
 21
-14.4999478828322896
 31
0.0000000000000032
210
0.0
220
1.0
230
-0.0000000000000002
  0
LINE
  5
BFA
  8
0
  6
VERDECKT
 62
     1
 10
52.3342650141352905
 20
-11.4999478828322896
 30
0.0000000000000026
 11
49.3342650141352976
 21
-14.4999478828322896
 31
0.0000000000000032
210
0.0
220
1.0
230
-0.0000000000000002
  0
ARC
  5
BFB
  8
0
  6
VERDECKT
 62
     1
 10
-58.5342650141354426
 20
-9.4999478828323962
 30
0.0
 40
5.9999999999998836
210
0.0
220
-0.0000000000000002
230
-1.0
 50
303.5573097619209193
 51
340.5287793655101041
  0
ARC
  5
BFC
  8
0
  6
VERDECKT
 62
     1
 10
-187.534265014135002
 20
-9.4999478828322363
 30
0.0
 40
6.0000000000001066
210
0.0
220
-0.0000000000000002
230
-1.0
 50
199.4712206344906065
 51
236.4426902380785975
  0
LINE
  5
BFD
  8
0
  6
VERDECKT
 62
     1
 10
184.5342650141352863
 20
-13.4999478828322896
 30
0.000000000000003
 11
184.5342650141352863
 21
-15.4999478828322896
 31
0.0000000000000034
210
0.0
220
1.0
230
-0.0000000000000002
  0
LINE
  5
BFE
  8
0
  6
VERDECKT
 62
     1
 10
61.5342650141353431
 20
-13.4999478828322896
 30
0.000000000000003
 11
61.5342650141353431
 21
-15.4999478828322896
 31
0.0000000000000034
210
0.0
220
1.0
230
-0.0000000000000002
  0
ARC
  5
BFF
  8
0
  6
VERDECKT
 62
     1
 10
-61.5342650141353431
 20
-7.4999478828322879
 30
0.0
 40
6.0
210
0.0
220
-0.0000000000000002
230
-1.0
 50
270.0
 51
360.0
  0
ARC
  5
C00
  8
0
  6
VERDECKT
 62
     1
 10
-184.5342650141352863
 20
-7.4999478828322976
 30
0.0
 40
6.0
210
0.0
220
-0.0000000000000002
230
-1.0
 50
179.9999999999998863
 51
270.0
  0
LINE
  5
C01
  8
0
  6
VERDECKT
 62
     1
 10
190.5342650141352863
 20
8.5000521171677121
 30
-0.0000000000000019
 11
190.5342650141352863
 21
-7.4999478828322887
 31
0.0000000000000017
210
0.0
220
1.0
230
-0.0000000000000002
  0
LINE
  5
C02
  8
0
  6
VERDECKT
 62
     1
 10
55.5342650141353431
 20
8.5000521171677121
 30
-0.0000000000000019
 11
55.5342650141353431
 21
-7.4999478828322887
 31
0.0000000000000017
210
0.0
220
1.0
230
-0.0000000000000002
  0
LINE
  5
C03
  8
0
  6
VERDECKT
 62
     1
 10
55.5342650141353289
 20
8.5000521171677121
 30
-0.0000000000000019
 11
54.2146974143858316
 21
13.4247454434547393
 31
-0.000000000000003
210
0.0
220
1.0
230
-0.0000000000000002
  0
LINE
  5
C04
  8
0
  6
VERDECKT
 62
     1
 10
190.5342650141352863
 20
8.5000521171677121
 30
-0.0000000000000019
 11
191.8538326138848049
 21
13.4247454434547304
 31
-0.000000000000003
210
0.0
220
1.0
230
-0.0000000000000002
  0
ARC
  5
C05
  8
0
  6
VERDECKT
 62
     1
 10
-51.5101051007764497
 20
12.7000521171677008
 30
0.0
 40
2.799999999999998
210
0.0
220
-0.0000000000000002
230
-1.0
 50
90.4943850879304534
 51
165.0000000000003979
  0
ARC
  5
C06
  8
0
  6
VERDECKT
 62
     1
 10
-194.558424927494201
 20
12.7000521171676795
 30
0.0
 40
2.8000000000000318
210
0.0
220
-0.0000000000000002
230
-1.0
 50
14.9999999999998295
 51
89.5056149120694187
  0
ENDBLK
  5
C08
  8
0
  0
ENDSEC
  0
SECTION
  2
ENTITIES
  0
INSERT
  5
597
  8
ADSK_ASSOC_ENTITY_BACKUPS
  2
*S2
 10
0.0
 20
0.0
 30
0.0
  0
INSERT
  5
BCF
  8
DEFPOINTS
  2
A$C43DD3471
 10
0.0
 20
0.0
 30
0.0
  0
INSERT
  5
C09
  8
DEFPOINTS
  2
A$C3A35120F
 10
0.0
 20
199.9999999999998863
 30
0.0
  0
VIEWPORT
  5
573
 67
     1
  8
0
 10
819.8201267529066172
 20
-326.2086903442184962
 30
0.0
 40
3445.5592834443978063
 41
1921.4324082269740757
 68
     1
 69
     1
1001
ACAD
1000
MVIEW
1002
{
1070
    16
1010
0.0
1020
0.0
1030
0.0
1010
0.0
1020
0.0
1030
1.0
1040
0.0
1040
1921.4324082269740757
1040
819.8201267529066172
1040
-326.2086903442184962
1040
50.0
1040
0.0
1040
0.0
1070
     0
1070
   500
1070
     1
1070
     1
1070
     0
1070
     0
1070
     0
1070
     0
1040
0.0
1040
0.0
1040
0.0
1040
10.0
1040
10.0
1040
10.0
1040
10.0
1070
     0
1002
{
1002
}
1002
}
  0
ENDSEC
  0
EOF
