  0
SECTION
  2
HEADER
  9
$ACADVER
  1
AC1009
  9
$INSBASE
 10
0.0
 20
0.0
 30
0.0
  9
$EXTMIN
 10
-51.0000000000000497
 20
-50.9999999999999929
 30
-18.3289899283371582
  9
$EXTMAX
 10
51.0000000000000497
 20
86.6710100716628205
 30
6.6710100716628133
  9
$LIMMIN
 10
0.0
 20
0.0
  9
$LIMMAX
 10
210.0
 20
297.0
  9
$ORTHOMODE
 70
     1
  9
$REGENMODE
 70
     1
  9
$FILLMODE
 70
     1
  9
$QTEXTMODE
 70
     0
  9
$MIRRTEXT
 70
     1
  9
$DRAGMODE
 70
     2
  9
$LTSCALE
 40
10.0
  9
$OSMODE
 70
   183
  9
$ATTMODE
 70
     1
  9
$TEXTSIZE
 40
3.5
  9
$TRACEWID
 40
0.5
  9
$TEXTSTYLE
  7
STANDARD
  9
$CLAYER
  8
DEFPOINTS
  9
$CELTYPE
  6
BYLAYER
  9
$CECOLOR
 62
   256
  9
$DIMSCALE
 40
1.0
  9
$DIMASZ
 40
3.5
  9
$DIMEXO
 40
1.0
  9
$DIMDLI
 40
7.0
  9
$DIMRND
 40
0.0
  9
$DIMDLE
 40
0.0
  9
$DIMEXE
 40
1.0
  9
$DIMTP
 40
0.0
  9
$DIMTM
 40
0.0
  9
$DIMTXT
 40
3.5
  9
$DIMCEN
 40
1.5
  9
$DIMTSZ
 40
0.0
  9
$DIMTOL
 70
     0
  9
$DIMLIM
 70
     0
  9
$DIMTIH
 70
     0
  9
$DIMTOH
 70
     0
  9
$DIMSE1
 70
     0
  9
$DIMSE2
 70
     0
  9
$DIMTAD
 70
     1
  9
$DIMZIN
 70
     8
  9
$DIMBLK
  1

  9
$DIMASO
 70
     1
  9
$DIMSHO
 70
     0
  9
$DIMPOST
  1

  9
$DIMAPOST
  1

  9
$DIMALT
 70
     0
  9
$DIMALTD
 70
     2
  9
$DIMALTF
 40
25.3999999999999986
  9
$DIMLFAC
 40
1.0
  9
$DIMTOFL
 70
     1
  9
$DIMTVP
 40
0.0
  9
$DIMTIX
 70
     0
  9
$DIMSOXD
 70
     0
  9
$DIMSAH
 70
     0
  9
$DIMBLK1
  1

  9
$DIMBLK2
  1

  9
$DIMSTYLE
  2
STANDARD
  9
$DIMCLRD
 70
     0
  9
$DIMCLRE
 70
     0
  9
$DIMCLRT
 70
     1
  9
$DIMTFAC
 40
0.5
  9
$DIMGAP
 40
1.5
  9
$LUNITS
 70
     2
  9
$LUPREC
 70
     2
  9
$SKETCHINC
 40
1.0
  9
$FILLETRAD
 40
0.8
  9
$AUNITS
 70
     0
  9
$AUPREC
 70
     0
  9
$MENU
  1
ACAD
  9
$ELEVATION
 40
0.0
  9
$PELEVATION
 40
0.0
  9
$THICKNESS
 40
0.0
  9
$LIMCHECK
 70
     0
  9
$BLIPMODE
 70
     0
  9
$CHAMFERA
 40
0.0
  9
$CHAMFERB
 40
0.0
  9
$SKPOLY
 70
     0
  9
$TDCREATE
 40
2455397.8646990740671754
  9
$TDUPDATE
 40
2458387.4856018521822989
  9
$TDINDWG
 40
0.1529344676
  9
$TDUSRTIMER
 40
0.1529344676
  9
$USRTIMER
 70
     1
  9
$ANGBASE
 50
0.0
  9
$ANGDIR
 70
     0
  9
$PDMODE
 70
     0
  9
$PDSIZE
 40
0.0
  9
$PLINEWID
 40
0.0
  9
$COORDS
 70
     1
  9
$SPLFRAME
 70
     0
  9
$SPLINETYPE
 70
     6
  9
$SPLINESEGS
 70
     8
  9
$ATTDIA
 70
     1
  9
$ATTREQ
 70
     1
  9
$HANDLING
 70
     1
  9
$HANDSEED
  5
1C94
  9
$SURFTAB1
 70
     6
  9
$SURFTAB2
 70
     6
  9
$SURFTYPE
 70
     6
  9
$SURFU
 70
     6
  9
$SURFV
 70
     6
  9
$UCSNAME
  2

  9
$UCSORG
 10
0.0
 20
0.0
 30
0.0
  9
$UCSXDIR
 10
1.0
 20
0.0
 30
0.0
  9
$UCSYDIR
 10
0.0
 20
1.0
 30
0.0
  9
$PUCSNAME
  2

  9
$PUCSORG
 10
0.0
 20
0.0
 30
0.0
  9
$PUCSXDIR
 10
1.0
 20
0.0
 30
0.0
  9
$PUCSYDIR
 10
0.0
 20
1.0
 30
0.0
  9
$USERI1
 70
     0
  9
$USERI2
 70
     0
  9
$USERI3
 70
     0
  9
$USERI4
 70
     0
  9
$USERI5
 70
     0
  9
$USERR1
 40
0.0
  9
$USERR2
 40
0.0
  9
$USERR3
 40
0.0
  9
$USERR4
 40
0.0
  9
$USERR5
 40
0.0
  9
$WORLDVIEW
 70
     1
  9
$SHADEDGE
 70
     3
  9
$SHADEDIF
 70
    70
  9
$TILEMODE
 70
     1
  9
$MAXACTVP
 70
    16
  9
$PLIMCHECK
 70
     0
  9
$PEXTMIN
 10
-109.2153407577359019
 20
-203.2013450316507033
 30
-0.0000000349181948
  9
$PEXTMAX
 10
100.8102947902299036
 20
215.2894779578356861
 30
0.0000000814935746
  9
$PLIMMIN
 10
-0.2500002402958907
 20
-0.2499999962453767
  9
$PLIMMAX
 10
10.7499995194082203
 20
8.2499997634587334
  9
$UNITMODE
 70
     0
  9
$VISRETAIN
 70
     0
  9
$PLINEGEN
 70
     0
  9
$PSLTSCALE
 70
     0
  0
ENDSEC
  0
SECTION
  2
TABLES
  0
TABLE
  2
VPORT
 70
     1
  0
VPORT
  2
*ACTIVE
 70
     0
 10
0.0
 20
0.0
 11
1.0
 21
1.0
 12
0.0
 22
0.0
 13
0.0
 23
0.0
 14
1.0
 24
1.0
 15
10.0
 25
10.0
 16
-0.0000000000001208
 26
0.0
 36
501.5099438024291203
 17
49.7819221787442103
 27
28.8187641798781016
 37
0.0000000000000119
 40
202.6534958540441096
 41
1.8224299065420559
 42
50.0
 43
0.0
 44
0.0
 50
0.0
 51
0.0
 71
     0
 72
  1500
 73
     1
 74
     0
 75
     0
 76
     0
 77
     0
 78
     0
  0
ENDTAB
  0
TABLE
  2
LTYPE
 70
     7
  0
LTYPE
  2
CONTINUOUS
 70
     0
  3
Solid line
 72
    65
 73
     0
 40
0.0
  0
LTYPE
  2
PHANTOM2
 70
     0
  3
Phantom (.5x) ___ _ _ ___ _ _ ___ _ _ ___ _ _
 72
    65
 73
     6
 40
1.25
 49
0.625
 49
-0.125
 49
0.125
 49
-0.125
 49
0.125
 49
-0.125
  0
LTYPE
  2
VERDECKT
 70
     0
  3
Verdeckt __ __ __ __ __ __ __ __ __ __ __ __ __
 72
    65
 73
     2
 40
0.375
 49
0.25
 49
-0.125
  0
ENDTAB
  0
TABLE
  2
LAYER
 70
    14
  0
LAYER
  2
0
 70
     0
 62
     7
  6
CONTINUOUS
  0
LAYER
  2
DEFPOINTS
 70
     0
 62
     7
  6
CONTINUOUS
  0
LAYER
  2
ADSK_ASSOC_ENTITY_BACKUPS
 70
     1
 62
    -7
  6
CONTINUOUS
  0
ENDTAB
  0
TABLE
  2
STYLE
 70
     4
  0
STYLE
  2
STANDARD
 70
     0
 40
0.0
 41
0.8
 50
0.0
 71
     0
 42
3.5
  3
simplex.shx
  4

  0
ENDTAB
  0
TABLE
  2
VIEW
 70
     1
  0
ENDTAB
  0
TABLE
  2
UCS
 70
     0
  0
ENDTAB
  0
TABLE
  2
APPID
 70
    17
  0
APPID
  2
ACAD
 70
     0
  0
APPID
  2
ACAD_NAV_VCDISPLAY
 70
     0
  0
APPID
  2
ACAD_MLEADERVER
 70
     0
  0
APPID
  2
ACAD_EXEMPT_FROM_CAD_STANDARDS
 70
     0
  0
APPID
  2
ACAD_DSTYLE_DIMRADIAL_EXTENSION
 70
     0
  0
APPID
  2
ACAECLAYERSTANDARD
 70
     0
  0
APPID
  2
ACCMTRANSPARENCY
 70
     0
  0
APPID
  2
GRADIENTCOLOR1ACI
 70
     0
  0
APPID
  2
GRADIENTCOLOR2ACI
 70
     0
  0
APPID
  2
ACAD_PSEXT
 70
     0
  0
APPID
  2
ACAD_OBJECT_CHANGE_GUID
 70
     0
  0
APPID
  2
ACADANNOMONITORALERTICONDI
 70
     0
  0
APPID
  2
ACSYNERGY
 70
     0
  0
APPID
  2
SYNERGY_BODY_TBR_ID
 70
     0
  0
APPID
  2
ACAD_VIEW_EDGE_ID
 70
     0
  0
APPID
  2
ACSYNERGYSKETCH
 70
     0
  0
APPID
  2
ACAD_MODELDOC_XFORM
 70
     0
  0
ENDTAB
  0
TABLE
  2
DIMSTYLE
 70
     2
  0
DIMSTYLE
  2
STANDARD
 70
     0
  3

  4

  5

  6

  7

 40
1.0
 41
0.18
 42
0.0625
 43
0.38
 44
0.18
 45
0.0
 46
0.0
 47
0.0
 48
0.0
140
0.18
141
0.09
142
0.0
143
25.3999999999999986
144
1.0
145
0.0
146
1.0
147
0.09
 71
     0
 72
     0
 73
     1
 74
     1
 75
     0
 76
     0
 77
     0
 78
     0
170
     0
171
     2
172
     0
173
     0
174
     0
175
     0
176
     0
177
     0
178
     0
  0
ENDTAB
  0
ENDSEC
  0
SECTION
  2
BLOCKS
  0
BLOCK
  8
0
  2
$MODEL_SPACE
 70
     0
 10
0.0
 20
0.0
 30
0.0
  3
$MODEL_SPACE
  1

  0
ENDBLK
  5
36
  8
0
  0
BLOCK
 67
     1
  8
0
  2
$PAPER_SPACE
 70
     0
 10
0.0
 20
0.0
 30
0.0
  3
$PAPER_SPACE
  1

  0
ENDBLK
  5
34
 67
     1
  8
0
  0
BLOCK
  8
0
  2
*S2
 70
     1
 10
0.0
 20
0.0
 30
0.0
  3
*S2
  1

  0
ENDBLK
  5
1558
  8
0
  0
BLOCK
  8
0
  2
A$C7C5C3043
 70
     0
 10
0.0
 20
0.0
 30
0.0
  3
A$C7C5C3043
  1

  0
CIRCLE
  5
1BFF
  8
0
  6
CONTINUOUS
 62
     3
 10
0.0000000000000037
 20
0.0000000000000032
 30
0.0
 40
40.0
  0
CIRCLE
  5
1C00
  8
0
  6
CONTINUOUS
 62
     3
 10
0.0000000000000001
 20
0.0000000000000042
 30
0.0
 40
45.0
  0
CIRCLE
  5
1C01
  8
0
  6
CONTINUOUS
 62
     3
 10
-0.0000000000000002
 20
0.0000000000000043
 30
0.0
 40
51.0
  0
CIRCLE
  5
1C02
  8
0
  6
VERDECKT
 62
     1
 10
0.0000000000000032
 20
0.0000000000000034
 30
0.0
 40
46.8989794855663575
  0
CIRCLE
  5
1C03
  8
0
  6
VERDECKT
 62
     1
 10
0.0000000000000017
 20
0.0000000000000038
 30
0.0
 40
49.5000000000000568
  0
CIRCLE
  5
1C04
  8
0
  6
VERDECKT
 62
     1
 10
0.0000000000000036
 20
0.0000000000000033
 30
0.0
 40
48.9999999999999503
  0
CIRCLE
  5
1C05
  8
0
  6
VERDECKT
 62
     1
 10
0.0000000000000032
 20
0.0000000000000034
 30
0.0
 40
47.8452994616207476
  0
CIRCLE
  5
1C06
  8
0
  6
VERDECKT
 62
     1
 10
0.0
 20
0.0000000000000043
 30
0.0
 40
46.7140740033710529
  0
ENDBLK
  5
1C08
  8
0
  0
BLOCK
  8
0
  2
A$C0022561A
 70
     0
 10
0.0
 20
0.0
 30
0.0
  3
A$C0022561A
  1

  0
LINE
  5
1C0C
  8
0
  6
CONTINUOUS
 62
     3
 10
-42.0
 20
-18.3289899283371689
 30
0.0000000000000041
 11
42.0
 21
-18.3289899283371689
 31
0.0000000000000041
210
0.0
220
1.0
230
-0.0000000000000002
  0
LINE
  5
1C0D
  8
0
  6
CONTINUOUS
 62
     3
 10
-51.0000000000000497
 20
0.6710100716628348
 30
-0.0000000000000001
 11
51.0000000000000497
 21
0.6710100716628348
 31
-0.0000000000000001
210
0.0
220
1.0
230
-0.0000000000000002
  0
LINE
  5
1C0E
  8
0
  6
CONTINUOUS
 62
     3
 10
-49.5000000000000568
 20
-7.5714221867010787
 30
0.0000000000000017
 11
49.5000000000000568
 21
-7.5714221867010787
 31
0.0000000000000017
210
0.0
220
1.0
230
-0.0000000000000002
  0
LINE
  5
1C0F
  8
0
  6
CONTINUOUS
 62
     3
 10
-49.5000000000000568
 20
-7.8289899283371946
 30
0.0000000000000017
 11
49.5000000000000568
 21
-7.8289899283371946
 31
0.0000000000000017
210
0.0
220
1.0
230
-0.0000000000000002
  0
LINE
  5
1C10
  8
0
  6
CONTINUOUS
 62
     3
 10
-51.0000000000000497
 20
-9.3289899283371813
 30
0.0000000000000021
 11
51.0000000000000497
 21
-9.3289899283371813
 31
0.0000000000000021
210
0.0
220
1.0
230
-0.0000000000000002
  0
LINE
  5
1C11
  8
0
  6
CONTINUOUS
 62
     3
 10
-51.0
 20
-10.3289899283371707
 30
0.0000000000000023
 11
51.0
 21
-10.3289899283371707
 31
0.0000000000000023
210
0.0
220
1.0
230
-0.0000000000000002
  0
LINE
  5
1C12
  8
0
  6
CONTINUOUS
 62
     3
 10
-49.5000000000000568
 20
-11.8289899283371405
 30
0.0000000000000026
 11
49.5000000000000568
 21
-11.8289899283371405
 31
0.0000000000000026
210
0.0
220
1.0
230
-0.0000000000000002
  0
LINE
  5
1C13
  8
0
  6
CONTINUOUS
 62
     3
 10
-49.5000000000000568
 20
-13.73091371698386
 30
0.000000000000003
 11
49.5000000000000568
 21
-13.73091371698386
 31
0.000000000000003
210
0.0
220
1.0
230
-0.0000000000000002
  0
LINE
  5
1C14
  8
0
  6
CONTINUOUS
 62
     3
 10
-51.0
 20
-16.3289899283371689
 30
0.0000000000000036
 11
51.0
 21
-16.3289899283371689
 31
0.0000000000000036
210
0.0
220
1.0
230
-0.0000000000000002
  0
ARC
  5
1C15
  8
0
  6
CONTINUOUS
 62
     3
 10
42.0000000000000497
 20
-13.3289899283372009
 30
0.0
 40
4.9999999999999636
210
0.0
220
-0.0000000000000002
230
-1.0
 50
270.0
 51
323.1301023541568043
  0
ARC
  5
1C16
  8
0
  6
CONTINUOUS
 62
     3
 10
-42.0000000000000497
 20
-13.3289899283372009
 30
0.0
 40
4.9999999999999618
210
0.0
220
-0.0000000000000002
230
-1.0
 50
216.8698976458439063
 51
270.0000000000006821
  0
ARC
  5
1C17
  8
0
  6
CONTINUOUS
 62
     3
 10
47.6429713349967869
 20
5.6710100716628533
 30
0.0
 40
0.9999999999999559
210
0.0
220
-0.0000000000000002
230
-1.0
 50
29.7972977795313199
 51
90.0000000000004405
  0
ARC
  5
1C18
  8
0
  6
CONTINUOUS
 62
     3
 10
-47.6429713349967869
 20
5.6710100716628533
 30
0.0
 40
0.9999999999999609
210
0.0
220
-0.0000000000000002
230
-1.0
 50
89.9999999999995879
 51
150.2027022204686943
  0
LINE
  5
1C19
  8
0
  6
CONTINUOUS
 62
     3
 10
47.6429713349967798
 20
6.6710100716628151
 30
-0.0000000000000015
 11
-47.6429713349967727
 21
6.6710100716628151
 31
-0.0000000000000015
210
0.0
220
1.0
230
-0.0000000000000002
  0
LINE
  5
1C1A
  8
0
  6
CONTINUOUS
 62
     3
 10
48.5107602260067878
 20
6.1679431060243184
 30
-0.0000000000000014
 11
50.4711555640398402
 21
2.7445255050618762
 31
-0.0000000000000006
210
0.0
220
1.0
230
-0.0000000000000002
  0
LINE
  5
1C1B
  8
0
  6
CONTINUOUS
 62
     3
 10
-48.5107602260067878
 20
6.1679431060243184
 30
-0.0000000000000014
 11
-50.4711555640398402
 21
2.7445255050618762
 31
-0.0000000000000006
210
0.0
220
1.0
230
-0.0000000000000002
  0
ARC
  5
1C1C
  8
0
  6
CONTINUOUS
 62
     3
 10
47.0000000000000497
 20
0.756793367616035
 30
0.0
 40
3.9999999999999498
210
0.0
220
-0.0000000000000002
230
-1.0
 50
359.9999999999990905
 51
29.7972977795326202
  0
ARC
  5
1C1D
  8
0
  6
CONTINUOUS
 62
     3
 10
-47.0000000000000497
 20
0.7567933676160356
 30
0.0
 40
3.9999999999999432
210
0.0
220
-0.0000000000000002
230
-1.0
 50
150.2027022204673017
 51
180.0000000000009095
  0
LINE
  5
1C1E
  8
0
  6
CONTINUOUS
 62
     3
 10
51.0000000000000497
 20
0.7567933676159699
 30
-0.0000000000000002
 11
51.0000000000000497
 21
0.6710100716628348
 31
-0.0000000000000001
210
0.0
220
1.0
230
-0.0000000000000002
  0
LINE
  5
1C1F
  8
0
  6
CONTINUOUS
 62
     3
 10
-51.0000000000000497
 20
0.7567933676159699
 30
-0.0000000000000002
 11
-51.0000000000000497
 21
0.6710100716628348
 31
-0.0000000000000001
210
0.0
220
1.0
230
-0.0000000000000002
  0
ARC
  5
1C20
  8
0
  6
CONTINUOUS
 62
     3
 10
47.2140740033710813
 20
0.1710100716628044
 30
0.0
 40
0.5000000000000303
210
0.0
220
-0.0000000000000002
230
-1.0
 50
90.0
 51
199.9999999999949978
  0
ARC
  5
1C21
  8
0
  6
CONTINUOUS
 62
     3
 10
-47.2140740033710813
 20
0.1710100716628039
 30
0.0
 40
0.5000000000000283
210
0.0
220
-0.0000000000000002
230
-1.0
 50
340.0000000000048885
 51
90.0
  0
LINE
  5
1C22
  8
0
  6
CONTINUOUS
 62
     3
 10
46.7442276929780789
 20
0.0
 30
0.0
 11
49.5000000000000568
 21
-7.5714221867010787
 31
0.0000000000000017
210
0.0
220
1.0
230
-0.0000000000000002
  0
LINE
  5
1C23
  8
0
  6
CONTINUOUS
 62
     3
 10
-46.7442276929780789
 20
0.0
 30
0.0
 11
-49.5000000000000568
 21
-7.5714221867010787
 31
0.0000000000000017
210
0.0
220
1.0
230
-0.0000000000000002
  0
LINE
  5
1C24
  8
0
  6
CONTINUOUS
 62
     3
 10
49.5000000000000568
 20
-7.5714221867010787
 30
0.0000000000000017
 11
49.5000000000000568
 21
-7.8289899283371946
 31
0.0000000000000017
210
0.0
220
1.0
230
-0.0000000000000002
  0
LINE
  5
1C25
  8
0
  6
CONTINUOUS
 62
     3
 10
-49.5000000000000568
 20
-7.5714221867010787
 30
0.0000000000000017
 11
-49.5000000000000568
 21
-7.8289899283371946
 31
0.0000000000000017
210
0.0
220
1.0
230
-0.0000000000000002
  0
LINE
  5
1C26
  8
0
  6
CONTINUOUS
 62
     3
 10
49.5000000000000568
 20
-7.8289899283371946
 30
0.0000000000000017
 11
51.0000000000000497
 21
-9.3289899283371813
 31
0.0000000000000021
210
0.0
220
1.0
230
-0.0000000000000002
  0
LINE
  5
1C27
  8
0
  6
CONTINUOUS
 62
     3
 10
-49.5000000000000568
 20
-7.8289899283371946
 30
0.0000000000000017
 11
-51.0000000000000497
 21
-9.3289899283371813
 31
0.0000000000000021
210
0.0
220
1.0
230
-0.0000000000000002
  0
LINE
  5
1C28
  8
0
  6
CONTINUOUS
 62
     3
 10
51.0000000000000497
 20
-9.3289899283371813
 30
0.0000000000000021
 11
51.0000000000000497
 21
-10.3289899283371707
 31
0.0000000000000023
210
0.0
220
1.0
230
-0.0000000000000002
  0
LINE
  5
1C29
  8
0
  6
CONTINUOUS
 62
     3
 10
-51.0000000000000497
 20
-9.3289899283371813
 30
0.0000000000000021
 11
-51.0000000000000497
 21
-10.3289899283371707
 31
0.0000000000000023
210
0.0
220
1.0
230
-0.0000000000000002
  0
LINE
  5
1C2A
  8
0
  6
CONTINUOUS
 62
     3
 10
-49.5000000000000711
 20
-11.82898992833716
 30
0.0000000000000026
 11
-51.0000000000000071
 21
-10.3289899283371902
 31
0.0000000000000023
210
0.0
220
1.0
230
-0.0000000000000002
  0
LINE
  5
1C2B
  8
0
  6
CONTINUOUS
 62
     3
 10
49.5000000000000711
 20
-11.82898992833716
 30
0.0000000000000026
 11
51.0000000000000071
 21
-10.3289899283371902
 31
0.0000000000000023
210
0.0
220
1.0
230
-0.0000000000000002
  0
LINE
  5
1C2C
  8
0
  6
CONTINUOUS
 62
     3
 10
49.5000000000000568
 20
-11.8289899283371405
 30
0.0000000000000026
 11
49.5000000000000568
 21
-13.73091371698386
 31
0.000000000000003
210
0.0
220
1.0
230
-0.0000000000000002
  0
LINE
  5
1C2D
  8
0
  6
CONTINUOUS
 62
     3
 10
-49.5000000000000568
 20
-11.8289899283371405
 30
0.0000000000000026
 11
-49.5000000000000568
 21
-13.73091371698386
 31
0.000000000000003
210
0.0
220
1.0
230
-0.0000000000000002
  0
LINE
  5
1C2E
  8
0
  6
CONTINUOUS
 62
     3
 10
49.5000000000000782
 20
-13.7309137169838493
 30
0.000000000000003
 11
51.0000000000000213
 21
-16.3289899283371511
 31
0.0000000000000036
210
0.0
220
1.0
230
-0.0000000000000002
  0
LINE
  5
1C2F
  8
0
  6
CONTINUOUS
 62
     3
 10
-49.5000000000000782
 20
-13.7309137169838493
 30
0.000000000000003
 11
-51.0000000000000213
 21
-16.3289899283371511
 31
0.0000000000000036
210
0.0
220
1.0
230
-0.0000000000000002
  0
LINE
  5
1C30
  8
0
  6
VERDECKT
 62
     1
 10
-40.0
 20
-16.8289899283371689
 30
0.0000000000000037
 11
40.0
 21
-16.8289899283371689
 31
0.0000000000000037
210
0.0
220
1.0
230
-0.0000000000000002
  0
LINE
  5
1C31
  8
0
  6
VERDECKT
 62
     1
 10
-45.0
 20
-0.3289899283371654
 30
0.0000000000000001
 11
45.0
 21
-0.3289899283371654
 31
0.0000000000000001
210
0.0
220
1.0
230
-0.0000000000000002
  0
LINE
  5
1C32
  8
0
  6
VERDECKT
 62
     1
 10
-47.8452994616207405
 20
-14.3289899283371707
 30
0.0000000000000032
 11
47.8452994616207405
 21
-14.3289899283371707
 31
0.0000000000000032
210
0.0
220
1.0
230
-0.0000000000000002
  0
ARC
  5
1C33
  8
0
  6
VERDECKT
 62
     1
 10
41.9999999999999289
 20
-13.32898992833716
 30
0.0
 40
5.0000000000000897
210
0.0
220
-0.0000000000000002
230
-1.0
 50
323.1301023541565769
 51
348.4630409671843267
  0
ARC
  5
1C34
  8
0
  6
VERDECKT
 62
     1
 10
-41.9999999999999289
 20
-13.32898992833716
 30
0.0
 40
5.0000000000000826
210
0.0
220
-0.0000000000000002
230
-1.0
 50
191.5369590328155027
 51
216.8698976458433947
  0
LINE
  5
1C35
  8
0
  6
VERDECKT
 62
     1
 10
40.0000000000000568
 20
-16.8289899283371689
 30
0.0000000000000037
 11
40.0000000000000568
 21
-18.3289899283371689
 31
0.0000000000000041
210
0.0
220
1.0
230
-0.0000000000000002
  0
LINE
  5
1C36
  8
0
  6
VERDECKT
 62
     1
 10
-40.0000000000000568
 20
-16.8289899283371689
 30
0.0000000000000037
 11
-40.0000000000000568
 21
-18.3289899283371689
 31
0.0000000000000041
210
0.0
220
1.0
230
-0.0000000000000002
  0
ARC
  5
1C37
  8
0
  6
VERDECKT
 62
     1
 10
39.9999999999999432
 20
-11.8289899283371103
 30
0.0
 40
5.000000000000056
210
0.0
220
-0.0000000000000002
230
-1.0
 50
270.0
 51
359.9999999999985789
  0
ARC
  5
1C38
  8
0
  6
VERDECKT
 62
     1
 10
-39.9999999999999432
 20
-11.8289899283371103
 30
0.0
 40
5.000000000000056
210
0.0
220
-0.0000000000000002
230
-1.0
 50
180.0000000000005969
 51
269.9999999999993179
  0
LINE
  5
1C39
  8
0
  6
VERDECKT
 62
     1
 10
45.0
 20
-0.3289899283371654
 30
0.0000000000000001
 11
45.0
 21
-11.8289899283371707
 31
0.0000000000000026
210
0.0
220
1.0
230
-0.0000000000000002
  0
LINE
  5
1C3A
  8
0
  6
VERDECKT
 62
     1
 10
-45.0
 20
-0.3289899283371654
 30
0.0000000000000001
 11
-45.0
 21
-11.8289899283371707
 31
0.0000000000000026
210
0.0
220
1.0
230
-0.0000000000000002
  0
LINE
  5
1C3B
  8
0
  6
VERDECKT
 62
     1
 10
-44.9999999999999716
 20
-0.3289899283371578
 30
0.0000000000000001
 11
-46.677045508707721
 21
5.9298291167653554
 31
-0.0000000000000013
210
0.0
220
1.0
230
-0.0000000000000002
  0
LINE
  5
1C3C
  8
0
  6
VERDECKT
 62
     1
 10
44.9999999999999716
 20
-0.3289899283371578
 30
0.0000000000000001
 11
46.677045508707721
 21
5.9298291167653554
 31
-0.0000000000000013
210
0.0
220
1.0
230
-0.0000000000000002
  0
ARC
  5
1C3D
  8
0
  6
VERDECKT
 62
     1
 10
47.6429713349967869
 20
5.6710100716628427
 30
0.0
 40
0.9999999999999706
210
0.0
220
-0.0000000000000002
230
-1.0
 50
90.0000000000003979
 51
165.0000000000005116
  0
ARC
  5
1C3E
  8
0
  6
VERDECKT
 62
     1
 10
-47.6429713349967869
 20
5.6710100716628427
 30
0.0
 40
0.9999999999999731
210
0.0
220
-0.0000000000000002
230
-1.0
 50
14.99999999999946
 51
89.9999999999995879
  0
LINE
  5
1C3F
  8
0
  6
VERDECKT
 62
     1
 10
47.8452994616207476
 20
-14.3289899283371707
 30
0.0000000000000032
 11
48.9999999999999503
 21
-16.3289899283371689
 31
0.0000000000000036
210
0.0
220
1.0
230
-0.0000000000000002
  0
LINE
  5
1C40
  8
0
  6
VERDECKT
 62
     1
 10
-47.8452994616207476
 20
-14.3289899283371707
 30
0.0000000000000032
 11
-48.9999999999999503
 21
-16.3289899283371689
 31
0.0000000000000036
210
0.0
220
1.0
230
-0.0000000000000002
  0
ENDBLK
  5
1C42
  8
0
  0
ENDSEC
  0
SECTION
  2
ENTITIES
  0
INSERT
  5
155A
  8
ADSK_ASSOC_ENTITY_BACKUPS
  2
*S2
 10
0.0
 20
0.0
 30
0.0
  0
INSERT
  5
1C09
  8
DEFPOINTS
  2
A$C7C5C3043
 10
0.0
 20
0.0
 30
0.0
  0
INSERT
  5
1C43
  8
DEFPOINTS
  2
A$C0022561A
 10
0.0
 20
80.0
 30
0.0
  0
VIEWPORT
  5
BE9
 67
     1
  8
0
 10
7.2406453916549607
 20
3.885171069777015
 30
0.0
 40
20.2107955757225497
 41
11.0900262902682698
 68
     1
 69
     1
1001
ACAD
1000
MVIEW
1002
{
1070
    16
1010
0.0
1020
0.0
1030
0.0
1010
0.0
1020
0.0
1030
1.0
1040
0.0
1040
11.0900262902682698
1040
7.2406453916549607
1040
3.885171069777015
1040
50.0
1040
0.0
1040
0.0
1070
     0
1070
  1500
1070
     1
1070
     1
1070
     0
1070
     0
1070
     0
1070
     0
1040
0.0
1040
0.0
1040
0.0
1040
10.0
1040
10.0
1040
10.0
1040
10.0
1070
     0
1002
{
1002
}
1002
}
  0
ENDSEC
  0
EOF
