  0
SECTION
  2
HEADER
  9
$ACADVER
  1
AC1009
  9
$INSBASE
 10
0.0
 20
0.0
 30
0.0
  9
$EXTMIN
 10
83.2711262033501356
 20
-11.2500000000000409
 30
-11.5498750520616706
  9
$EXTMAX
 10
168.871126203350201
 20
131.25
 30
11.4084559306791693
  9
$LIMMIN
 10
0.0
 20
0.0
  9
$LIMMAX
 10
420.0000000000001137
 20
297.0
  9
$ORTHOMODE
 70
     1
  9
$REGENMODE
 70
     1
  9
$FILLMODE
 70
     1
  9
$QTEXTMODE
 70
     0
  9
$MIRRTEXT
 70
     1
  9
$DRAGMODE
 70
     2
  9
$LTSCALE
 40
10.0
  9
$OSMODE
 70
   183
  9
$ATTMODE
 70
     1
  9
$TEXTSIZE
 40
3.5
  9
$TRACEWID
 40
1.0
  9
$TEXTSTYLE
  7
STANDARD
  9
$CLAYER
  8
DEFPOINTS
  9
$CELTYPE
  6
BYLAYER
  9
$CECOLOR
 62
   256
  9
$DIMSCALE
 40
1.0
  9
$DIMASZ
 40
3.5
  9
$DIMEXO
 40
1.0
  9
$DIMDLI
 40
7.0
  9
$DIMRND
 40
0.0
  9
$DIMDLE
 40
0.0
  9
$DIMEXE
 40
1.0
  9
$DIMTP
 40
0.0
  9
$DIMTM
 40
0.0
  9
$DIMTXT
 40
3.5
  9
$DIMCEN
 40
1.5
  9
$DIMTSZ
 40
0.0
  9
$DIMTOL
 70
     0
  9
$DIMLIM
 70
     0
  9
$DIMTIH
 70
     0
  9
$DIMTOH
 70
     0
  9
$DIMSE1
 70
     0
  9
$DIMSE2
 70
     0
  9
$DIMTAD
 70
     1
  9
$DIMZIN
 70
     8
  9
$DIMBLK
  1

  9
$DIMASO
 70
     1
  9
$DIMSHO
 70
     0
  9
$DIMPOST
  1

  9
$DIMAPOST
  1

  9
$DIMALT
 70
     0
  9
$DIMALTD
 70
     2
  9
$DIMALTF
 40
25.3999999999999986
  9
$DIMLFAC
 40
1.0
  9
$DIMTOFL
 70
     1
  9
$DIMTVP
 40
0.5714285714285714
  9
$DIMTIX
 70
     0
  9
$DIMSOXD
 70
     0
  9
$DIMSAH
 70
     0
  9
$DIMBLK1
  1

  9
$DIMBLK2
  1

  9
$DIMSTYLE
  2
STANDARD
  9
$DIMCLRD
 70
     0
  9
$DIMCLRE
 70
     0
  9
$DIMCLRT
 70
     1
  9
$DIMTFAC
 40
1.0
  9
$DIMGAP
 40
1.5
  9
$LUNITS
 70
     2
  9
$LUPREC
 70
     2
  9
$SKETCHINC
 40
1.0
  9
$FILLETRAD
 40
0.0
  9
$AUNITS
 70
     0
  9
$AUPREC
 70
     0
  9
$MENU
  1
ACAD
  9
$ELEVATION
 40
0.0
  9
$PELEVATION
 40
0.0
  9
$THICKNESS
 40
0.0
  9
$LIMCHECK
 70
     0
  9
$BLIPMODE
 70
     0
  9
$CHAMFERA
 40
0.0
  9
$CHAMFERB
 40
0.0
  9
$SKPOLY
 70
     0
  9
$TDCREATE
 40
2451729.4487384259700775
  9
$TDUPDATE
 40
2458402.586099537089467
  9
$TDINDWG
 40
0.1199191088
  9
$TDUSRTIMER
 40
0.1199191088
  9
$USRTIMER
 70
     1
  9
$ANGBASE
 50
0.0
  9
$ANGDIR
 70
     0
  9
$PDMODE
 70
     0
  9
$PDSIZE
 40
0.0
  9
$PLINEWID
 40
0.0
  9
$COORDS
 70
     1
  9
$SPLFRAME
 70
     0
  9
$SPLINETYPE
 70
     6
  9
$SPLINESEGS
 70
     8
  9
$ATTDIA
 70
     1
  9
$ATTREQ
 70
     1
  9
$HANDLING
 70
     1
  9
$HANDSEED
  5
CDF
  9
$SURFTAB1
 70
     6
  9
$SURFTAB2
 70
     6
  9
$SURFTYPE
 70
     6
  9
$SURFU
 70
     6
  9
$SURFV
 70
     6
  9
$UCSNAME
  2

  9
$UCSORG
 10
0.0
 20
0.0
 30
0.0
  9
$UCSXDIR
 10
1.0
 20
0.0
 30
0.0
  9
$UCSYDIR
 10
0.0
 20
1.0
 30
0.0
  9
$PUCSNAME
  2

  9
$PUCSORG
 10
0.0
 20
0.0
 30
0.0
  9
$PUCSXDIR
 10
1.0
 20
0.0
 30
0.0
  9
$PUCSYDIR
 10
0.0
 20
1.0
 30
0.0
  9
$USERI1
 70
     0
  9
$USERI2
 70
     0
  9
$USERI3
 70
     0
  9
$USERI4
 70
     0
  9
$USERI5
 70
     0
  9
$USERR1
 40
0.0
  9
$USERR2
 40
0.0
  9
$USERR3
 40
0.0
  9
$USERR4
 40
0.0
  9
$USERR5
 40
0.0
  9
$WORLDVIEW
 70
     1
  9
$SHADEDGE
 70
     3
  9
$SHADEDIF
 70
    70
  9
$TILEMODE
 70
     1
  9
$MAXACTVP
 70
    16
  9
$PLIMCHECK
 70
     0
  9
$PEXTMIN
 10
-107.4598618729079931
 20
-40.7411860368948666
 30
-0.0000000000000156
  9
$PEXTMAX
 10
102.5657736750577982
 20
391.6798729581568068
 30
0.0000000000000149
  9
$PLIMMIN
 10
-0.2500002402958907
 20
-0.2499999962453767
  9
$PLIMMAX
 10
10.7499995194082203
 20
8.2499997634587334
  9
$UNITMODE
 70
     0
  9
$VISRETAIN
 70
     0
  9
$PLINEGEN
 70
     0
  9
$PSLTSCALE
 70
     0
  0
ENDSEC
  0
SECTION
  2
TABLES
  0
TABLE
  2
VPORT
 70
     1
  0
VPORT
  2
*ACTIVE
 70
     0
 10
0.0
 20
0.0
 11
1.0
 21
1.0
 12
0.0
 22
0.0
 13
0.0
 23
0.0
 14
2.5
 24
2.5
 15
10.0
 25
10.0
 16
-0.0000000000001137
 26
0.0
 36
508.0956279622005809
 17
172.6821426738088121
 27
78.7156281311281845
 37
0.0000000000000233
 40
207.8702297764029936
 41
1.7932242990654199
 42
50.0
 43
0.0
 44
0.0
 50
0.0
 51
0.0
 71
     0
 72
   500
 73
     1
 74
     0
 75
     0
 76
     0
 77
     0
 78
     0
  0
ENDTAB
  0
TABLE
  2
LTYPE
 70
     5
  0
LTYPE
  2
CONTINUOUS
 70
     0
  3
Solid line
 72
    65
 73
     0
 40
0.0
  0
LTYPE
  2
VERDECKT
 70
     0
  3
Verdeckt __ __ __ __ __ __ __ __ __ __ __ __ __
 72
    65
 73
     2
 40
0.375
 49
0.25
 49
-0.125
  0
ENDTAB
  0
TABLE
  2
LAYER
 70
    14
  0
LAYER
  2
0
 70
     0
 62
     7
  6
CONTINUOUS
  0
LAYER
  2
DEFPOINTS
 70
     0
 62
     7
  6
CONTINUOUS
  0
LAYER
  2
ADSK_ASSOC_ENTITY_BACKUPS
 70
     1
 62
    -7
  6
CONTINUOUS
  0
ENDTAB
  0
TABLE
  2
STYLE
 70
     4
  0
STYLE
  2
STANDARD
 70
     0
 40
0.0
 41
0.8
 50
0.0
 71
     0
 42
3.5
  3
simplex.shx
  4

  0
STYLE
  2
GREEKS
 70
     0
 40
0.0
 41
0.8
 50
0.0
 71
     0
 42
3.5
  3
SIMPLEX.shx
  4

  0
ENDTAB
  0
TABLE
  2
VIEW
 70
     1
  0
ENDTAB
  0
TABLE
  2
UCS
 70
     0
  0
ENDTAB
  0
TABLE
  2
APPID
 70
    17
  0
APPID
  2
ACAD
 70
     0
  0
APPID
  2
ACAECLAYERSTANDARD
 70
     0
  0
APPID
  2
ACCMTRANSPARENCY
 70
     0
  0
APPID
  2
ACAD_NAV_VCDISPLAY
 70
     0
  0
APPID
  2
ACAD_PSEXT
 70
     0
  0
APPID
  2
ACAD_EXEMPT_FROM_CAD_STANDARDS
 70
     0
  0
APPID
  2
ACSYNERGY
 70
     0
  0
APPID
  2
SYNERGY_BODY_TBR_ID
 70
     0
  0
APPID
  2
ACAD_VIEW_EDGE_ID
 70
     0
  0
APPID
  2
ACSYNERGYSKETCH
 70
     0
  0
APPID
  2
ACAD_MODELDOC_XFORM
 70
     0
  0
APPID
  2
ACAD_MLEADERVER
 70
     0
  0
APPID
  2
ACAD_DIMASSOC_CALC_DIMLFAC
 70
     0
  0
APPID
  2
ACAD_DIMASSOC_DIMLFAC
 70
     0
  0
APPID
  2
ACAD_DIMASSOC_OVERRIDDEN_D
 70
     0
  0
APPID
  2
ACAD_DSTYLE_DIMRADIAL_EXTENSION
 70
     0
  0
APPID
  2
ACADANNOMONITORALERTICONDI
 70
     0
  0
ENDTAB
  0
TABLE
  2
DIMSTYLE
 70
     2
  0
DIMSTYLE
  2
STANDARD
 70
     0
  3

  4

  5

  6

  7

 40
1.0
 41
0.18
 42
0.0625
 43
0.38
 44
0.18
 45
0.0
 46
0.0
 47
0.0
 48
0.0
140
0.18
141
0.09
142
0.0
143
25.3999999999999986
144
1.0
145
0.0
146
1.0
147
0.09
 71
     0
 72
     0
 73
     1
 74
     1
 75
     0
 76
     0
 77
     0
 78
     0
170
     0
171
     2
172
     0
173
     0
174
     0
175
     0
176
     0
177
     0
178
     0
  0
ENDTAB
  0
ENDSEC
  0
SECTION
  2
BLOCKS
  0
BLOCK
  8
0
  2
$MODEL_SPACE
 70
     0
 10
0.0
 20
0.0
 30
0.0
  3
$MODEL_SPACE
  1

  0
ENDBLK
  5
41
  8
0
  0
BLOCK
 67
     1
  8
0
  2
$PAPER_SPACE
 70
     0
 10
0.0
 20
0.0
 30
0.0
  3
$PAPER_SPACE
  1

  0
ENDBLK
  5
3F
 67
     1
  8
0
  0
BLOCK
  8
0
  2
*S2
 70
     1
 10
0.0
 20
0.0
 30
0.0
  3
*S2
  1

  0
ENDBLK
  5
3F0
  8
0
  0
BLOCK
  8
0
  2
A$C48AA6F54
 70
     0
 10
0.0
 20
0.0
 30
0.0
  3
A$C48AA6F54
  1

  0
CIRCLE
  5
C43
  8
0
  6
CONTINUOUS
 62
     3
 10
126.0711262033501043
 20
43.6850660187946929
 30
0.0000000000000293
 40
37.0
  0
CIRCLE
  5
C44
  8
0
  6
CONTINUOUS
 62
     3
 10
126.0711262033501043
 20
43.6850660187946929
 30
0.0000000000000293
 40
42.3000000000000114
  0
CIRCLE
  5
C45
  8
0
  6
CONTINUOUS
 62
     3
 10
126.0711262033501043
 20
43.6850660187946929
 30
0.0000000000000284
 40
42.8000000000000114
  0
CIRCLE
  5
C46
  8
0
  6
CONTINUOUS
 62
     3
 10
126.0711262033501043
 20
43.6850660187946929
 30
0.0000000000000284
 40
32.0
  0
CIRCLE
  5
C47
  8
0
  6
VERDECKT
 62
     1
 10
126.0711262033501043
 20
43.6850660187946929
 30
0.0000000000000292
 40
40.4999999999999929
  0
CIRCLE
  5
C48
  8
0
  6
VERDECKT
 62
     1
 10
126.0711262033501043
 20
43.6850660187946929
 30
0.0000000000000291
 40
41.900000000000027
  0
CIRCLE
  5
C49
  8
0
  6
VERDECKT
 62
     1
 10
126.0711262033501043
 20
43.6850660187946929
 30
0.0000000000000284
 40
41.0
  0
CIRCLE
  5
C4A
  8
0
  6
VERDECKT
 62
     1
 10
126.0711262033501043
 20
43.6850660187946929
 30
0.0000000000000293
 40
38.7140740033711026
  0
ENDBLK
  5
C4C
  8
0
  0
BLOCK
  8
0
  2
A$C5FCB7C1D
 70
     0
 10
0.0
 20
0.0
 30
0.0
  3
A$C5FCB7C1D
  1

  0
LINE
  5
C50
  8
0
  6
CONTINUOUS
 62
     3
 10
83.7711262033501214
 20
6.2499999999999867
 30
-0.0000000000000014
 11
168.3711262033500873
 21
6.2499999999999867
 31
-0.0000000000000014
210
0.0
220
1.0
230
-0.0000000000000002
  0
LINE
  5
C51
  8
0
  6
CONTINUOUS
 62
     3
 10
85.5711262033501328
 20
0.75504516109082
 30
-0.0000000000000002
 11
166.5711262033501043
 21
0.75504516109082
 31
-0.0000000000000002
210
0.0
220
1.0
230
-0.0000000000000002
  0
LINE
  5
C52
  8
0
  6
CONTINUOUS
 62
     3
 10
85.5711262033501328
 20
-0.3499999999999801
 30
0.0000000000000001
 11
166.5711262033501043
 21
-0.3499999999999801
 31
0.0000000000000001
210
0.0
220
1.0
230
-0.0000000000000002
  0
LINE
  5
C53
  8
0
  6
CONTINUOUS
 62
     3
 10
84.1711262033500844
 20
-1.750000000000014
 30
0.0000000000000004
 11
167.97112620335011
 21
-1.750000000000014
 31
0.0000000000000004
210
0.0
220
1.0
230
-0.0000000000000002
  0
LINE
  5
C54
  8
0
  6
CONTINUOUS
 62
     3
 10
84.1711262033500844
 20
-2.7500000000000142
 30
0.0000000000000006
 11
167.97112620335011
 21
-2.7500000000000142
 31
0.0000000000000006
210
0.0
220
1.0
230
-0.0000000000000002
  0
LINE
  5
C55
  8
0
  6
CONTINUOUS
 62
     3
 10
85.5711262033500759
 20
-4.1499999999999924
 30
0.0000000000000009
 11
166.5711262033501896
 21
-4.1499999999999924
 31
0.0000000000000009
210
0.0
220
1.0
230
-0.0000000000000002
  0
LINE
  5
C56
  8
0
  6
CONTINUOUS
 62
     3
 10
85.5711262033500759
 20
-4.7500000000000151
 30
0.0000000000000011
 11
166.5711262033501896
 21
-4.7500000000000151
 31
0.0000000000000011
210
0.0
220
1.0
230
-0.0000000000000002
  0
LINE
  5
C57
  8
0
  6
CONTINUOUS
 62
     3
 10
83.2711262033501356
 20
-8.7500000000000142
 30
0.0000000000000019
 11
168.8711262033500873
 21
-8.7500000000000142
 31
0.0000000000000019
210
0.0
220
1.0
230
-0.0000000000000002
  0
LINE
  5
C58
  8
0
  6
CONTINUOUS
 62
     3
 10
91.5711262033501328
 20
-11.2500000000000107
 30
0.0000000000000025
 11
160.5711262033501043
 21
-11.2500000000000107
 31
0.0000000000000025
210
0.0
220
1.0
230
-0.0000000000000002
  0
ARC
  5
C59
  8
0
  6
CONTINUOUS
 62
     3
 10
-87.1740646879220833
 20
10.2500000000000107
 30
0.0
 40
0.9999999999999998
210
0.0
220
-0.0000000000000002
230
-1.0
 50
29.4119136655292017
 51
90.0000000000000284
  0
ARC
  5
C5A
  8
0
  6
CONTINUOUS
 62
     3
 10
-164.9681877187782106
 20
10.2500000000000195
 30
0.0
 40
0.9999999999999893
210
0.0
220
-0.0000000000000002
230
-1.0
 50
90.0
 51
150.5880863344711997
  0
LINE
  5
C5B
  8
0
  6
CONTINUOUS
 62
     3
 10
164.9681877187782106
 20
11.25
 30
-0.0000000000000025
 11
87.1740646879220833
 21
11.2500000000000107
 31
-0.0000000000000025
210
0.0
220
1.0
230
-0.0000000000000002
  0
LINE
  5
C5C
  8
0
  6
CONTINUOUS
 62
     3
 10
165.8392994361273907
 20
10.74108489683233
 30
-0.0000000000000024
 11
168.3711262033500873
 21
6.2499999999999911
 31
-0.0000000000000014
210
0.0
220
1.0
230
-0.0000000000000002
  0
LINE
  5
C5D
  8
0
  6
CONTINUOUS
 62
     3
 10
86.302952970572818
 20
10.74108489683233
 30
-0.0000000000000024
 11
83.7711262033501214
 21
6.2499999999999911
 31
-0.0000000000000014
210
0.0
220
1.0
230
-0.0000000000000002
  0
ARC
  5
C5E
  8
0
  6
CONTINUOUS
 62
     3
 10
-86.8570521999790373
 20
5.7500000000000426
 30
0.0
 40
0.5
210
0.0
220
-0.0000000000000002
230
-1.0
 50
90.0000000000016058
 51
199.9999999999990905
  0
ARC
  5
C5F
  8
0
  6
CONTINUOUS
 62
     3
 10
-165.285200206721214
 20
5.7500000000000426
 30
0.0
 40
0.5000000000000047
210
0.0
220
-0.0000000000000002
230
-1.0
 50
340.0000000000027853
 51
89.9999999999967457
  0
LINE
  5
C60
  8
0
  6
CONTINUOUS
 62
     3
 10
164.815353896328304
 20
5.5789899283372213
 30
-0.0000000000000012
 11
166.5711262033501043
 21
0.7550451610908218
 31
-0.0000000000000002
210
0.0
220
1.0
230
-0.0000000000000002
  0
LINE
  5
C61
  8
0
  6
CONTINUOUS
 62
     3
 10
87.3268985103720041
 20
5.5789899283372169
 30
-0.0000000000000012
 11
85.5711262033501328
 21
0.7550451610908218
 31
-0.0000000000000002
210
0.0
220
1.0
230
-0.0000000000000002
  0
LINE
  5
C62
  8
0
  6
CONTINUOUS
 62
     3
 10
166.5711262033501043
 20
0.75504516109082
 30
-0.0000000000000002
 11
166.5711262033501043
 21
-0.3499999999999801
 31
0.0000000000000001
210
0.0
220
1.0
230
-0.0000000000000002
  0
LINE
  5
C63
  8
0
  6
CONTINUOUS
 62
     3
 10
85.5711262033501328
 20
0.75504516109082
 30
-0.0000000000000002
 11
85.5711262033501328
 21
-0.3499999999999801
 31
0.0000000000000001
210
0.0
220
1.0
230
-0.0000000000000002
  0
LINE
  5
C64
  8
0
  6
CONTINUOUS
 62
     3
 10
166.5711262033501043
 20
-0.3499999999999803
 30
0.0000000000000001
 11
167.97112620335011
 21
-1.750000000000014
 31
0.0000000000000004
210
0.0
220
1.0
230
-0.0000000000000002
  0
LINE
  5
C65
  8
0
  6
CONTINUOUS
 62
     3
 10
85.5711262033501328
 20
-0.3499999999999803
 30
0.0000000000000001
 11
84.1711262033500844
 21
-1.750000000000014
 31
0.0000000000000004
210
0.0
220
1.0
230
-0.0000000000000002
  0
LINE
  5
C66
  8
0
  6
CONTINUOUS
 62
     3
 10
167.97112620335011
 20
-1.750000000000014
 30
0.0000000000000004
 11
167.97112620335011
 21
-2.7500000000000142
 31
0.0000000000000006
210
0.0
220
1.0
230
-0.0000000000000002
  0
LINE
  5
C67
  8
0
  6
CONTINUOUS
 62
     3
 10
84.1711262033500844
 20
-1.750000000000014
 30
0.0000000000000004
 11
84.1711262033500844
 21
-2.7500000000000142
 31
0.0000000000000006
210
0.0
220
1.0
230
-0.0000000000000002
  0
LINE
  5
C68
  8
0
  6
CONTINUOUS
 62
     3
 10
85.5711262033500759
 20
-4.1499999999999924
 30
0.0000000000000009
 11
84.1711262033500844
 21
-2.7500000000000142
 31
0.0000000000000006
210
0.0
220
1.0
230
-0.0000000000000002
  0
LINE
  5
C69
  8
0
  6
CONTINUOUS
 62
     3
 10
166.5711262033501896
 20
-4.1499999999999924
 30
0.0000000000000009
 11
167.97112620335011
 21
-2.7500000000000142
 31
0.0000000000000006
210
0.0
220
1.0
230
-0.0000000000000002
  0
LINE
  5
C6A
  8
0
  6
CONTINUOUS
 62
     3
 10
166.5711262033501896
 20
-4.1499999999999924
 30
0.0000000000000009
 11
166.5711262033501896
 21
-4.7500000000000151
 31
0.0000000000000011
210
0.0
220
1.0
230
-0.0000000000000002
  0
LINE
  5
C6B
  8
0
  6
CONTINUOUS
 62
     3
 10
85.5711262033500759
 20
-4.1499999999999924
 30
0.0000000000000009
 11
85.5711262033500759
 21
-4.7500000000000151
 31
0.0000000000000011
210
0.0
220
1.0
230
-0.0000000000000002
  0
LINE
  5
C6C
  8
0
  6
CONTINUOUS
 62
     3
 10
166.5711262033501896
 20
-4.7500000000000151
 30
0.0000000000000011
 11
168.8711262033500873
 21
-8.7500000000000142
 31
0.0000000000000019
210
0.0
220
1.0
230
-0.0000000000000002
  0
LINE
  5
C6D
  8
0
  6
CONTINUOUS
 62
     3
 10
85.5711262033500759
 20
-4.7500000000000151
 30
0.0000000000000011
 11
83.2711262033501356
 21
-8.7500000000000142
 31
0.0000000000000019
210
0.0
220
1.0
230
-0.0000000000000002
  0
ARC
  5
C6E
  8
0
  6
CONTINUOUS
 62
     3
 10
-91.5711262033501328
 20
-7.2500000000000302
 30
0.0
 40
3.9999999999999818
210
0.0
220
-0.0000000000000002
230
-1.0
 50
270.0
 51
337.9756871629579109
  0
ARC
  5
C6F
  8
0
  6
CONTINUOUS
 62
     3
 10
-160.5711262033501043
 20
-7.2500000000000169
 30
0.0
 40
4.0000000000000133
210
0.0
220
-0.0000000000000002
230
-1.0
 50
202.0243128370420038
 51
270.0
  0
LINE
  5
C70
  8
0
  6
VERDECKT
 62
     1
 10
89.0711262033501328
 20
5.2499999999999858
 30
-0.0000000000000012
 11
163.0711262033501043
 21
5.2499999999999858
 31
-0.0000000000000012
210
0.0
220
1.0
230
-0.0000000000000002
  0
LINE
  5
C71
  8
0
  6
VERDECKT
 62
     1
 10
94.0711262033501328
 20
-9.7500000000000142
 30
0.0000000000000022
 11
158.0711262033501043
 21
-9.7500000000000142
 31
0.0000000000000022
210
0.0
220
1.0
230
-0.0000000000000002
  0
LINE
  5
C72
  8
0
  6
VERDECKT
 62
     1
 10
163.0711262033501043
 20
5.2499999999999858
 30
-0.0000000000000012
 11
163.0711262033501043
 21
-4.7500000000000151
 31
0.0000000000000011
210
0.0
220
1.0
230
-0.0000000000000002
  0
LINE
  5
C73
  8
0
  6
VERDECKT
 62
     1
 10
89.0711262033501328
 20
5.2499999999999858
 30
-0.0000000000000012
 11
89.0711262033501328
 21
-4.7500000000000151
 31
0.0000000000000011
210
0.0
220
1.0
230
-0.0000000000000002
  0
LINE
  5
C74
  8
0
  6
VERDECKT
 62
     1
 10
89.0711262033501328
 20
5.2499999999999858
 30
-0.0000000000000012
 11
88.1588724409342888
 21
10.4236481776669496
 31
-0.0000000000000023
210
0.0
220
1.0
230
-0.0000000000000002
  0
LINE
  5
C75
  8
0
  6
VERDECKT
 62
     1
 10
163.0711262033501043
 20
5.2499999999999858
 30
-0.0000000000000012
 11
163.9833799657658915
 21
10.4236481776669496
 31
-0.0000000000000023
210
0.0
220
1.0
230
-0.0000000000000002
  0
ARC
  5
C76
  8
0
  6
VERDECKT
 62
     1
 10
-87.1740646879220833
 20
10.2500000000000107
 30
0.0
 40
1.0
210
0.0
220
-0.0000000000000002
230
-1.0
 50
90.0
 51
169.9999999999994031
  0
ARC
  5
C77
  8
0
  6
VERDECKT
 62
     1
 10
-164.9681877187782106
 20
10.2500000000000107
 30
0.0
 40
0.9999999999999992
210
0.0
220
-0.0000000000000002
230
-1.0
 50
10.0000000000006093
 51
90.0
  0
LINE
  5
C78
  8
0
  6
VERDECKT
 62
     1
 10
166.2467920075191898
 20
-7.2225600474012177
 30
0.0000000000000016
 11
167.0711262033501043
 21
-8.7500000000000142
 31
0.0000000000000019
210
0.0
220
1.0
230
-0.0000000000000002
  0
LINE
  5
C79
  8
0
  6
VERDECKT
 62
     1
 10
85.8954603991810757
 20
-7.2225600474012177
 30
0.0000000000000016
 11
85.0711262033501185
 21
-8.7500000000000142
 31
0.0000000000000019
210
0.0
220
1.0
230
-0.0000000000000002
  0
ARC
  5
C7A
  8
0
  6
VERDECKT
 62
     1
 10
-86.687480024520184
 20
-7.6499999999999808
 30
0.0
 40
0.8999999999999762
210
0.0
220
-0.0000000000000002
230
-1.0
 50
28.3550060284095693
 51
90.0000000000008953
  0
ARC
  5
C7B
  8
0
  6
VERDECKT
 62
     1
 10
-86.6874800245202124
 20
-7.6500000000000057
 30
0.0
 40
0.8999999999999994
210
0.0
220
-0.0000000000000002
230
-1.0
 50
90.0
 51
175.3175831377321003
  0
ARC
  5
C7C
  8
0
  6
VERDECKT
 62
     1
 10
-165.4547723821800105
 20
-7.6500000000000163
 30
0.0
 40
0.9000000000000024
210
0.0
220
-0.0000000000000002
230
-1.0
 50
4.6824168622683233
 51
90.0
  0
ARC
  5
C7D
  8
0
  6
VERDECKT
 62
     1
 10
-165.4547723821800957
 20
-7.6499999999999266
 30
0.0
 40
0.8999999999999204
210
0.0
220
-0.0000000000000002
230
-1.0
 50
89.9999999999981952
 51
151.6449939715919868
  0
LINE
  5
C7E
  8
0
  6
VERDECKT
 62
     1
 10
165.4547723821800105
 20
-6.7500000000000071
 30
0.0000000000000015
 11
86.6874800245202124
 21
-6.7500000000000071
 31
0.0000000000000015
210
0.0
220
1.0
230
-0.0000000000000002
  0
ARC
  5
C7F
  8
0
  6
VERDECKT
 62
     1
 10
-91.5711262033495643
 20
-7.2500000000001492
 30
0.0
 40
3.9999999999994151
210
0.0
220
-0.0000000000000002
230
-1.0
 50
337.9756871629563761
 51
355.3175831377312761
  0
ARC
  5
C80
  8
0
  6
VERDECKT
 62
     1
 10
-160.5711262033507012
 20
-7.250000000000246
 30
0.0
 40
3.999999999999349
210
0.0
220
-0.0000000000000002
230
-1.0
 50
184.6824168622673028
 51
202.0243128370422028
  0
LINE
  5
C81
  8
0
  6
VERDECKT
 62
     1
 10
158.0711262033501043
 20
-9.7500000000000142
 30
0.0000000000000022
 11
158.0711262033501043
 21
-11.2500000000000107
 31
0.0000000000000025
210
0.0
220
1.0
230
-0.0000000000000002
  0
LINE
  5
C82
  8
0
  6
VERDECKT
 62
     1
 10
94.0711262033501328
 20
-9.7500000000000142
 30
0.0000000000000022
 11
94.0711262033501328
 21
-11.2500000000000107
 31
0.0000000000000025
210
0.0
220
1.0
230
-0.0000000000000002
  0
ARC
  5
C83
  8
0
  6
VERDECKT
 62
     1
 10
-94.0711262033501328
 20
-4.7500000000000151
 30
0.0
 40
5.0
210
0.0
220
-0.0000000000000002
230
-1.0
 50
270.0
 51
0.0
  0
ARC
  5
C84
  8
0
  6
VERDECKT
 62
     1
 10
-158.0711262033501043
 20
-4.7500000000000151
 30
0.0
 40
5.0
210
0.0
220
-0.0000000000000002
230
-1.0
 50
180.0
 51
270.0
  0
ENDBLK
  5
C86
  8
0
  0
ENDSEC
  0
SECTION
  2
ENTITIES
  0
INSERT
  5
3F2
  8
ADSK_ASSOC_ENTITY_BACKUPS
  2
*S2
 10
0.0
 20
0.0
 30
0.0
  0
INSERT
  5
C4D
  8
DEFPOINTS
  2
A$C48AA6F54
 10
0.0
 20
0.0
 30
0.0
  0
INSERT
  5
C87
  8
DEFPOINTS
  2
A$C5FCB7C1D
 10
0.0
 20
120.0
 30
0.0
  0
VIEWPORT
  5
3CE
 67
     1
  8
0
 10
-383.1878311697309982
 20
88.388714140642378
 30
0.0
 40
2132.4439818714909052
 41
1189.1674582944599479
 68
     1
 69
     1
1001
ACAD
1000
MVIEW
1002
{
1070
    16
1010
0.0
1020
0.0
1030
0.0
1010
0.0
1020
0.0
1030
1.0
1040
0.0
1040
1189.1674582944599479
1040
-383.1878311697309982
1040
88.388714140642378
1040
50.0
1040
0.0
1040
0.0
1070
     0
1070
   500
1070
     1
1070
     1
1070
     0
1070
     0
1070
     0
1070
     0
1040
0.0
1040
0.0
1040
0.0
1040
10.0
1040
10.0
1040
10.0
1040
10.0
1070
     0
1002
{
1002
}
1002
}
  0
ENDSEC
  0
EOF
