  0
SECTION
  2
HEADER
  9
$ACADVER
  1
AC1009
  9
$INSBASE
 10
0.0
 20
0.0
 30
0.0
  9
$EXTMIN
 10
88.6442736490191265
 20
-109.0288072838289963
 30
-9.4800000000001639
  9
$EXTMAX
 10
152.6442736490189986
 20
74.971192716170961
 30
9.0000000000000071
  9
$LIMMIN
 10
0.0
 20
0.0
  9
$LIMMAX
 10
419.9999999999998863
 20
297.0000000000001137
  9
$ORTHOMODE
 70
     1
  9
$REGENMODE
 70
     1
  9
$FILLMODE
 70
     1
  9
$QTEXTMODE
 70
     0
  9
$MIRRTEXT
 70
     1
  9
$DRAGMODE
 70
     2
  9
$LTSCALE
 40
10.0
  9
$OSMODE
 70
   183
  9
$ATTMODE
 70
     1
  9
$TEXTSIZE
 40
3.5
  9
$TRACEWID
 40
0.5
  9
$TEXTSTYLE
  7
STANDARD
  9
$CLAYER
  8
DEFPOINTS
  9
$CELTYPE
  6
BYLAYER
  9
$CECOLOR
 62
   256
  9
$DIMSCALE
 40
1.0
  9
$DIMASZ
 40
3.5
  9
$DIMEXO
 40
1.0
  9
$DIMDLI
 40
7.0
  9
$DIMRND
 40
0.0
  9
$DIMDLE
 40
0.0
  9
$DIMEXE
 40
1.0
  9
$DIMTP
 40
0.0
  9
$DIMTM
 40
0.0
  9
$DIMTXT
 40
3.5
  9
$DIMCEN
 40
1.5
  9
$DIMTSZ
 40
0.0
  9
$DIMTOL
 70
     0
  9
$DIMLIM
 70
     0
  9
$DIMTIH
 70
     0
  9
$DIMTOH
 70
     0
  9
$DIMSE1
 70
     0
  9
$DIMSE2
 70
     0
  9
$DIMTAD
 70
     1
  9
$DIMZIN
 70
     8
  9
$DIMBLK
  1

  9
$DIMASO
 70
     1
  9
$DIMSHO
 70
     0
  9
$DIMPOST
  1

  9
$DIMAPOST
  1

  9
$DIMALT
 70
     0
  9
$DIMALTD
 70
     2
  9
$DIMALTF
 40
25.3999999999999986
  9
$DIMLFAC
 40
1.0
  9
$DIMTOFL
 70
     1
  9
$DIMTVP
 40
0.0
  9
$DIMTIX
 70
     0
  9
$DIMSOXD
 70
     0
  9
$DIMSAH
 70
     0
  9
$DIMBLK1
  1

  9
$DIMBLK2
  1

  9
$DIMSTYLE
  2
STANDARD
  9
$DIMCLRD
 70
     0
  9
$DIMCLRE
 70
     0
  9
$DIMCLRT
 70
     1
  9
$DIMTFAC
 40
1.0
  9
$DIMGAP
 40
1.5
  9
$LUNITS
 70
     2
  9
$LUPREC
 70
     2
  9
$SKETCHINC
 40
1.0
  9
$FILLETRAD
 40
0.0
  9
$AUNITS
 70
     0
  9
$AUPREC
 70
     2
  9
$MENU
  1
ACAD
  9
$ELEVATION
 40
0.0
  9
$PELEVATION
 40
0.0
  9
$THICKNESS
 40
0.0
  9
$LIMCHECK
 70
     0
  9
$BLIPMODE
 70
     0
  9
$CHAMFERA
 40
0.0
  9
$CHAMFERB
 40
0.0
  9
$SKPOLY
 70
     0
  9
$TDCREATE
 40
2451729.434884259942919
  9
$TDUPDATE
 40
2458402.5831944448873401
  9
$TDINDWG
 40
0.3086559144
  9
$TDUSRTIMER
 40
0.3086559144
  9
$USRTIMER
 70
     1
  9
$ANGBASE
 50
0.0
  9
$ANGDIR
 70
     0
  9
$PDMODE
 70
     0
  9
$PDSIZE
 40
0.0
  9
$PLINEWID
 40
0.0
  9
$COORDS
 70
     1
  9
$SPLFRAME
 70
     0
  9
$SPLINETYPE
 70
     6
  9
$SPLINESEGS
 70
     8
  9
$ATTDIA
 70
     1
  9
$ATTREQ
 70
     1
  9
$HANDLING
 70
     1
  9
$HANDSEED
  5
F37
  9
$SURFTAB1
 70
     6
  9
$SURFTAB2
 70
     6
  9
$SURFTYPE
 70
     6
  9
$SURFU
 70
     6
  9
$SURFV
 70
     6
  9
$UCSNAME
  2

  9
$UCSORG
 10
0.0
 20
0.0
 30
0.0
  9
$UCSXDIR
 10
1.0
 20
0.0
 30
0.0
  9
$UCSYDIR
 10
0.0
 20
1.0
 30
0.0
  9
$PUCSNAME
  2

  9
$PUCSORG
 10
0.0
 20
0.0
 30
0.0
  9
$PUCSXDIR
 10
1.0
 20
0.0
 30
0.0
  9
$PUCSYDIR
 10
0.0
 20
1.0
 30
0.0
  9
$USERI1
 70
     0
  9
$USERI2
 70
     0
  9
$USERI3
 70
     0
  9
$USERI4
 70
     0
  9
$USERI5
 70
     0
  9
$USERR1
 40
0.0
  9
$USERR2
 40
0.0
  9
$USERR3
 40
0.0
  9
$USERR4
 40
0.0
  9
$USERR5
 40
0.0
  9
$WORLDVIEW
 70
     1
  9
$SHADEDGE
 70
     3
  9
$SHADEDIF
 70
    70
  9
$TILEMODE
 70
     1
  9
$MAXACTVP
 70
    16
  9
$PLIMCHECK
 70
     0
  9
$PEXTMIN
 10
-108.8775702142965969
 20
-28.3039472401884495
 30
-0.0000000000000155
  9
$PEXTMAX
 10
101.1480653336691944
 20
351.4086140529573186
 30
0.000000000000015
  9
$PLIMMIN
 10
-0.2500002402958907
 20
-0.2499999962453767
  9
$PLIMMAX
 10
10.7499995194082203
 20
8.2499997634587334
  9
$UNITMODE
 70
     0
  9
$VISRETAIN
 70
     0
  9
$PLINEGEN
 70
     0
  9
$PSLTSCALE
 70
     0
  0
ENDSEC
  0
SECTION
  2
TABLES
  0
TABLE
  2
VPORT
 70
     1
  0
VPORT
  2
*ACTIVE
 70
     0
 10
0.0
 20
0.0
 11
1.0
 21
1.0
 12
0.0
 22
0.0
 13
0.0
 23
0.0
 14
1.0
 24
1.0
 15
10.0
 25
10.0
 16
-0.0000000000000853
 26
0.0
 36
323.7159180780714109
 17
158.3164103704478123
 27
-47.2943241972559605
 37
-0.0000000000000075
 40
132.4374754867482977
 41
1.7932242990654199
 42
50.0
 43
0.0
 44
0.0
 50
0.0
 51
0.0
 71
     0
 72
  1500
 73
     1
 74
     0
 75
     0
 76
     0
 77
     0
 78
     0
  0
ENDTAB
  0
TABLE
  2
LTYPE
 70
     5
  0
LTYPE
  2
CONTINUOUS
 70
     0
  3
Solid line
 72
    65
 73
     0
 40
0.0
  0
LTYPE
  2
VERDECKT
 70
     0
  3
Verdeckt __ __ __ __ __ __ __ __ __ __ __ __ __
 72
    65
 73
     2
 40
0.375
 49
0.25
 49
-0.125
  0
ENDTAB
  0
TABLE
  2
LAYER
 70
    14
  0
LAYER
  2
0
 70
     0
 62
     7
  6
CONTINUOUS
  0
LAYER
  2
DEFPOINTS
 70
     0
 62
     7
  6
CONTINUOUS
  0
LAYER
  2
ADSK_ASSOC_ENTITY_BACKUPS
 70
     1
 62
    -7
  6
CONTINUOUS
  0
ENDTAB
  0
TABLE
  2
STYLE
 70
     5
  0
STYLE
  2
STANDARD
 70
     0
 40
0.0
 41
0.8
 50
0.0
 71
     0
 42
3.5
  3
simplex.shx
  4

  0
ENDTAB
  0
TABLE
  2
VIEW
 70
     1
  0
ENDTAB
  0
TABLE
  2
UCS
 70
     0
  0
ENDTAB
  0
TABLE
  2
APPID
 70
    19
  0
APPID
  2
ACAD
 70
     0
  0
APPID
  2
ACAECLAYERSTANDARD
 70
     0
  0
APPID
  2
ACCMTRANSPARENCY
 70
     0
  0
APPID
  2
ACAD_NAV_VCDISPLAY
 70
     0
  0
APPID
  2
ACAD_PSEXT
 70
     0
  0
APPID
  2
ACAD_EXEMPT_FROM_CAD_STANDARDS
 70
     0
  0
APPID
  2
ACSYNERGY
 70
     0
  0
APPID
  2
SYNERGY_BODY_TBR_ID
 70
     0
  0
APPID
  2
ACAD_VIEW_EDGE_ID
 70
     0
  0
APPID
  2
ACSYNERGYSKETCH
 70
     0
  0
APPID
  2
ACAD_MODELDOC_XFORM
 70
     0
  0
APPID
  2
ACAD_MLEADERVER
 70
     0
  0
APPID
  2
ACAD_DSTYLE_DIMJAG
 70
     0
  0
APPID
  2
ACAD_DSTYLE_DIMTALN
 70
     0
  0
APPID
  2
ACAD_DIMASSOC_CALC_DIMLFAC
 70
     0
  0
APPID
  2
ACAD_DIMASSOC_DIMLFAC
 70
     0
  0
APPID
  2
ACAD_DIMASSOC_OVERRIDDEN_D
 70
     0
  0
APPID
  2
ACAD_DSTYLE_DIMRADIAL_EXTENSION
 70
     0
  0
APPID
  2
ACADANNOMONITORALERTICONDI
 70
     0
  0
ENDTAB
  0
TABLE
  2
DIMSTYLE
 70
     3
  0
DIMSTYLE
  2
STANDARD
 70
     0
  3

  4

  5

  6

  7

 40
1.0
 41
0.18
 42
0.0625
 43
0.38
 44
0.18
 45
0.0
 46
0.0
 47
0.0
 48
0.0
140
0.18
141
0.09
142
0.0
143
25.3999999999999986
144
1.0
145
0.0
146
1.0
147
0.09
 71
     0
 72
     0
 73
     1
 74
     1
 75
     0
 76
     0
 77
     0
 78
     0
170
     0
171
     2
172
     0
173
     0
174
     0
175
     0
176
     0
177
     0
178
     0
  0
ENDTAB
  0
ENDSEC
  0
SECTION
  2
BLOCKS
  0
BLOCK
  8
0
  2
$MODEL_SPACE
 70
     0
 10
0.0
 20
0.0
 30
0.0
  3
$MODEL_SPACE
  1

  0
ENDBLK
  5
43
  8
0
  0
BLOCK
 67
     1
  8
0
  2
$PAPER_SPACE
 70
     0
 10
0.0
 20
0.0
 30
0.0
  3
$PAPER_SPACE
  1

  0
ENDBLK
  5
41
 67
     1
  8
0
  0
BLOCK
  8
0
  2
*S2
 70
     1
 10
0.0
 20
0.0
 30
0.0
  3
*S2
  1

  0
ENDBLK
  5
579
  8
0
  0
BLOCK
  8
0
  2
A$C772E264E
 70
     0
 10
0.0
 20
0.0
 30
0.0
  3
A$C772E264E
  1

  0
CIRCLE
  5
EA0
  8
0
  6
CONTINUOUS
 62
     3
 10
120.6442736490190981
 20
42.9711927161709824
 30
-0.0000000000000284
 40
24.0
  0
CIRCLE
  5
EA1
  8
0
  6
CONTINUOUS
 62
     3
 10
120.6442736490190981
 20
42.9711927161709824
 30
-0.0000000000000293
 40
27.0
  0
CIRCLE
  5
EA2
  8
0
  6
CONTINUOUS
 62
     3
 10
120.6442736490190981
 20
42.9711927161709824
 30
-0.0000000000000284
 40
28.0579618842507692
  0
CIRCLE
  5
EA3
  8
0
  6
CONTINUOUS
 62
     3
 10
120.6442736490190981
 20
42.9711927161709824
 30
-0.0000000000000293
 40
31.9999999999999716
  0
CIRCLE
  5
EA4
  8
0
  6
VERDECKT
 62
     1
 10
120.6442736490190981
 20
42.9711927161709824
 30
-0.0000000000000292
 40
30.2499999999999716
  0
CIRCLE
  5
EA5
  8
0
  6
VERDECKT
 62
     1
 10
120.6442736490190981
 20
42.9711927161709824
 30
-0.0000000000000293
 40
30.8499999999999694
  0
CIRCLE
  5
EA6
  8
0
  6
VERDECKT
 62
     1
 10
120.6442736490190981
 20
42.9711927161709824
 30
-0.0000000000000293
 40
29.9999999999999716
  0
CIRCLE
  5
EA7
  8
0
  6
VERDECKT
 62
     1
 10
120.6442736490190981
 20
42.9711927161709824
 30
-0.0000000000000293
 40
28.8140740033710188
  0
ENDBLK
  5
EA9
  8
0
  0
BLOCK
  8
0
  2
A$C470B76E6
 70
     0
 10
0.0
 20
0.0
 30
0.0
  3
A$C470B76E6
  1

  0
LINE
  5
EAD
  8
0
  6
CONTINUOUS
 62
     3
 10
90.3942736490191123
 20
-0.5333377421001873
 30
0.0000000000000001
 11
150.8942736490189986
 21
-0.5333377421001873
 31
0.0000000000000001
210
0.0
220
1.0
230
-0.0000000000000002
  0
LINE
  5
EAE
  8
0
  6
CONTINUOUS
 62
     3
 10
90.3942736490191123
 20
-1.4000000000000481
 30
0.0000000000000003
 11
150.8942736490189986
 21
-1.4000000000000481
 31
0.0000000000000003
210
0.0
220
1.0
230
-0.0000000000000002
  0
LINE
  5
EAF
  8
0
  6
CONTINUOUS
 62
     3
 10
89.7942736490191464
 20
-2.0000000000000431
 30
0.0000000000000004
 11
151.4942736490191066
 21
-2.0000000000000431
 31
0.0000000000000004
210
0.0
220
1.0
230
-0.0000000000000002
  0
LINE
  5
EB0
  8
0
  6
CONTINUOUS
 62
     3
 10
89.7942736490191464
 20
-3.0000000000000431
 30
0.0000000000000007
 11
151.4942736490191066
 21
-3.0000000000000431
 31
0.0000000000000007
210
0.0
220
1.0
230
-0.0000000000000002
  0
LINE
  5
EB1
  8
0
  6
CONTINUOUS
 62
     3
 10
90.3942736490191123
 20
-3.6000000000000369
 30
0.0000000000000008
 11
150.8942736490189986
 21
-3.6000000000000369
 31
0.0000000000000008
210
0.0
220
1.0
230
-0.0000000000000002
  0
LINE
  5
EB2
  8
0
  6
CONTINUOUS
 62
     3
 10
90.3942736490191123
 20
-4.2471128891082941
 30
0.0000000000000009
 11
150.8942736490189986
 21
-4.2471128891082941
 31
0.0000000000000009
210
0.0
220
1.0
230
-0.0000000000000002
  0
LINE
  5
EB3
  8
0
  6
CONTINUOUS
 62
     3
 10
88.6442736490191265
 20
-8.0000000000000142
 30
0.0000000000000018
 11
152.6442736490189986
 21
-8.0000000000000142
 31
0.0000000000000018
210
0.0
220
1.0
230
-0.0000000000000002
  0
LINE
  5
EB4
  8
0
  6
CONTINUOUS
 62
     3
 10
95.1442736490190981
 20
-9.0000000000000142
 30
0.000000000000002
 11
146.1442736490191123
 21
-9.0000000000000142
 31
0.000000000000002
210
0.0
220
1.0
230
-0.0000000000000002
  0
LINE
  5
EB5
  8
0
  6
CONTINUOUS
 62
     3
 10
92.3970503987517446
 20
9.0000000000000089
 30
-0.000000000000002
 11
148.8914968992864942
 21
9.0000000000000089
 31
-0.000000000000002
210
0.0
220
1.0
230
-0.0000000000000002
  0
LINE
  5
EB6
  8
0
  6
CONTINUOUS
 62
     3
 10
88.6442736490191265
 20
3.9999999999999578
 30
-0.0000000000000009
 11
152.6442736490189986
 21
3.9999999999999578
 31
-0.0000000000000009
210
0.0
220
1.0
230
-0.0000000000000002
  0
ARC
  5
EB7
  8
0
  6
CONTINUOUS
 62
     3
 10
-91.3301996456480651
 20
3.4999999999999529
 30
0.0
 40
0.5000000000000031
210
0.0
220
-0.0000000000000002
230
-1.0
 50
90.0000000000016058
 51
199.9999999999990052
  0
ARC
  5
EB8
  8
0
  6
CONTINUOUS
 62
     3
 10
-149.958347652389989
 20
3.4999999999999791
 30
0.0
 40
0.4999999999999689
210
0.0
220
-0.0000000000000002
230
-1.0
 50
339.9999999999951115
 51
90.0000000000032543
  0
LINE
  5
EB9
  8
0
  6
CONTINUOUS
 62
     3
 10
149.4885013419971074
 20
3.32898992833712
 30
-0.0000000000000007
 11
150.8942736490189986
 21
-0.5333377421001845
 31
0.0000000000000001
210
0.0
220
1.0
230
-0.0000000000000002
  0
LINE
  5
EBA
  8
0
  6
CONTINUOUS
 62
     3
 10
91.800045956041032
 20
3.32898992833712
 30
-0.0000000000000007
 11
90.3942736490191265
 21
-0.5333377421001889
 31
0.0000000000000001
210
0.0
220
1.0
230
-0.0000000000000002
  0
LINE
  5
EBB
  8
0
  6
CONTINUOUS
 62
     3
 10
150.8942736490189986
 20
-0.5333377421001873
 30
0.0000000000000001
 11
150.8942736490189986
 21
-1.4000000000000481
 31
0.0000000000000003
210
0.0
220
1.0
230
-0.0000000000000002
  0
LINE
  5
EBC
  8
0
  6
CONTINUOUS
 62
     3
 10
90.3942736490191265
 20
-0.5333377421001873
 30
0.0000000000000001
 11
90.3942736490191265
 21
-1.4000000000000481
 31
0.0000000000000003
210
0.0
220
1.0
230
-0.0000000000000002
  0
LINE
  5
EBD
  8
0
  6
CONTINUOUS
 62
     3
 10
150.8942736490189986
 20
-1.400000000000041
 30
0.0000000000000003
 11
151.4942736490191066
 21
-2.0000000000000502
 31
0.0000000000000004
210
0.0
220
1.0
230
-0.0000000000000002
  0
LINE
  5
EBE
  8
0
  6
CONTINUOUS
 62
     3
 10
90.3942736490191265
 20
-1.4000000000000481
 30
0.0000000000000003
 11
89.7942736490191464
 21
-2.0000000000000431
 31
0.0000000000000004
210
0.0
220
1.0
230
-0.0000000000000002
  0
LINE
  5
EBF
  8
0
  6
CONTINUOUS
 62
     3
 10
151.4942736490191066
 20
-2.0000000000000431
 30
0.0000000000000004
 11
151.4942736490191066
 21
-3.0000000000000431
 31
0.0000000000000007
210
0.0
220
1.0
230
-0.0000000000000002
  0
LINE
  5
EC0
  8
0
  6
CONTINUOUS
 62
     3
 10
89.7942736490191464
 20
-2.0000000000000431
 30
0.0000000000000004
 11
89.7942736490191464
 21
-3.0000000000000431
 31
0.0000000000000007
210
0.0
220
1.0
230
-0.0000000000000002
  0
LINE
  5
EC1
  8
0
  6
CONTINUOUS
 62
     3
 10
90.3942736490191265
 20
-3.6000000000000369
 30
0.0000000000000008
 11
89.7942736490191464
 21
-3.0000000000000431
 31
0.0000000000000007
210
0.0
220
1.0
230
-0.0000000000000002
  0
LINE
  5
EC2
  8
0
  6
CONTINUOUS
 62
     3
 10
150.8942736490189986
 20
-3.6000000000000441
 30
0.0000000000000008
 11
151.4942736490191066
 21
-3.000000000000036
 31
0.0000000000000007
210
0.0
220
1.0
230
-0.0000000000000002
  0
LINE
  5
EC3
  8
0
  6
CONTINUOUS
 62
     3
 10
150.8942736490189986
 20
-3.6000000000000369
 30
0.0000000000000008
 11
150.8942736490189986
 21
-4.2471128891082941
 31
0.0000000000000009
210
0.0
220
1.0
230
-0.0000000000000002
  0
LINE
  5
EC4
  8
0
  6
CONTINUOUS
 62
     3
 10
90.3942736490191265
 20
-3.6000000000000369
 30
0.0000000000000008
 11
90.3942736490191265
 21
-4.2471128891082941
 31
0.0000000000000009
210
0.0
220
1.0
230
-0.0000000000000002
  0
LINE
  5
EC5
  8
0
  6
CONTINUOUS
 62
     3
 10
150.8942736490189986
 20
-4.2471128891082941
 30
0.0000000000000009
 11
152.6442736490189986
 21
-8.0000000000000142
 31
0.0000000000000018
210
0.0
220
1.0
230
-0.0000000000000002
  0
LINE
  5
EC6
  8
0
  6
CONTINUOUS
 62
     3
 10
90.3942736490191265
 20
-4.2471128891082941
 30
0.0000000000000009
 11
88.6442736490191265
 21
-8.0000000000000142
 31
0.0000000000000018
210
0.0
220
1.0
230
-0.0000000000000002
  0
ARC
  5
EC7
  8
0
  6
CONTINUOUS
 62
     3
 10
-95.144273649018885
 20
-5.9999999999998899
 30
0.0
 40
3.000000000000123
210
0.0
220
-0.0000000000000002
230
-1.0
 50
269.9999999999960778
 51
318.189685104220473
  0
ARC
  5
EC8
  8
0
  6
CONTINUOUS
 62
     3
 10
-146.1442736490193113
 20
-5.9999999999999449
 30
0.0
 40
3.0000000000000719
210
0.0
220
-0.0000000000000002
230
-1.0
 50
221.810314895778987
 51
270.0000000000036948
  0
ARC
  5
EC9
  8
0
  6
CONTINUOUS
 62
     3
 10
-92.3970503987517446
 20
7.4999999999999218
 30
0.0
 40
1.500000000000079
210
0.0
220
-0.0000000000000002
230
-1.0
 50
29.9999999999998401
 51
89.9999999999983658
  0
ARC
  5
ECA
  8
0
  6
CONTINUOUS
 62
     3
 10
-148.891496899286409
 20
7.4999999999999458
 30
0.0
 40
1.5000000000000631
210
0.0
220
-0.0000000000000002
230
-1.0
 50
90.00000000000216
 51
150.0000000000015064
  0
LINE
  5
ECB
  8
0
  6
CONTINUOUS
 62
     3
 10
150.1905350049630954
 20
8.249999999999952
 30
-0.0000000000000018
 11
152.6442736490189986
 21
3.9999999999999649
 31
-0.0000000000000009
210
0.0
220
1.0
230
-0.0000000000000002
  0
LINE
  5
ECC
  8
0
  6
CONTINUOUS
 62
     3
 10
91.0980122930750298
 20
8.2499999999999591
 30
-0.0000000000000018
 11
88.6442736490191265
 21
3.9999999999999578
 31
-0.0000000000000009
210
0.0
220
1.0
230
-0.0000000000000002
  0
LINE
  5
ECD
  8
0
  6
VERDECKT
 62
     1
 10
91.3942736490190981
 20
-6.0000000000000151
 30
0.0000000000000013
 11
149.8942736490189986
 21
-6.0000000000000151
 31
0.0000000000000013
210
0.0
220
1.0
230
-0.0000000000000002
  0
LINE
  5
ECE
  8
0
  6
VERDECKT
 62
     1
 10
93.6442736490191265
 20
2.9999999999999569
 30
-0.0000000000000007
 11
147.6442736490191123
 21
2.9999999999999569
 31
-0.0000000000000007
210
0.0
220
1.0
230
-0.0000000000000002
  0
LINE
  5
ECF
  8
0
  6
VERDECKT
 62
     1
 10
150.6442736490189986
 20
-6.7500000000000151
 30
0.0000000000000015
 11
150.6442736490189986
 21
-8.0000000000000444
 31
0.0000000000000018
210
0.0
220
1.0
230
-0.0000000000000002
  0
LINE
  5
ED0
  8
0
  6
VERDECKT
 62
     1
 10
90.6442736490191265
 20
-6.7500000000000151
 30
0.0000000000000015
 11
90.6442736490191265
 21
-8.0000000000000444
 31
0.0000000000000018
210
0.0
220
1.0
230
-0.0000000000000002
  0
ARC
  5
ED1
  8
0
  6
VERDECKT
 62
     1
 10
-91.3942736490191265
 20
-6.750000000000008
 30
0.0
 40
0.75
210
0.0
220
-0.0000000000000002
230
-1.0
 50
359.9999999999993747
 51
90.0000000000000284
  0
ARC
  5
ED2
  8
0
  6
VERDECKT
 62
     1
 10
-149.8942736490189986
 20
-6.750000000000008
 30
0.0
 40
0.7499999999999929
210
0.0
220
-0.0000000000000002
230
-1.0
 50
90.0
 51
180.0000000000005116
  0
ARC
  5
ED3
  8
0
  6
VERDECKT
 62
     1
 10
-91.4700390348439925
 20
-6.750000000000056
 30
0.0
 40
0.7500000000000356
210
0.0
220
-0.0000000000000002
230
-1.0
 50
90.00000000000216
 51
168.4630409671846962
  0
ARC
  5
ED4
  8
0
  6
VERDECKT
 62
     1
 10
-149.8185082631941043
 20
-6.7500000000000151
 30
0.0
 40
0.7499999999999875
210
0.0
220
-0.0000000000000002
230
-1.0
 50
11.5369590328131508
 51
90.0000000000021743
  0
ARC
  5
ED5
  8
0
  6
VERDECKT
 62
     1
 10
-95.144273649018956
 20
-5.9999999999998543
 30
0.0
 40
3.0000000000001972
210
0.0
220
-0.0000000000000002
230
-1.0
 50
318.1896851042207004
 51
348.4630409671814277
  0
ARC
  5
ED6
  8
0
  6
VERDECKT
 62
     1
 10
-146.1442736490193113
 20
-5.9999999999998916
 30
0.0
 40
3.0000000000000622
210
0.0
220
-0.0000000000000002
230
-1.0
 50
191.5369590328182028
 51
221.8103148957804933
  0
LINE
  5
ED7
  8
0
  6
VERDECKT
 62
     1
 10
144.6442736490191123
 20
-8.0000000000000728
 30
0.0000000000000018
 11
144.6442736490191123
 21
-9.0000000000000142
 31
0.000000000000002
210
0.0
220
1.0
230
-0.0000000000000002
  0
LINE
  5
ED8
  8
0
  6
VERDECKT
 62
     1
 10
96.6442736490191123
 20
-8.0000000000000728
 30
0.0000000000000018
 11
96.6442736490191123
 21
-9.0000000000000142
 31
0.000000000000002
210
0.0
220
1.0
230
-0.0000000000000002
  0
ARC
  5
ED9
  8
0
  6
VERDECKT
 62
     1
 10
-96.6442736490191265
 20
-5.0000000000000524
 30
0.0
 40
3.0000000000000191
210
0.0
220
-0.0000000000000002
230
-1.0
 50
270.0
 51
359.9999999999996021
  0
ARC
  5
EDA
  8
0
  6
VERDECKT
 62
     1
 10
-144.6442736490191123
 20
-5.0000000000000204
 30
0.0
 40
3.0000000000000271
210
0.0
220
-0.0000000000000002
230
-1.0
 50
180.0000000000003979
 51
269.9999999999993747
  0
LINE
  5
EDB
  8
0
  6
VERDECKT
 62
     1
 10
147.6442736490191123
 20
2.9999999999999569
 30
-0.0000000000000007
 11
147.6442736490191123
 21
-5.0000000000000426
 31
0.0000000000000011
210
0.0
220
1.0
230
-0.0000000000000002
  0
LINE
  5
EDC
  8
0
  6
VERDECKT
 62
     1
 10
93.6442736490190981
 20
2.9999999999999569
 30
-0.0000000000000007
 11
93.6442736490190981
 21
-5.0000000000000426
 31
0.0000000000000011
210
0.0
220
1.0
230
-0.0000000000000002
  0
LINE
  5
EDD
  8
0
  6
VERDECKT
 62
     1
 10
93.6442736490190981
 20
2.9999999999999569
 30
-0.0000000000000007
 11
92.5863117647683254
 21
8.9999999999999591
 31
-0.000000000000002
210
0.0
220
1.0
230
-0.0000000000000002
  0
LINE
  5
EDE
  8
0
  6
VERDECKT
 62
     1
 10
147.6442736490191123
 20
2.99999999999996
 30
-0.0000000000000007
 11
148.7022355332697998
 21
8.9999999999999574
 31
-0.000000000000002
210
0.0
220
1.0
230
-0.0000000000000002
  0
ENDBLK
  5
EE0
  8
0
  0
ENDSEC
  0
SECTION
  2
ENTITIES
  0
INSERT
  5
57B
  8
ADSK_ASSOC_ENTITY_BACKUPS
  2
*S2
 10
0.0
 20
0.0
 30
0.0
  0
INSERT
  5
EAA
  8
DEFPOINTS
  2
A$C772E264E
 10
0.0
 20
-120.0
 30
0.0
  0
INSERT
  5
EE1
  8
DEFPOINTS
  2
A$C470B76E6
 10
0.0
 20
0.0
 30
0.0
  0
VIEWPORT
  5
557
 67
     1
  8
0
 10
-167.6338803723542128
 20
76.2807083006613311
 30
0.0
 40
1331.412137537811077
 41
742.4682669266229595
 68
     1
 69
     1
1001
ACAD
1000
MVIEW
1002
{
1070
    16
1010
0.0
1020
0.0
1030
0.0
1010
0.0
1020
0.0
1030
1.0
1040
0.0
1040
742.4682669266229595
1040
-167.6338803723542128
1040
76.2807083006613311
1040
50.0
1040
0.0
1040
0.0
1070
     0
1070
  1500
1070
     1
1070
     1
1070
     0
1070
     0
1070
     0
1070
     0
1040
0.0
1040
0.0
1040
0.0
1040
10.0
1040
10.0
1040
10.0
1040
10.0
1070
     0
1002
{
1002
}
1002
}
  0
ENDSEC
  0
EOF
