  0
SECTION
  2
HEADER
  9
$ACADVER
  1
AC1009
  9
$INSBASE
 10
0.0
 20
0.0
 30
0.0
  9
$EXTMIN
 10
-51.0084432741897373
 20
-51.0203418570274607
 30
-0.0006253744787514
  9
$EXTMAX
 10
51.4691469074272234
 20
95.8646282874707367
 30
0.0013601256887625
  9
$LIMMIN
 10
0.0
 20
0.0
  9
$LIMMAX
 10
420.0
 20
297.0
  9
$ORTHOMODE
 70
     1
  9
$REGENMODE
 70
     1
  9
$FILLMODE
 70
     1
  9
$QTEXTMODE
 70
     0
  9
$MIRRTEXT
 70
     1
  9
$DRAGMODE
 70
     2
  9
$LTSCALE
 40
10.0
  9
$OSMODE
 70
  1327
  9
$ATTMODE
 70
     1
  9
$TEXTSIZE
 40
3.5
  9
$TRACEWID
 40
0.5
  9
$TEXTSTYLE
  7
GREEKS
  9
$CLAYER
  8
0
  9
$CELTYPE
  6
BYLAYER
  9
$CECOLOR
 62
   256
  9
$DIMSCALE
 40
1.0
  9
$DIMASZ
 40
3.5
  9
$DIMEXO
 40
1.0
  9
$DIMDLI
 40
7.0
  9
$DIMRND
 40
0.0
  9
$DIMDLE
 40
0.0
  9
$DIMEXE
 40
1.0
  9
$DIMTP
 40
0.2
  9
$DIMTM
 40
0.2
  9
$DIMTXT
 40
3.5
  9
$DIMCEN
 40
1.5
  9
$DIMTSZ
 40
0.0
  9
$DIMTOL
 70
     0
  9
$DIMLIM
 70
     0
  9
$DIMTIH
 70
     0
  9
$DIMTOH
 70
     0
  9
$DIMSE1
 70
     0
  9
$DIMSE2
 70
     0
  9
$DIMTAD
 70
     1
  9
$DIMZIN
 70
     8
  9
$DIMBLK
  1

  9
$DIMASO
 70
     1
  9
$DIMSHO
 70
     0
  9
$DIMPOST
  1

  9
$DIMAPOST
  1

  9
$DIMALT
 70
     0
  9
$DIMALTD
 70
     2
  9
$DIMALTF
 40
25.3999999999999986
  9
$DIMLFAC
 40
1.0
  9
$DIMTOFL
 70
     1
  9
$DIMTVP
 40
0.0
  9
$DIMTIX
 70
     0
  9
$DIMSOXD
 70
     0
  9
$DIMSAH
 70
     0
  9
$DIMBLK1
  1

  9
$DIMBLK2
  1

  9
$DIMSTYLE
  2
STANDARD
  9
$DIMCLRD
 70
     0
  9
$DIMCLRE
 70
     0
  9
$DIMCLRT
 70
     1
  9
$DIMTFAC
 40
0.5
  9
$DIMGAP
 40
1.5
  9
$LUNITS
 70
     2
  9
$LUPREC
 70
     2
  9
$SKETCHINC
 40
1.0
  9
$FILLETRAD
 40
0.0
  9
$AUNITS
 70
     0
  9
$AUPREC
 70
     0
  9
$MENU
  1
ACAD
  9
$ELEVATION
 40
0.0
  9
$PELEVATION
 40
0.0
  9
$THICKNESS
 40
0.0
  9
$LIMCHECK
 70
     0
  9
$BLIPMODE
 70
     0
  9
$CHAMFERA
 40
0.0
  9
$CHAMFERB
 40
0.0
  9
$SKPOLY
 70
     0
  9
$TDCREATE
 40
2451729.4361226852051914
  9
$TDUPDATE
 40
2458388.6171875
  9
$TDINDWG
 40
0.1644595255
  9
$TDUSRTIMER
 40
0.1644595255
  9
$USRTIMER
 70
     1
  9
$ANGBASE
 50
0.0
  9
$ANGDIR
 70
     0
  9
$PDMODE
 70
     0
  9
$PDSIZE
 40
0.0
  9
$PLINEWID
 40
0.0
  9
$COORDS
 70
     1
  9
$SPLFRAME
 70
     0
  9
$SPLINETYPE
 70
     6
  9
$SPLINESEGS
 70
     8
  9
$ATTDIA
 70
     0
  9
$ATTREQ
 70
     0
  9
$HANDLING
 70
     1
  9
$HANDSEED
  5
1AB3
  9
$SURFTAB1
 70
     6
  9
$SURFTAB2
 70
     6
  9
$SURFTYPE
 70
     6
  9
$SURFU
 70
     6
  9
$SURFV
 70
     6
  9
$UCSNAME
  2

  9
$UCSORG
 10
0.0
 20
0.0
 30
0.0
  9
$UCSXDIR
 10
1.0
 20
0.0
 30
0.0
  9
$UCSYDIR
 10
0.0
 20
1.0
 30
0.0
  9
$PUCSNAME
  2

  9
$PUCSORG
 10
0.0
 20
0.0
 30
0.0
  9
$PUCSXDIR
 10
1.0
 20
0.0
 30
0.0
  9
$PUCSYDIR
 10
0.0
 20
1.0
 30
0.0
  9
$USERI1
 70
     0
  9
$USERI2
 70
     0
  9
$USERI3
 70
     0
  9
$USERI4
 70
     0
  9
$USERI5
 70
     0
  9
$USERR1
 40
0.0
  9
$USERR2
 40
0.0
  9
$USERR3
 40
0.0
  9
$USERR4
 40
0.0
  9
$USERR5
 40
0.0
  9
$WORLDVIEW
 70
     1
  9
$SHADEDGE
 70
     3
  9
$SHADEDIF
 70
    70
  9
$TILEMODE
 70
     1
  9
$MAXACTVP
 70
    16
  9
$PLIMCHECK
 70
     0
  9
$PEXTMIN
 10
-0.1169076343694719
 20
-0.1458511145317338
 30
-0.000000000000013
  9
$PEXTMAX
 10
10.8900016978018694
 20
7.5563657688478223
 30
0.0000000000000023
  9
$PLIMMIN
 10
-0.2500002402958907
 20
-0.2499999962453767
  9
$PLIMMAX
 10
10.7499995194082203
 20
8.2499997634587334
  9
$UNITMODE
 70
     0
  9
$VISRETAIN
 70
     0
  9
$PLINEGEN
 70
     0
  9
$PSLTSCALE
 70
     0
  0
ENDSEC
  0
SECTION
  2
TABLES
  0
TABLE
  2
VPORT
 70
     1
  0
VPORT
  2
*ACTIVE
 70
     0
 10
0.0
 20
0.0
 11
1.0
 21
1.0
 12
0.230351825360728
 22
22.4221432152216487
 13
0.0
 23
0.0
 14
1.0
 24
1.0
 15
10.0
 25
10.0
 16
-0.0000000000000841
 26
0.0
 36
378.6762702080765735
 17
-0.0000000087420027
 27
0.0
 37
12.5
 40
147.983860195454497
 41
1.8826466916354549
 42
50.0
 43
0.0
 44
0.0
 50
0.0
 51
0.0
 71
     0
 72
  1500
 73
     1
 74
     0
 75
     0
 76
     0
 77
     0
 78
     0
  0
ENDTAB
  0
TABLE
  2
LTYPE
 70
     3
  0
LTYPE
  2
CONTINUOUS
 70
     0
  3
Solid line
 72
    65
 73
     0
 40
0.0
  0
LTYPE
  2
VERDECKT
 70
     0
  3
Verdeckt __ __ __ __ __ __ __ __ __ __ __ __ __
 72
    65
 73
     2
 40
0.375
 49
0.25
 49
-0.125
  0
ENDTAB
  0
TABLE
  2
LAYER
 70
    10
  0
LAYER
  2
0
 70
     0
 62
     7
  6
CONTINUOUS
  0
LAYER
  2
DEFPOINTS
 70
     0
 62
     7
  6
CONTINUOUS
  0
ENDTAB
  0
TABLE
  2
STYLE
 70
     4
  0
STYLE
  2
STANDARD
 70
     0
 40
0.0
 41
1.0
 50
0.0
 71
     0
 42
3.5
  3
txt
  4

  0
STYLE
  2
GREEKS
 70
     0
 40
0.0
 41
0.8
 50
0.0
 71
     0
 42
3.5
  3
SIMPLEX.shx
  4

  0
ENDTAB
  0
TABLE
  2
VIEW
 70
     2
  0
ENDTAB
  0
TABLE
  2
UCS
 70
     0
  0
ENDTAB
  0
TABLE
  2
APPID
 70
    12
  0
APPID
  2
ACAD
 70
     0
  0
APPID
  2
ACAD_EXEMPT_FROM_CAD_STANDARDS
 70
     0
  0
APPID
  2
ACAD_NAV_VCDISPLAY
 70
     0
  0
APPID
  2
GRADIENTCOLOR1ACI
 70
     0
  0
APPID
  2
GRADIENTCOLOR2ACI
 70
     0
  0
APPID
  2
ACAD_DSTYLE_DIMRADIAL_EXTENSION
 70
     0
  0
APPID
  2
ACADANNOMONITORALERTICONDI
 70
     0
  0
APPID
  2
ACAD_MLEADERVER
 70
     0
  0
APPID
  2
ACAD_PSEXT
 70
     0
  0
APPID
  2
ACAECLAYERSTANDARD
 70
     0
  0
APPID
  2
ACCMTRANSPARENCY
 70
     0
  0
APPID
  2
ACAD_OBJECT_CHANGE_GUID
 70
     0
  0
ENDTAB
  0
TABLE
  2
DIMSTYLE
 70
     2
  0
DIMSTYLE
  2
STANDARD
 70
     0
  3

  4

  5

  6

  7

 40
1.0
 41
0.18
 42
0.0625
 43
0.38
 44
0.18
 45
0.0
 46
0.0
 47
0.0
 48
0.0
140
0.18
141
0.09
142
0.0
143
25.3999999999999986
144
1.0
145
0.0
146
1.0
147
0.09
 71
     0
 72
     0
 73
     1
 74
     1
 75
     0
 76
     0
 77
     0
 78
     0
170
     0
171
     2
172
     0
173
     0
174
     0
175
     0
176
     0
177
     0
178
     0
  0
ENDTAB
  0
ENDSEC
  0
SECTION
  2
BLOCKS
  0
BLOCK
  8
0
  2
$MODEL_SPACE
 70
     0
 10
0.0
 20
0.0
 30
0.0
  3
$MODEL_SPACE
  1

  0
ENDBLK
  5
42
  8
0
  0
BLOCK
 67
     1
  8
0
  2
$PAPER_SPACE
 70
     0
 10
0.0
 20
0.0
 30
0.0
  3
$PAPER_SPACE
  1

  0
ENDBLK
  5
40
 67
     1
  8
0
  0
BLOCK
  8
0
  2
A$C2CAD17FB
 70
     0
 10
0.0
 20
0.0
 30
0.0
  3
A$C2CAD17FB
  1

  0
CIRCLE
  5
1A1F
  8
0
  6
CONTINUOUS
 62
     3
 10
0.7310867484410442
 20
-13.3583331096663596
 30
0.0
 40
40.0
  0
CIRCLE
  5
1A20
  8
0
  6
CONTINUOUS
 62
     3
 10
0.7310867484410477
 20
-13.3583331096663507
 30
0.0
 40
45.0
  0
CIRCLE
  5
1A21
  8
0
  6
CONTINUOUS
 62
     3
 10
0.731086748441048
 20
-13.3583331096663507
 30
0.0
 40
51.0
  0
CIRCLE
  5
1A22
  8
0
  6
VERDECKT
 62
     1
 10
0.7310867484410462
 20
-13.3583331096663596
 30
0.0
 40
49.5000000000000568
  0
CIRCLE
  5
1A23
  8
0
  6
VERDECKT
 62
     1
 10
0.7310867484410442
 20
-13.3583331096663596
 30
0.0
 40
49.0
  0
CIRCLE
  5
1A24
  8
0
  6
VERDECKT
 62
     1
 10
0.7310867484410446
 20
-13.3583331096663596
 30
0.0
 40
47.8452994616207476
  0
CIRCLE
  5
1A25
  8
0
  6
VERDECKT
 62
     1
 10
0.7310867484410446
 20
-13.3583331096663596
 30
0.0
 40
46.8989794855661373
  0
CIRCLE
  5
1A26
  8
0
  6
VERDECKT
 62
     1
 10
0.7310867484410478
 20
-13.3583331096663507
 30
0.0
 40
46.7140740033710529
  0
ENDBLK
  5
1A28
  8
0
  0
BLOCK
  8
0
  2
A$C7C8D072D
 70
     0
 10
0.0
 20
0.0
 30
0.0
  3
A$C7C8D072D
  1

  0
LINE
  5
1A2C
  8
0
  6
CONTINUOUS
 62
     3
 10
-51.0000000000000497
 20
19.0
 30
-0.0000000000000042
 11
51.0000000000000497
 21
19.0
 31
-0.0000000000000042
210
0.0
220
1.0
230
-0.0000000000000002
  0
LINE
  5
1A2D
  8
0
  6
CONTINUOUS
 62
     3
 10
-49.5000000000000568
 20
10.7575677416360804
 30
-0.0000000000000024
 11
49.5000000000000568
 21
10.7575677416360804
 31
-0.0000000000000024
210
0.0
220
1.0
230
-0.0000000000000002
  0
LINE
  5
1A2E
  8
0
  6
CONTINUOUS
 62
     3
 10
-49.5000000000000568
 20
10.4999999999999396
 30
-0.0000000000000023
 11
49.5000000000000568
 21
10.4999999999999396
 31
-0.0000000000000023
210
0.0
220
1.0
230
-0.0000000000000002
  0
LINE
  5
1A2F
  8
0
  6
CONTINUOUS
 62
     3
 10
-51.0000000000000497
 20
8.9999999999999165
 30
-0.000000000000002
 11
51.0000000000000497
 21
8.9999999999999165
 31
-0.000000000000002
210
0.0
220
1.0
230
-0.0000000000000002
  0
LINE
  5
1A30
  8
0
  6
CONTINUOUS
 62
     3
 10
-51.0000000000000497
 20
7.9999999999999734
 30
-0.0000000000000018
 11
50.9999999999999432
 21
7.9999999999999734
 31
-0.0000000000000018
210
0.0
220
1.0
230
-0.0000000000000002
  0
LINE
  5
1A31
  8
0
  6
CONTINUOUS
 62
     3
 10
-49.5000000000000568
 20
6.5000000000000009
 30
-0.0000000000000014
 11
49.5000000000000568
 21
6.5000000000000009
 31
-0.0000000000000014
210
0.0
220
1.0
230
-0.0000000000000002
  0
LINE
  5
1A32
  8
0
  6
CONTINUOUS
 62
     3
 10
-49.5000000000000568
 20
4.598076211353316
 30
-0.000000000000001
 11
49.5000000000000568
 21
4.598076211353316
 31
-0.000000000000001
210
0.0
220
1.0
230
-0.0000000000000002
  0
LINE
  5
1A33
  8
0
  6
CONTINUOUS
 62
     3
 10
-51.0000000000000497
 20
2.0
 30
-0.0000000000000004
 11
50.9999999999999432
 21
2.0
 31
-0.0000000000000004
210
0.0
220
1.0
230
-0.0000000000000002
  0
LINE
  5
1A34
  8
0
  6
CONTINUOUS
 62
     3
 10
-42.0000000000000497
 20
0.0
 30
0.0
 11
41.9999999999999432
 21
0.0
 31
0.0
210
0.0
220
1.0
230
-0.0000000000000002
  0
ARC
  5
1A35
  8
0
  6
CONTINUOUS
 62
     3
 10
47.6429713349967727
 20
23.9999999999999503
 30
0.0
 40
1.00000000000004
210
0.0
220
-0.0000000000000002
230
-1.0
 50
29.7972977795340412
 51
89.9999999999995879
  0
ARC
  5
1A36
  8
0
  6
CONTINUOUS
 62
     3
 10
-47.6429713349967727
 20
23.9999999999999503
 30
0.0
 40
1.0000000000000391
210
0.0
220
-0.0000000000000002
230
-1.0
 50
90.0000000000003979
 51
150.202702220465909
  0
LINE
  5
1A37
  8
0
  6
CONTINUOUS
 62
     3
 10
47.6429713349967798
 20
25.0
 30
-0.0000000000000056
 11
-47.6429713349967727
 21
25.0
 31
-0.0000000000000056
210
0.0
220
1.0
230
-0.0000000000000002
  0
LINE
  5
1A38
  8
0
  6
CONTINUOUS
 62
     3
 10
48.5107602260067878
 20
24.4969330343614793
 30
-0.0000000000000054
 11
50.4711555640398331
 21
21.0735154333990984
 31
-0.0000000000000047
210
0.0
220
1.0
230
-0.0000000000000002
  0
LINE
  5
1A39
  8
0
  6
CONTINUOUS
 62
     3
 10
-48.5107602260067878
 20
24.4969330343614793
 30
-0.0000000000000054
 11
-50.4711555640398331
 21
21.0735154333990984
 31
-0.0000000000000047
210
0.0
220
1.0
230
-0.0000000000000002
  0
ARC
  5
1A3A
  8
0
  6
CONTINUOUS
 62
     3
 10
46.8370466851958582
 20
19.0428916479709684
 30
0.0
 40
4.1629533148041409
210
0.0
220
-0.0000000000000002
230
-1.0
 50
0.0000000000769694
 51
29.1950619378430716
  0
ARC
  5
1A3B
  8
0
  6
CONTINUOUS
 62
     3
 10
-46.8370466851958298
 20
19.0428916479709684
 30
0.0
 40
4.1629533148041702
210
0.0
220
-0.0000000000000002
230
-1.0
 50
150.8049380621571061
 51
179.9999999999230056
  0
LINE
  5
1A3C
  8
0
  6
CONTINUOUS
 62
     3
 10
51.0000000000000497
 20
19.0428916479765604
 30
-0.0000000000000042
 11
51.0000000000000497
 21
19.0
 31
-0.0000000000000042
210
0.0
220
1.0
230
-0.0000000000000002
  0
LINE
  5
1A3D
  8
0
  6
CONTINUOUS
 62
     3
 10
-51.0000000000000497
 20
19.0428916479765604
 30
-0.0000000000000042
 11
-51.0000000000000497
 21
19.0
 31
-0.0000000000000042
210
0.0
220
1.0
230
-0.0000000000000002
  0
ARC
  5
1A3E
  8
0
  6
CONTINUOUS
 62
     3
 10
47.2140740033711381
 20
18.4999999999999609
 30
0.0
 40
0.5000000000000853
210
0.0
220
-0.0000000000000002
230
-1.0
 50
90.0000000000073328
 51
199.9999999999947988
  0
ARC
  5
1A3F
  8
0
  6
CONTINUOUS
 62
     3
 10
-47.2140740033711381
 20
18.4999999999999609
 30
0.0
 40
0.5000000000000951
210
0.0
220
-0.0000000000000002
230
-1.0
 50
340.0000000000051728
 51
89.9999999999926814
  0
LINE
  5
1A40
  8
0
  6
CONTINUOUS
 62
     3
 10
46.7442276929780789
 20
18.3289899283371405
 30
-0.0000000000000041
 11
49.5000000000000568
 21
10.7575677416360804
 31
-0.0000000000000024
210
0.0
220
1.0
230
-0.0000000000000002
  0
LINE
  5
1A41
  8
0
  6
CONTINUOUS
 62
     3
 10
-46.7442276929780789
 20
18.3289899283371405
 30
-0.0000000000000041
 11
-49.5000000000000568
 21
10.7575677416360804
 31
-0.0000000000000024
210
0.0
220
1.0
230
-0.0000000000000002
  0
LINE
  5
1A42
  8
0
  6
CONTINUOUS
 62
     3
 10
49.5000000000000568
 20
10.7575677416360804
 30
-0.0000000000000024
 11
49.5000000000000568
 21
10.4999999999999396
 31
-0.0000000000000023
210
0.0
220
1.0
230
-0.0000000000000002
  0
LINE
  5
1A43
  8
0
  6
CONTINUOUS
 62
     3
 10
-49.5000000000000568
 20
10.7575677416360804
 30
-0.0000000000000024
 11
-49.5000000000000568
 21
10.4999999999999396
 31
-0.0000000000000023
210
0.0
220
1.0
230
-0.0000000000000002
  0
LINE
  5
1A44
  8
0
  6
CONTINUOUS
 62
     3
 10
49.5000000000000568
 20
10.4999999999999396
 30
-0.0000000000000023
 11
51.0000000000000497
 21
8.9999999999999165
 31
-0.000000000000002
210
0.0
220
1.0
230
-0.0000000000000002
  0
LINE
  5
1A45
  8
0
  6
CONTINUOUS
 62
     3
 10
-49.5000000000000568
 20
10.4999999999999396
 30
-0.0000000000000023
 11
-51.0000000000000497
 21
8.9999999999999165
 31
-0.000000000000002
210
0.0
220
1.0
230
-0.0000000000000002
  0
LINE
  5
1A46
  8
0
  6
CONTINUOUS
 62
     3
 10
51.0000000000000497
 20
8.9999999999999165
 30
-0.000000000000002
 11
51.0000000000000497
 21
7.9999999999999734
 31
-0.0000000000000018
210
0.0
220
1.0
230
-0.0000000000000002
  0
LINE
  5
1A47
  8
0
  6
CONTINUOUS
 62
     3
 10
-51.0000000000000497
 20
8.9999999999999165
 30
-0.000000000000002
 11
-51.0000000000000497
 21
7.9999999999999734
 31
-0.0000000000000018
210
0.0
220
1.0
230
-0.0000000000000002
  0
LINE
  5
1A48
  8
0
  6
CONTINUOUS
 62
     3
 10
-49.5000000000000711
 20
6.4999999999999867
 30
-0.0000000000000014
 11
-51.0000000000000071
 21
7.9999999999999591
 31
-0.0000000000000018
210
0.0
220
1.0
230
-0.0000000000000002
  0
LINE
  5
1A49
  8
0
  6
CONTINUOUS
 62
     3
 10
49.5000000000000711
 20
6.4999999999999867
 30
-0.0000000000000014
 11
51.0000000000000071
 21
7.9999999999999591
 31
-0.0000000000000018
210
0.0
220
1.0
230
-0.0000000000000002
  0
LINE
  5
1A4A
  8
0
  6
CONTINUOUS
 62
     3
 10
49.5000000000000568
 20
6.5000000000000009
 30
-0.0000000000000014
 11
49.5000000000000568
 21
4.598076211353316
 31
-0.000000000000001
210
0.0
220
1.0
230
-0.0000000000000002
  0
LINE
  5
1A4B
  8
0
  6
CONTINUOUS
 62
     3
 10
-49.5000000000000568
 20
6.5000000000000009
 30
-0.0000000000000014
 11
-49.5000000000000568
 21
4.598076211353316
 31
-0.000000000000001
210
0.0
220
1.0
230
-0.0000000000000002
  0
LINE
  5
1A4C
  8
0
  6
CONTINUOUS
 62
     3
 10
49.5000000000000782
 20
4.5980762113533293
 30
-0.000000000000001
 11
51.0000000000000213
 21
2.000000000000012
 31
-0.0000000000000004
210
0.0
220
1.0
230
-0.0000000000000002
  0
LINE
  5
1A4D
  8
0
  6
CONTINUOUS
 62
     3
 10
-49.5000000000000782
 20
4.5980762113533293
 30
-0.000000000000001
 11
-51.0000000000000213
 21
2.000000000000012
 31
-0.0000000000000004
210
0.0
220
1.0
230
-0.0000000000000002
  0
ARC
  5
1A4E
  8
0
  6
CONTINUOUS
 62
     3
 10
41.9999999999998792
 20
4.9999999999999307
 30
0.0
 40
4.9999999999999289
210
0.0
220
-0.0000000000000002
230
-1.0
 50
270.0
 51
323.130102354155099
  0
ARC
  5
1A4F
  8
0
  6
CONTINUOUS
 62
     3
 10
-41.9999999999998792
 20
4.9999999999999378
 30
0.0
 40
4.9999999999999343
210
0.0
220
-0.0000000000000002
230
-1.0
 50
216.8698976458437073
 51
269.9999999999988063
  0
LINE
  5
1A50
  8
0
  6
VERDECKT
 62
     1
 10
-40.0000000000000568
 20
1.5
 30
-0.0000000000000003
 11
39.9999999999999503
 21
1.5
 31
-0.0000000000000003
210
0.0
220
1.0
230
-0.0000000000000002
  0
LINE
  5
1A51
  8
0
  6
VERDECKT
 62
     1
 10
-45.0000000000000568
 20
18.0
 30
-0.000000000000004
 11
44.9999999999999432
 21
18.0
 31
-0.000000000000004
210
0.0
220
1.0
230
-0.0000000000000002
  0
LINE
  5
1A52
  8
0
  6
VERDECKT
 62
     1
 10
-47.8452994616207405
 20
4.0
 30
-0.0000000000000009
 11
47.8452994616207405
 21
4.0
 31
-0.0000000000000009
210
0.0
220
1.0
230
-0.0000000000000002
  0
LINE
  5
1A53
  8
0
  6
VERDECKT
 62
     1
 10
40.0000000000000568
 20
1.5
 30
-0.0000000000000003
 11
40.0000000000000568
 21
0.0
 31
0.0
210
0.0
220
1.0
230
-0.0000000000000002
  0
LINE
  5
1A54
  8
0
  6
VERDECKT
 62
     1
 10
-40.0000000000000568
 20
1.5
 30
-0.0000000000000003
 11
-40.0000000000000568
 21
0.0
 31
0.0
210
0.0
220
1.0
230
-0.0000000000000002
  0
ARC
  5
1A55
  8
0
  6
VERDECKT
 62
     1
 10
40.0000000000000568
 20
6.4999999999999467
 30
0.0
 40
4.9999999999999449
210
0.0
220
-0.0000000000000002
230
-1.0
 50
270.0
 51
0.0000000000012595
  0
ARC
  5
1A56
  8
0
  6
VERDECKT
 62
     1
 10
-40.0000000000000497
 20
6.4999999999999476
 30
0.0
 40
4.9999999999999503
210
0.0
220
-0.0000000000000002
230
-1.0
 50
179.9999999999994031
 51
270.0000000000006253
  0
LINE
  5
1A57
  8
0
  6
VERDECKT
 62
     1
 10
45.0
 20
18.0
 30
-0.000000000000004
 11
45.0
 21
6.5000000000000009
 31
-0.0000000000000014
210
0.0
220
1.0
230
-0.0000000000000002
  0
LINE
  5
1A58
  8
0
  6
VERDECKT
 62
     1
 10
-45.0
 20
18.0
 30
-0.000000000000004
 11
-45.0
 21
6.5000000000000009
 31
-0.0000000000000014
210
0.0
220
1.0
230
-0.0000000000000002
  0
LINE
  5
1A59
  8
0
  6
VERDECKT
 62
     1
 10
-44.9999999999999716
 20
18.0000000000000107
 30
-0.000000000000004
 11
-46.677045508707721
 21
24.2588190451025305
 31
-0.0000000000000054
210
0.0
220
1.0
230
-0.0000000000000002
  0
LINE
  5
1A5A
  8
0
  6
VERDECKT
 62
     1
 10
44.9999999999999716
 20
18.0000000000000107
 30
-0.000000000000004
 11
46.677045508707721
 21
24.2588190451025305
 31
-0.0000000000000054
210
0.0
220
1.0
230
-0.0000000000000002
  0
ARC
  5
1A5B
  8
0
  6
VERDECKT
 62
     1
 10
47.6429713349967798
 20
23.9999999999999609
 30
0.0
 40
1.0000000000000351
210
0.0
220
-0.0000000000000002
230
-1.0
 50
90.0
 51
164.9999999999972999
  0
ARC
  5
1A5C
  8
0
  6
VERDECKT
 62
     1
 10
-47.6429713349967798
 20
23.9999999999999609
 30
0.0
 40
1.0000000000000311
210
0.0
220
-0.0000000000000002
230
-1.0
 50
15.0000000000026201
 51
90.0
  0
LINE
  5
1A5D
  8
0
  6
VERDECKT
 62
     1
 10
47.845299461620769
 20
4.0000000000000133
 30
-0.0000000000000009
 11
49.0000000000000213
 21
2.000000000000012
 31
-0.0000000000000004
210
0.0
220
1.0
230
-0.0000000000000002
  0
LINE
  5
1A5E
  8
0
  6
VERDECKT
 62
     1
 10
-47.845299461620769
 20
4.0000000000000133
 30
-0.0000000000000009
 11
-49.0000000000000213
 21
2.000000000000012
 31
-0.0000000000000004
210
0.0
220
1.0
230
-0.0000000000000002
  0
ARC
  5
1A5F
  8
0
  6
VERDECKT
 62
     1
 10
41.9999999999999076
 20
4.9999999999999227
 30
0.0
 40
4.9999999999999023
210
0.0
220
-0.0000000000000002
230
-1.0
 50
323.130102354156179
 51
348.4630409671852931
  0
ARC
  5
1A60
  8
0
  6
VERDECKT
 62
     1
 10
-41.9999999999999005
 20
4.9999999999999281
 30
0.0
 40
4.9999999999999156
210
0.0
220
-0.0000000000000002
230
-1.0
 50
191.5369590328147069
 51
216.8698976458437073
  0
ENDBLK
  5
1A62
  8
0
  0
ENDSEC
  0
SECTION
  2
ENTITIES
  0
INSERT
  5
1A29
  8
0
  2
A$C2CAD17FB
 10
-0.7310867484410442
 20
13.3583331096663596
 30
0.0
  0
INSERT
  5
1A63
  8
0
  2
A$C7C8D072D
 10
0.0000000000000039
 20
70.601980027496424
 30
0.0
  0
VIEWPORT
  5
6A0
 67
     1
  8
0
 10
5.8564146922740212
 20
3.7052573271580438
 30
0.0
 40
14.6030666521053494
 41
7.756668692530762
 68
     1
 69
     1
1001
ACAD
1000
MVIEW
1002
{
1070
    16
1010
0.0
1020
0.0
1030
0.0
1010
0.0
1020
0.0
1030
1.0
1040
0.0
1040
7.756668692530762
1040
5.8564146922740212
1040
3.7052573271580438
1040
50.0
1040
0.0
1040
0.0
1070
     0
1070
  1500
1070
     1
1070
     1
1070
     0
1070
     0
1070
     0
1070
     0
1040
0.0
1040
0.0
1040
0.0
1040
10.0
1040
10.0
1040
10.0
1040
10.0
1070
     0
1002
{
1002
}
1002
}
  0
ENDSEC
  0
EOF
