  0
SECTION
  2
HEADER
  9
$ACADVER
  1
AC1009
  9
$INSBASE
 10
0.0
 20
0.0
 30
0.0
  9
$EXTMIN
 10
466.0320604379788847
 20
-11.2500000000000302
 30
-11.54987505206158
  9
$EXTMAX
 10
551.6320604379787937
 20
114.7124467629707993
 30
11.4084559306791906
  9
$LIMMIN
 10
0.0
 20
0.0
  9
$LIMMAX
 10
420.0
 20
297.0
  9
$ORTHOMODE
 70
     1
  9
$REGENMODE
 70
     1
  9
$FILLMODE
 70
     1
  9
$QTEXTMODE
 70
     0
  9
$MIRRTEXT
 70
     1
  9
$DRAGMODE
 70
     2
  9
$LTSCALE
 40
10.0
  9
$OSMODE
 70
   183
  9
$ATTMODE
 70
     1
  9
$TEXTSIZE
 40
3.5
  9
$TRACEWID
 40
0.5
  9
$TEXTSTYLE
  7
GREEKS
  9
$CLAYER
  8
DICHTUNG
  9
$CELTYPE
  6
BYLAYER
  9
$CECOLOR
 62
   256
  9
$DIMSCALE
 40
1.0
  9
$DIMASZ
 40
3.5
  9
$DIMEXO
 40
1.0
  9
$DIMDLI
 40
7.0
  9
$DIMRND
 40
0.0
  9
$DIMDLE
 40
0.0
  9
$DIMEXE
 40
1.0
  9
$DIMTP
 40
0.2
  9
$DIMTM
 40
0.2
  9
$DIMTXT
 40
3.5
  9
$DIMCEN
 40
1.5
  9
$DIMTSZ
 40
0.0
  9
$DIMTOL
 70
     0
  9
$DIMLIM
 70
     0
  9
$DIMTIH
 70
     0
  9
$DIMTOH
 70
     0
  9
$DIMSE1
 70
     0
  9
$DIMSE2
 70
     0
  9
$DIMTAD
 70
     1
  9
$DIMZIN
 70
     8
  9
$DIMBLK
  1

  9
$DIMASO
 70
     1
  9
$DIMSHO
 70
     0
  9
$DIMPOST
  1

  9
$DIMAPOST
  1

  9
$DIMALT
 70
     0
  9
$DIMALTD
 70
     2
  9
$DIMALTF
 40
25.3999999999999986
  9
$DIMLFAC
 40
1.0
  9
$DIMTOFL
 70
     1
  9
$DIMTVP
 40
0.0
  9
$DIMTIX
 70
     0
  9
$DIMSOXD
 70
     0
  9
$DIMSAH
 70
     0
  9
$DIMBLK1
  1

  9
$DIMBLK2
  1

  9
$DIMSTYLE
  2
STANDARD
  9
$DIMCLRD
 70
     0
  9
$DIMCLRE
 70
     0
  9
$DIMCLRT
 70
     1
  9
$DIMTFAC
 40
0.5
  9
$DIMGAP
 40
1.5
  9
$LUNITS
 70
     2
  9
$LUPREC
 70
     2
  9
$SKETCHINC
 40
1.0
  9
$FILLETRAD
 40
0.0
  9
$AUNITS
 70
     0
  9
$AUPREC
 70
     0
  9
$MENU
  1
ACAD
  9
$ELEVATION
 40
0.0
  9
$PELEVATION
 40
0.0
  9
$THICKNESS
 40
0.0
  9
$LIMCHECK
 70
     0
  9
$BLIPMODE
 70
     0
  9
$CHAMFERA
 40
0.0
  9
$CHAMFERB
 40
0.0
  9
$SKPOLY
 70
     0
  9
$TDCREATE
 40
2451729.4361226852051914
  9
$TDUPDATE
 40
2458389.6610532412305474
  9
$TDINDWG
 40
0.1258096644
  9
$TDUSRTIMER
 40
0.1258096644
  9
$USRTIMER
 70
     1
  9
$ANGBASE
 50
0.0
  9
$ANGDIR
 70
     0
  9
$PDMODE
 70
     0
  9
$PDSIZE
 40
0.0
  9
$PLINEWID
 40
0.0
  9
$COORDS
 70
     1
  9
$SPLFRAME
 70
     0
  9
$SPLINETYPE
 70
     6
  9
$SPLINESEGS
 70
     8
  9
$ATTDIA
 70
     1
  9
$ATTREQ
 70
     1
  9
$HANDLING
 70
     1
  9
$HANDSEED
  5
1223
  9
$SURFTAB1
 70
     6
  9
$SURFTAB2
 70
     6
  9
$SURFTYPE
 70
     6
  9
$SURFU
 70
     6
  9
$SURFV
 70
     6
  9
$UCSNAME
  2

  9
$UCSORG
 10
0.0
 20
0.0
 30
0.0
  9
$UCSXDIR
 10
1.0
 20
0.0
 30
0.0
  9
$UCSYDIR
 10
0.0
 20
1.0
 30
0.0
  9
$PUCSNAME
  2

  9
$PUCSORG
 10
0.0
 20
0.0
 30
0.0
  9
$PUCSXDIR
 10
1.0
 20
0.0
 30
0.0
  9
$PUCSYDIR
 10
0.0
 20
1.0
 30
0.0
  9
$USERI1
 70
     0
  9
$USERI2
 70
     0
  9
$USERI3
 70
     0
  9
$USERI4
 70
     0
  9
$USERI5
 70
     0
  9
$USERR1
 40
0.0
  9
$USERR2
 40
0.0
  9
$USERR3
 40
0.0
  9
$USERR4
 40
0.0
  9
$USERR5
 40
0.0
  9
$WORLDVIEW
 70
     1
  9
$SHADEDGE
 70
     3
  9
$SHADEDIF
 70
    70
  9
$TILEMODE
 70
     1
  9
$MAXACTVP
 70
    16
  9
$PLIMCHECK
 70
     0
  9
$PEXTMIN
 10
-0.1169094733181737
 20
-0.1458511145317338
 30
-0.0000000349181948
  9
$PEXTMAX
 10
10.8898477757112193
 20
7.5563657688478223
 30
0.0000000814935746
  9
$PLIMMIN
 10
-0.2500002402958907
 20
-0.2499999962453767
  9
$PLIMMAX
 10
10.7499995194082203
 20
8.2499997634587334
  9
$UNITMODE
 70
     0
  9
$VISRETAIN
 70
     0
  9
$PLINEGEN
 70
     0
  9
$PSLTSCALE
 70
     0
  0
ENDSEC
  0
SECTION
  2
TABLES
  0
TABLE
  2
VPORT
 70
     1
  0
VPORT
  2
*ACTIVE
 70
     0
 10
0.0
 20
0.0
 11
1.0
 21
1.0
 12
0.0
 22
0.0
 13
0.0
 23
0.0
 14
1.0
 24
1.0
 15
10.0
 25
10.0
 16
-0.0000000000001137
 26
0.0
 36
394.9225760166650048
 17
508.8320770263670738
 27
51.7297325134277273
 37
0.0000000000000458
 40
152.2929672531647896
 41
1.7932242990654199
 42
50.0
 43
0.0
 44
0.0
 50
0.0
 51
0.0
 71
     0
 72
  1500
 73
     1
 74
     0
 75
     0
 76
     0
 77
     0
 78
     0
  0
ENDTAB
  0
TABLE
  2
LTYPE
 70
     3
  0
LTYPE
  2
CONTINUOUS
 70
     0
  3
Solid line
 72
    65
 73
     0
 40
0.0
  0
LTYPE
  2
VERDECKT
 70
     0
  3
Verdeckt __ __ __ __ __ __ __ __ __ __ __ __ __
 72
    65
 73
     2
 40
0.375
 49
0.25
 49
-0.125
  0
ENDTAB
  0
TABLE
  2
LAYER
 70
    10
  0
LAYER
  2
0
 70
     0
 62
     7
  6
CONTINUOUS
  0
LAYER
  2
DICHTUNG
 70
     0
 62
   253
  6
CONTINUOUS
  0
ENDTAB
  0
TABLE
  2
STYLE
 70
     6
  0
STYLE
  2
STANDARD
 70
     0
 40
0.0
 41
1.0
 50
0.0
 71
     0
 42
3.5
  3
txt
  4

  0
STYLE
  2
GREEKS
 70
     0
 40
0.0
 41
0.8
 50
0.0
 71
     0
 42
3.5
  3
SIMPLEX.shx
  4

  0
ENDTAB
  0
TABLE
  2
VIEW
 70
     1
  0
ENDTAB
  0
TABLE
  2
UCS
 70
     0
  0
ENDTAB
  0
TABLE
  2
APPID
 70
    12
  0
APPID
  2
ACAD
 70
     0
  0
APPID
  2
ACAD_EXEMPT_FROM_CAD_STANDARDS
 70
     0
  0
APPID
  2
ACAD_NAV_VCDISPLAY
 70
     0
  0
APPID
  2
GRADIENTCOLOR1ACI
 70
     0
  0
APPID
  2
GRADIENTCOLOR2ACI
 70
     0
  0
APPID
  2
ACAD_DSTYLE_DIMRADIAL_EXTENSION
 70
     0
  0
APPID
  2
ACADANNOMONITORALERTICONDI
 70
     0
  0
APPID
  2
ACAD_MLEADERVER
 70
     0
  0
APPID
  2
ACAD_PSEXT
 70
     0
  0
APPID
  2
ACAECLAYERSTANDARD
 70
     0
  0
APPID
  2
ACCMTRANSPARENCY
 70
     0
  0
APPID
  2
ACAD_OBJECT_CHANGE_GUID
 70
     0
  0
ENDTAB
  0
TABLE
  2
DIMSTYLE
 70
     4
  0
DIMSTYLE
  2
STANDARD
 70
     0
  3

  4

  5

  6

  7

 40
1.0
 41
0.18
 42
0.0625
 43
0.38
 44
0.18
 45
0.0
 46
0.0
 47
0.0
 48
0.0
140
0.18
141
0.09
142
0.0
143
25.3999999999999986
144
1.0
145
0.0
146
1.0
147
0.09
 71
     0
 72
     0
 73
     1
 74
     1
 75
     0
 76
     0
 77
     0
 78
     0
170
     0
171
     2
172
     0
173
     0
174
     0
175
     0
176
     0
177
     0
178
     0
  0
ENDTAB
  0
ENDSEC
  0
SECTION
  2
BLOCKS
  0
BLOCK
  8
0
  2
$MODEL_SPACE
 70
     0
 10
0.0
 20
0.0
 30
0.0
  3
$MODEL_SPACE
  1

  0
ENDBLK
  5
42
  8
0
  0
BLOCK
 67
     1
  8
0
  2
$PAPER_SPACE
 70
     0
 10
0.0
 20
0.0
 30
0.0
  3
$PAPER_SPACE
  1

  0
ENDBLK
  5
40
 67
     1
  8
0
  0
BLOCK
  8
0
  2
A$C30993C30
 70
     0
 10
0.0
 20
0.0
 30
0.0
  3
A$C30993C30
  1

  0
CIRCLE
  5
118F
  8
0
  6
CONTINUOUS
 62
     3
 10
508.8320604379787824
 20
71.9124467629708306
 30
0.0000000000000941
 40
32.0
  0
CIRCLE
  5
1190
  8
0
  6
CONTINUOUS
 62
     3
 10
508.8320604379787824
 20
71.9124467629708306
 30
0.0000000000000941
 40
37.0
  0
CIRCLE
  5
1191
  8
0
  6
CONTINUOUS
 62
     3
 10
508.8320604379787824
 20
71.9124467629708306
 30
0.0000000000000941
 40
42.2999999999999474
  0
CIRCLE
  5
1192
  8
0
  6
CONTINUOUS
 62
     3
 10
508.8320604379787824
 20
71.9124467629708306
 30
0.0000000000000941
 40
42.7999999999999474
  0
CIRCLE
  5
1193
  8
0
  6
VERDECKT
 62
     1
 10
508.8320604379787824
 20
71.9124467629708306
 30
0.0000000000000941
 40
40.4999999999999929
  0
CIRCLE
  5
1194
  8
0
  6
VERDECKT
 62
     1
 10
508.8320604379787824
 20
71.9124467629708306
 30
0.0000000000000941
 40
41.8999999999999702
  0
CIRCLE
  5
1195
  8
0
  6
VERDECKT
 62
     1
 10
508.8320604379787824
 20
71.9124467629708306
 30
0.0000000000000941
 40
41.0
  0
CIRCLE
  5
1196
  8
0
  6
VERDECKT
 62
     1
 10
508.8320604379787824
 20
71.9124467629708306
 30
0.0000000000000941
 40
38.7140740033709889
  0
ENDBLK
  5
1198
  8
0
  0
BLOCK
  8
0
  2
A$C70106950
 70
     0
 10
0.0
 20
0.0
 30
0.0
  3
A$C70106950
  1

  0
LINE
  5
119C
  8
0
  6
CONTINUOUS
 62
     3
 10
466.5320604379788847
 20
6.2499999999999734
 30
-0.0000000000000014
 11
551.1320604379787937
 21
6.2499999999999734
 31
-0.0000000000000014
210
0.0
220
1.0
230
-0.0000000000000002
  0
LINE
  5
119D
  8
0
  6
CONTINUOUS
 62
     3
 10
468.3320604379787824
 20
0.7550451610908058
 30
-0.0000000000000002
 11
549.3320604379788392
 21
0.7550451610908058
 31
-0.0000000000000002
210
0.0
220
1.0
230
-0.0000000000000002
  0
LINE
  5
119E
  8
0
  6
CONTINUOUS
 62
     3
 10
468.3320604379787824
 20
-0.3499999999999944
 30
0.0000000000000001
 11
549.3320604379788392
 21
-0.3499999999999944
 31
0.0000000000000001
210
0.0
220
1.0
230
-0.0000000000000002
  0
LINE
  5
119F
  8
0
  6
CONTINUOUS
 62
     3
 10
466.9320604379788051
 20
-1.750000000000028
 30
0.0000000000000004
 11
550.7320604379787028
 21
-1.750000000000028
 31
0.0000000000000004
210
0.0
220
1.0
230
-0.0000000000000002
  0
LINE
  5
11A0
  8
0
  6
CONTINUOUS
 62
     3
 10
466.9320604379788051
 20
-2.750000000000028
 30
0.0000000000000006
 11
550.7320604379787028
 21
-2.750000000000028
 31
0.0000000000000006
210
0.0
220
1.0
230
-0.0000000000000002
  0
LINE
  5
11A1
  8
0
  6
CONTINUOUS
 62
     3
 10
468.3320604379787824
 20
-4.1500000000000057
 30
0.0000000000000009
 11
549.3320604379788392
 21
-4.1500000000000057
 31
0.0000000000000009
210
0.0
220
1.0
230
-0.0000000000000002
  0
LINE
  5
11A2
  8
0
  6
CONTINUOUS
 62
     3
 10
468.3320604379787824
 20
-4.7500000000000293
 30
0.0000000000000011
 11
549.3320604379788392
 21
-4.7500000000000293
 31
0.0000000000000011
210
0.0
220
1.0
230
-0.0000000000000002
  0
LINE
  5
11A3
  8
0
  6
CONTINUOUS
 62
     3
 10
466.0320604379788847
 20
-8.7500000000000018
 30
0.0000000000000019
 11
551.6320604379787937
 21
-8.7500000000000018
 31
0.0000000000000019
210
0.0
220
1.0
230
-0.0000000000000002
  0
LINE
  5
11A4
  8
0
  6
CONTINUOUS
 62
     3
 10
474.3320604379787824
 20
-11.2500000000000302
 30
0.0000000000000025
 11
543.3320604379788392
 21
-11.2500000000000302
 31
0.0000000000000025
210
0.0
220
1.0
230
-0.0000000000000002
  0
ARC
  5
11A5
  8
0
  6
CONTINUOUS
 62
     3
 10
-469.9349989225507898
 20
10.2500000000000302
 30
0.0
 40
0.9999999999999708
210
0.0
220
-0.0000000000000002
230
-1.0
 50
29.4119136655262814
 51
90.0000000000032827
  0
ARC
  5
11A6
  8
0
  6
CONTINUOUS
 62
     3
 10
-547.7291219534068887
 20
10.2500000000000302
 30
0.0
 40
0.9999999999999857
210
0.0
220
-0.0000000000000002
230
-1.0
 50
89.9999999999934914
 51
150.5880863344721092
  0
LINE
  5
11A7
  8
0
  6
CONTINUOUS
 62
     3
 10
547.7291219534066613
 20
11.2500000000000107
 30
-0.0000000000000025
 11
469.9349989225507898
 21
11.2500000000000107
 31
-0.0000000000000025
210
0.0
220
1.0
230
-0.0000000000000002
  0
LINE
  5
11A8
  8
0
  6
CONTINUOUS
 62
     3
 10
548.6002336707562108
 20
10.74108489683233
 30
-0.0000000000000024
 11
551.1320604379787937
 21
6.2499999999999849
 31
-0.0000000000000014
210
0.0
220
1.0
230
-0.0000000000000002
  0
LINE
  5
11A9
  8
0
  6
CONTINUOUS
 62
     3
 10
469.0638872052015245
 20
10.7410848968322998
 30
-0.0000000000000024
 11
466.5320604379788847
 21
6.2499999999999849
 31
-0.0000000000000014
210
0.0
220
1.0
230
-0.0000000000000002
  0
ARC
  5
11AA
  8
0
  6
CONTINUOUS
 62
     3
 10
-469.6179864346078148
 20
5.749999999999976
 30
0.0
 40
0.5000000000000444
210
0.0
220
-0.0000000000000002
230
-1.0
 50
90.0
 51
199.9999999999957083
  0
ARC
  5
11AB
  8
0
  6
CONTINUOUS
 62
     3
 10
-548.04613444134975
 20
5.749999999999992
 30
0.0
 40
0.5000000000000357
210
0.0
220
-0.0000000000000002
230
-1.0
 50
340.0000000000025011
 51
90.0000000000000284
  0
LINE
  5
11AC
  8
0
  6
CONTINUOUS
 62
     3
 10
547.5762881309567547
 20
5.5789899283371662
 30
-0.0000000000000012
 11
549.3320604379788392
 21
0.7550451610908058
 31
-0.0000000000000002
210
0.0
220
1.0
230
-0.0000000000000002
  0
LINE
  5
11AD
  8
0
  6
CONTINUOUS
 62
     3
 10
470.0878327450006964
 20
5.5789899283371662
 30
-0.0000000000000012
 11
468.3320604379787824
 21
0.7550451610908058
 31
-0.0000000000000002
210
0.0
220
1.0
230
-0.0000000000000002
  0
LINE
  5
11AE
  8
0
  6
CONTINUOUS
 62
     3
 10
549.3320604379788392
 20
0.7550451610908058
 30
-0.0000000000000002
 11
549.3320604379788392
 21
-0.3499999999999944
 31
0.0000000000000001
210
0.0
220
1.0
230
-0.0000000000000002
  0
LINE
  5
11AF
  8
0
  6
CONTINUOUS
 62
     3
 10
468.3320604379787824
 20
0.7550451610908058
 30
-0.0000000000000002
 11
468.3320604379787824
 21
-0.3499999999999944
 31
0.0000000000000001
210
0.0
220
1.0
230
-0.0000000000000002
  0
LINE
  5
11B0
  8
0
  6
CONTINUOUS
 62
     3
 10
549.3320604379788392
 20
-0.3500000000000228
 30
0.0000000000000001
 11
550.7320604379787028
 21
-1.7500000000000571
 31
0.0000000000000004
210
0.0
220
1.0
230
-0.0000000000000002
  0
LINE
  5
11B1
  8
0
  6
CONTINUOUS
 62
     3
 10
468.3320604379787824
 20
-0.3499999999999944
 30
0.0000000000000001
 11
466.9320604379788051
 21
-1.750000000000028
 31
0.0000000000000004
210
0.0
220
1.0
230
-0.0000000000000002
  0
LINE
  5
11B2
  8
0
  6
CONTINUOUS
 62
     3
 10
550.7320604379787028
 20
-1.750000000000028
 30
0.0000000000000004
 11
550.7320604379787028
 21
-2.750000000000028
 31
0.0000000000000006
210
0.0
220
1.0
230
-0.0000000000000002
  0
LINE
  5
11B3
  8
0
  6
CONTINUOUS
 62
     3
 10
466.9320604379788051
 20
-1.750000000000028
 30
0.0000000000000004
 11
466.9320604379788051
 21
-2.750000000000028
 31
0.0000000000000006
210
0.0
220
1.0
230
-0.0000000000000002
  0
LINE
  5
11B4
  8
0
  6
CONTINUOUS
 62
     3
 10
468.3320604379787824
 20
-4.1500000000000057
 30
0.0000000000000009
 11
466.9320604379788051
 21
-2.750000000000028
 31
0.0000000000000006
210
0.0
220
1.0
230
-0.0000000000000002
  0
LINE
  5
11B5
  8
0
  6
CONTINUOUS
 62
     3
 10
549.3320604379788392
 20
-4.1499999999999782
 30
0.0000000000000009
 11
550.7320604379787028
 21
-2.75
 31
0.0000000000000006
210
0.0
220
1.0
230
-0.0000000000000002
  0
LINE
  5
11B6
  8
0
  6
CONTINUOUS
 62
     3
 10
549.3320604379788392
 20
-4.1500000000000057
 30
0.0000000000000009
 11
549.3320604379788392
 21
-4.7500000000000293
 31
0.0000000000000011
210
0.0
220
1.0
230
-0.0000000000000002
  0
LINE
  5
11B7
  8
0
  6
CONTINUOUS
 62
     3
 10
468.3320604379787824
 20
-4.1500000000000057
 30
0.0000000000000009
 11
468.3320604379787824
 21
-4.7500000000000293
 31
0.0000000000000011
210
0.0
220
1.0
230
-0.0000000000000002
  0
LINE
  5
11B8
  8
0
  6
CONTINUOUS
 62
     3
 10
549.3320604379788392
 20
-4.7500000000000293
 30
0.0000000000000011
 11
551.6320604379787937
 21
-8.7500000000000018
 31
0.0000000000000019
210
0.0
220
1.0
230
-0.0000000000000002
  0
LINE
  5
11B9
  8
0
  6
CONTINUOUS
 62
     3
 10
468.3320604379787824
 20
-4.7500000000000293
 30
0.0000000000000011
 11
466.0320604379788847
 21
-8.7500000000000018
 31
0.0000000000000019
210
0.0
220
1.0
230
-0.0000000000000002
  0
ARC
  5
11BA
  8
0
  6
CONTINUOUS
 62
     3
 10
-474.3320604379787255
 20
-7.2500000000001403
 30
0.0
 40
3.999999999999889
210
0.0
220
-0.0000000000000002
230
-1.0
 50
270.0
 51
337.9756871629602983
  0
ARC
  5
11BB
  8
0
  6
CONTINUOUS
 62
     3
 10
-543.3320604379789529
 20
-7.24999999999996
 30
0.0
 40
4.0000000000000169
210
0.0
220
-0.0000000000000002
230
-1.0
 50
202.0243128370420891
 51
270.0000000000017053
  0
LINE
  5
11BC
  8
0
  6
VERDECKT
 62
     1
 10
476.8320604379787824
 20
-9.7500000000000018
 30
0.0000000000000022
 11
540.8320604379788392
 21
-9.7500000000000018
 31
0.0000000000000022
210
0.0
220
1.0
230
-0.0000000000000002
  0
LINE
  5
11BD
  8
0
  6
VERDECKT
 62
     1
 10
471.8320604379787824
 20
5.2499999999999716
 30
-0.0000000000000012
 11
545.8320604379788392
 21
5.2499999999999716
 31
-0.0000000000000012
210
0.0
220
1.0
230
-0.0000000000000002
  0
ARC
  5
11BE
  8
0
  6
VERDECKT
 62
     1
 10
-476.8320604379787824
 20
-4.7500000000001066
 30
0.0
 40
4.999999999999921
210
0.0
220
-0.0000000000000002
230
-1.0
 50
270.0
 51
0.0000000000015394
  0
ARC
  5
11BF
  8
0
  6
VERDECKT
 62
     1
 10
-540.8320604379788392
 20
-4.7499999999999156
 30
0.0
 40
5.0000000000001128
210
0.0
220
-0.0000000000000002
230
-1.0
 50
180.0000000000011937
 51
270.0
  0
LINE
  5
11C0
  8
0
  6
VERDECKT
 62
     1
 10
545.8320604379788392
 20
5.2499999999999716
 30
-0.0000000000000012
 11
545.8320604379788392
 21
-4.7500000000000293
 31
0.0000000000000011
210
0.0
220
1.0
230
-0.0000000000000002
  0
LINE
  5
11C1
  8
0
  6
VERDECKT
 62
     1
 10
471.8320604379787824
 20
5.2499999999999716
 30
-0.0000000000000012
 11
471.8320604379787824
 21
-4.7500000000000293
 31
0.0000000000000011
210
0.0
220
1.0
230
-0.0000000000000002
  0
LINE
  5
11C2
  8
0
  6
VERDECKT
 62
     1
 10
471.8320604379787824
 20
5.2499999999999716
 30
-0.0000000000000012
 11
470.9198066755629952
 21
10.4236481776669301
 31
-0.0000000000000023
210
0.0
220
1.0
230
-0.0000000000000002
  0
LINE
  5
11C3
  8
0
  6
VERDECKT
 62
     1
 10
545.8320604379788392
 20
5.2499999999999627
 30
-0.0000000000000012
 11
546.7443142003945695
 21
10.4236481776669194
 31
-0.0000000000000023
210
0.0
220
1.0
230
-0.0000000000000002
  0
ARC
  5
11C4
  8
0
  6
VERDECKT
 62
     1
 10
-469.9349989225507898
 20
10.2499999999998703
 30
0.0
 40
1.0000000000001359
210
0.0
220
-0.0000000000000002
230
-1.0
 50
90.0000000000032543
 51
169.9999999999932925
  0
ARC
  5
11C5
  8
0
  6
VERDECKT
 62
     1
 10
-547.7291219534065476
 20
10.2500000000001901
 30
0.0
 40
0.9999999999998586
210
0.0
220
-0.0000000000000002
230
-1.0
 50
9.9999999999924203
 51
90.0000000000065086
  0
LINE
  5
11C6
  8
0
  6
VERDECKT
 62
     1
 10
549.0077262421477826
 20
-7.2225600474012319
 30
0.0000000000000016
 11
549.8320604379788392
 21
-8.7500000000000018
 31
0.0000000000000019
210
0.0
220
1.0
230
-0.0000000000000002
  0
LINE
  5
11C7
  8
0
  6
VERDECKT
 62
     1
 10
468.6563946338097821
 20
-7.2225600474012319
 30
0.0000000000000016
 11
467.8320604379787824
 21
-8.7500000000000018
 31
0.0000000000000019
210
0.0
220
1.0
230
-0.0000000000000002
  0
ARC
  5
11C8
  8
0
  6
VERDECKT
 62
     1
 10
-469.4484142591489899
 20
-7.649999999999884
 30
0.0
 40
0.8999999999998539
210
0.0
220
-0.0000000000000002
230
-1.0
 50
28.355006028399
 51
90.0000000000000284
  0
ARC
  5
11C9
  8
0
  6
VERDECKT
 62
     1
 10
-469.4484142591488762
 20
-7.6499999999999551
 30
0.0
 40
0.8999999999999195
210
0.0
220
-0.0000000000000002
230
-1.0
 50
90.0000000000035953
 51
175.3175831377299119
  0
ARC
  5
11CA
  8
0
  6
VERDECKT
 62
     1
 10
-548.2157066168083475
 20
-7.6499999999997916
 30
0.0
 40
0.8999999999996799
210
0.0
220
-0.0000000000000002
230
-1.0
 50
4.6824168622614399
 51
90.0000000000072191
  0
ARC
  5
11CB
  8
0
  6
VERDECKT
 62
     1
 10
-548.2157066168085748
 20
-7.6499999999998067
 30
0.0
 40
0.8999999999997712
210
0.0
220
-0.0000000000000002
230
-1.0
 50
89.9999999999927667
 51
151.6449939716029007
  0
LINE
  5
11CC
  8
0
  6
VERDECKT
 62
     1
 10
548.2157066168085748
 20
-6.7500000000000382
 30
0.0000000000000015
 11
469.4484142591489899
 21
-6.7500000000000364
 31
0.0000000000000015
210
0.0
220
1.0
230
-0.0000000000000002
  0
ARC
  5
11CD
  8
0
  6
VERDECKT
 62
     1
 10
-474.3320604379774181
 20
-7.2500000000003268
 30
0.0
 40
3.9999999999986291
210
0.0
220
-0.0000000000000002
230
-1.0
 50
337.9756871629548982
 51
355.3175831377341183
  0
ARC
  5
11CE
  8
0
  6
VERDECKT
 62
     1
 10
-543.3320604379758834
 20
-7.2499999999996376
 30
0.0
 40
4.0000000000028759
210
0.0
220
-0.0000000000000002
230
-1.0
 50
184.6824168622707987
 51
202.024312837030493
  0
LINE
  5
11CF
  8
0
  6
VERDECKT
 62
     1
 10
540.8320604379788392
 20
-9.7500000000000018
 30
0.0000000000000022
 11
540.8320604379788392
 21
-11.25
 31
0.0000000000000025
210
0.0
220
1.0
230
-0.0000000000000002
  0
LINE
  5
11D0
  8
0
  6
VERDECKT
 62
     1
 10
476.8320604379787824
 20
-9.7500000000000018
 30
0.0000000000000022
 11
476.8320604379787824
 21
-11.25
 31
0.0000000000000025
210
0.0
220
1.0
230
-0.0000000000000002
  0
ENDBLK
  5
11D2
  8
0
  0
ENDSEC
  0
SECTION
  2
ENTITIES
  0
INSERT
  5
1199
  8
DICHTUNG
  2
A$C30993C30
 10
0.0
 20
0.0
 30
0.0
  0
INSERT
  5
11D3
  8
DICHTUNG
  2
A$C70106950
 10
0.0
 20
0.0
 30
0.0
  0
VIEWPORT
  5
6A0
 67
     1
  8
0
 10
5.6863723085619284
 20
3.061772012509024
 30
0.0
 40
21.7546961288393987
 41
12.1316090464407296
 68
     1
 69
     1
1001
ACAD
1000
MVIEW
1002
{
1070
    16
1010
0.0
1020
0.0
1030
0.0
1010
0.0
1020
0.0
1030
1.0
1040
0.0
1040
12.1316090464407296
1040
5.6863723085619284
1040
3.061772012509024
1040
50.0
1040
0.0
1040
0.0
1070
     0
1070
  1500
1070
     1
1070
     1
1070
     0
1070
     0
1070
     0
1070
     0
1040
0.0
1040
0.0
1040
0.0
1040
10.0
1040
10.0
1040
10.0
1040
10.0
1070
     0
1002
{
1002
}
1002
}
  0
ENDSEC
  0
EOF
