  0
SECTION
  2
HEADER
  9
$ACADVER
  1
AC1009
  9
$INSBASE
 10
0.0
 20
0.0
 30
0.0
  9
$EXTMIN
 10
-210.038449214816012
 20
-520.0275385286977325
 30
-0.0091545749563693
  9
$EXTMAX
 10
210.0512714870874049
 20
300.1087214391549765
 30
0.013733259418018
  9
$LIMMIN
 10
0.0
 20
0.0
  9
$LIMMAX
 10
1050.0
 20
1485.0
  9
$ORTHOMODE
 70
     1
  9
$REGENMODE
 70
     1
  9
$FILLMODE
 70
     1
  9
$QTEXTMODE
 70
     0
  9
$MIRRTEXT
 70
     1
  9
$DRAGMODE
 70
     2
  9
$LTSCALE
 40
50.0
  9
$OSMODE
 70
  2559
  9
$ATTMODE
 70
     1
  9
$TEXTSIZE
 40
2.5
  9
$TRACEWID
 40
0.5
  9
$TEXTSTYLE
  7
GREEKS
  9
$CLAYER
  8
STEMPEL
  9
$CELTYPE
  6
BYLAYER
  9
$CECOLOR
 62
   256
  9
$DIMSCALE
 40
5.0
  9
$DIMASZ
 40
3.5
  9
$DIMEXO
 40
1.0
  9
$DIMDLI
 40
7.0
  9
$DIMRND
 40
0.0
  9
$DIMDLE
 40
0.0
  9
$DIMEXE
 40
1.0
  9
$DIMTP
 40
3.0
  9
$DIMTM
 40
3.0
  9
$DIMTXT
 40
3.5
  9
$DIMCEN
 40
1.5
  9
$DIMTSZ
 40
0.0
  9
$DIMTOL
 70
     0
  9
$DIMLIM
 70
     0
  9
$DIMTIH
 70
     0
  9
$DIMTOH
 70
     0
  9
$DIMSE1
 70
     0
  9
$DIMSE2
 70
     0
  9
$DIMTAD
 70
     1
  9
$DIMZIN
 70
     8
  9
$DIMBLK
  1

  9
$DIMASO
 70
     1
  9
$DIMSHO
 70
     0
  9
$DIMPOST
  1

  9
$DIMAPOST
  1

  9
$DIMALT
 70
     0
  9
$DIMALTD
 70
     2
  9
$DIMALTF
 40
25.3999999999999986
  9
$DIMLFAC
 40
1.0
  9
$DIMTOFL
 70
     1
  9
$DIMTVP
 40
0.0
  9
$DIMTIX
 70
     0
  9
$DIMSOXD
 70
     0
  9
$DIMSAH
 70
     0
  9
$DIMBLK1
  1

  9
$DIMBLK2
  1

  9
$DIMSTYLE
  2
STANDARD
  9
$DIMCLRD
 70
     0
  9
$DIMCLRE
 70
     0
  9
$DIMCLRT
 70
     1
  9
$DIMTFAC
 40
0.5
  9
$DIMGAP
 40
1.5
  9
$LUNITS
 70
     2
  9
$LUPREC
 70
     2
  9
$SKETCHINC
 40
1.0
  9
$FILLETRAD
 40
0.0
  9
$AUNITS
 70
     0
  9
$AUPREC
 70
     0
  9
$MENU
  1
ACAD
  9
$ELEVATION
 40
0.0
  9
$PELEVATION
 40
0.0
  9
$THICKNESS
 40
0.0
  9
$LIMCHECK
 70
     0
  9
$BLIPMODE
 70
     0
  9
$CHAMFERA
 40
0.0
  9
$CHAMFERB
 40
0.0
  9
$SKPOLY
 70
     0
  9
$TDCREATE
 40
2452067.4823611108586192
  9
$TDUPDATE
 40
2458382.6327083338983357
  9
$TDINDWG
 40
0.0922305093
  9
$TDUSRTIMER
 40
0.0922305093
  9
$USRTIMER
 70
     1
  9
$ANGBASE
 50
0.0
  9
$ANGDIR
 70
     0
  9
$PDMODE
 70
     0
  9
$PDSIZE
 40
0.0
  9
$PLINEWID
 40
0.0
  9
$COORDS
 70
     1
  9
$SPLFRAME
 70
     0
  9
$SPLINETYPE
 70
     6
  9
$SPLINESEGS
 70
     8
  9
$ATTDIA
 70
     1
  9
$ATTREQ
 70
     1
  9
$HANDLING
 70
     1
  9
$HANDSEED
  5
F51
  9
$SURFTAB1
 70
     6
  9
$SURFTAB2
 70
     6
  9
$SURFTYPE
 70
     6
  9
$SURFU
 70
     6
  9
$SURFV
 70
     6
  9
$UCSNAME
  2

  9
$UCSORG
 10
0.0
 20
0.0
 30
0.0
  9
$UCSXDIR
 10
1.0
 20
0.0
 30
0.0
  9
$UCSYDIR
 10
0.0
 20
1.0
 30
0.0
  9
$PUCSNAME
  2

  9
$PUCSORG
 10
0.0
 20
0.0
 30
0.0
  9
$PUCSXDIR
 10
1.0
 20
0.0
 30
0.0
  9
$PUCSYDIR
 10
0.0
 20
1.0
 30
0.0
  9
$USERI1
 70
     0
  9
$USERI2
 70
     0
  9
$USERI3
 70
     0
  9
$USERI4
 70
     0
  9
$USERI5
 70
     0
  9
$USERR1
 40
0.0
  9
$USERR2
 40
0.0
  9
$USERR3
 40
0.0
  9
$USERR4
 40
0.0
  9
$USERR5
 40
0.0
  9
$WORLDVIEW
 70
     1
  9
$SHADEDGE
 70
     3
  9
$SHADEDIF
 70
    70
  9
$TILEMODE
 70
     1
  9
$MAXACTVP
 70
    16
  9
$PLIMCHECK
 70
     0
  9
$PEXTMIN
 10
-0.0572121086698658
 20
-0.0722274494272739
 30
-0.0015258207003583
  9
$PEXTMAX
 10
11.5044402399158407
 20
16.3430800137868388
 30
0.0000000349246037
  9
$PLIMMIN
 10
-0.1979161059762549
 20
-0.1979166503966324
  9
$PLIMMAX
 10
11.4920836921751999
 20
8.0687497919938682
  9
$UNITMODE
 70
     0
  9
$VISRETAIN
 70
     0
  9
$PLINEGEN
 70
     0
  9
$PSLTSCALE
 70
     1
  0
ENDSEC
  0
SECTION
  2
TABLES
  0
TABLE
  2
VPORT
 70
     1
  0
VPORT
  2
*ACTIVE
 70
     0
 10
0.0
 20
0.0
 11
1.0
 21
1.0
 12
0.0064111361357391
 22
-154.9667327635212928
 13
0.0
 23
0.0
 14
1.0
 24
1.0
 15
10.0
 25
10.0
 16
-0.0000000000003773
 26
0.0
 36
1699.0410895799720947
 17
0.0
 27
45.00732421875
 37
-0.0000000000000333
 40
824.3170735275868992
 41
1.868197278911564
 42
50.0
 43
0.0
 44
0.0
 50
0.0
 51
0.0
 71
     0
 72
  1500
 73
     1
 74
     0
 75
     0
 76
     0
 77
     0
 78
     0
  0
ENDTAB
  0
TABLE
  2
LTYPE
 70
     3
  0
LTYPE
  2
CONTINUOUS
 70
     0
  3
Solid line
 72
    65
 73
     0
 40
0.0
  0
LTYPE
  2
VERDECKT
 70
     0
  3
_ _ _ _ _ _ _ _ _ _ _ _ _ _ _ _ _ _ _ _ _ _ _
 72
    65
 73
     2
 40
0.375
 49
0.25
 49
-0.125
  0
ENDTAB
  0
TABLE
  2
LAYER
 70
    12
  0
LAYER
  2
0
 70
     0
 62
     7
  6
CONTINUOUS
  0
LAYER
  2
VOLL
 70
     0
 62
     1
  6
CONTINUOUS
  0
LAYER
  2
STEMPEL
 70
     0
 62
     3
  6
CONTINUOUS
  0
LAYER
  2
DEFPOINTS
 70
     0
 62
     7
  6
CONTINUOUS
  0
LAYER
  2
ADSK_ASSOC_ENTITY_BACKUPS
 70
     1
 62
    -7
  6
CONTINUOUS
  0
ENDTAB
  0
TABLE
  2
STYLE
 70
     2
  0
STYLE
  2
STANDARD
 70
     0
 40
0.0
 41
1.0
 50
0.0
 71
     0
 42
3.5
  3
txt
  4

  0
STYLE
  2
GREEKS
 70
     0
 40
0.0
 41
0.8
 50
0.0
 71
     0
 42
2.5
  3
SIMPLEX.shx
  4

  0
ENDTAB
  0
TABLE
  2
VIEW
 70
     1
  0
ENDTAB
  0
TABLE
  2
UCS
 70
     0
  0
ENDTAB
  0
TABLE
  2
APPID
 70
    14
  0
APPID
  2
ACAD
 70
     0
  0
APPID
  2
ACADANNOMONITORALERTICONDI
 70
     0
  0
APPID
  2
ACAD_EXEMPT_FROM_CAD_STANDARDS
 70
     0
  0
APPID
  2
ACAD_NAV_VCDISPLAY
 70
     0
  0
APPID
  2
GRADIENTCOLOR1ACI
 70
     0
  0
APPID
  2
GRADIENTCOLOR2ACI
 70
     0
  0
APPID
  2
ACAD_MLEADERVER
 70
     0
  0
APPID
  2
ACAECLAYERSTANDARD
 70
     0
  0
APPID
  2
ACCMTRANSPARENCY
 70
     0
  0
APPID
  2
ACAD_OBJECT_CHANGE_GUID
 70
     0
  0
APPID
  2
ACAD_PSEXT
 70
     0
  0
APPID
  2
ACSYNERGY
 70
     0
  0
APPID
  2
SYNERGY_BODY_TBR_ID
 70
     0
  0
APPID
  2
ACAD_VIEW_EDGE_ID
 70
     0
  0
ENDTAB
  0
TABLE
  2
DIMSTYLE
 70
     1
  0
DIMSTYLE
  2
STANDARD
 70
     0
  3

  4

  5

  6

  7

 40
1.0
 41
0.18
 42
0.0625
 43
0.38
 44
0.18
 45
0.0
 46
0.0
 47
0.0
 48
0.0
140
0.18
141
0.09
142
0.0
143
25.3999999999999986
144
1.0
145
0.0
146
1.0
147
0.09
 71
     0
 72
     0
 73
     1
 74
     1
 75
     0
 76
     0
 77
     0
 78
     0
170
     0
171
     2
172
     0
173
     0
174
     0
175
     0
176
     0
177
     0
178
     0
  0
ENDTAB
  0
ENDSEC
  0
SECTION
  2
BLOCKS
  0
BLOCK
  8
0
  2
$MODEL_SPACE
 70
     0
 10
0.0
 20
0.0
 30
0.0
  3
$MODEL_SPACE
  1

  0
ENDBLK
  5
4A
  8
0
  0
BLOCK
 67
     1
  8
0
  2
$PAPER_SPACE
 70
     0
 10
0.0
 20
0.0
 30
0.0
  3
$PAPER_SPACE
  1

  0
ENDBLK
  5
622
 67
     1
  8
0
  0
BLOCK
  8
0
  2
*S8
 70
     1
 10
0.0
 20
0.0
 30
0.0
  3
*S8
  1

  0
ENDBLK
  5
5D0
  8
0
  0
BLOCK
  8
0
  2
A$C2BFB4EFD
 70
     0
 10
0.0
 20
0.0
 30
0.0
  3
A$C2BFB4EFD
  1

  0
CIRCLE
  5
ED4
  8
0
  6
CONTINUOUS
 62
     3
 10
0.0000000000000338
 20
0.0000000000000568
 30
0.0
 40
166.9499999999999886
  0
CIRCLE
  5
ED5
  8
0
  6
CONTINUOUS
 62
     3
 10
0.0000000000000666
 20
0.0000000000000659
 30
0.0
 40
157.9500000000003013
  0
CIRCLE
  5
ED6
  8
0
  6
CONTINUOUS
 62
     3
 10
0.0000000000000666
 20
0.0000000000000659
 30
0.0
 40
161.9499999999999886
  0
CIRCLE
  5
ED7
  8
0
  6
CONTINUOUS
 62
     3
 10
0.0000000000000338
 20
0.0000000000000002
 30
0.0
 40
210.0
  0
CIRCLE
  5
ED8
  8
0
  6
VERDECKT
 62
     1
 10
0.0000000000000338
 20
0.0000000000000002
 30
0.0
 40
163.5
  0
ENDBLK
  5
EDA
  8
0
  0
BLOCK
  8
0
  2
A$C46E06AB2
 70
     0
 10
0.0
 20
0.0
 30
0.0
  3
A$C46E06AB2
  1

  0
LINE
  5
EDE
  8
0
  6
CONTINUOUS
 62
     3
 10
-161.9499999999997897
 20
156.9999999999998863
 30
-0.0000000000000349
 11
161.9499999999997897
 21
156.9999999999998863
 31
-0.0000000000000349
210
0.0
220
1.0
230
-0.0000000000000002
  0
ARC
  5
EDF
  8
0
  6
CONTINUOUS
 62
     3
 10
161.9500000000001023
 20
151.9999999999998863
 30
0.0
 40
4.9999999999999707
210
0.0
220
-0.0000000000000002
230
-1.0
 50
0.0000000000013104
 51
90.0000000000029416
  0
ARC
  5
EE0
  8
0
  6
CONTINUOUS
 62
     3
 10
-161.9500000000001023
 20
151.9999999999998863
 30
0.0
 40
4.9999999999999707
210
0.0
220
-0.0000000000000002
230
-1.0
 50
89.9999999999970584
 51
179.9999999999990052
  0
LINE
  5
EE1
  8
0
  6
CONTINUOUS
 62
     3
 10
-161.9499999999999886
 20
300.0
 30
-0.0000000000000666
 11
161.9499999999999886
 21
300.0
 31
-0.0000000000000666
210
0.0
220
1.0
230
-0.0000000000000002
  0
LINE
  5
EE2
  8
0
  6
CONTINUOUS
 62
     3
 10
-161.9499999999999886
 20
0.0
 30
0.0
 11
161.9499999999999886
 21
0.0
 31
0.0
210
0.0
220
1.0
230
-0.0000000000000002
  0
LINE
  5
EE3
  8
0
  6
CONTINUOUS
 62
     3
 10
161.9499999999999886
 20
300.0
 30
-0.0000000000000666
 11
161.9499999999999886
 21
156.9999999999998863
 31
-0.0000000000000349
210
0.0
220
1.0
230
-0.0000000000000002
  0
LINE
  5
EE4
  8
0
  6
CONTINUOUS
 62
     3
 10
161.9499999999999886
 20
140.0000000000001137
 30
-0.0000000000000311
 11
161.9499999999999886
 21
0.0
 31
0.0
210
0.0
220
1.0
230
-0.0000000000000002
  0
LINE
  5
EE5
  8
0
  6
CONTINUOUS
 62
     3
 10
-161.9499999999999886
 20
300.0
 30
-0.0000000000000666
 11
-161.9499999999999886
 21
156.9999999999998863
 31
-0.0000000000000349
210
0.0
220
1.0
230
-0.0000000000000002
  0
LINE
  5
EE6
  8
0
  6
CONTINUOUS
 62
     3
 10
-161.9499999999999886
 20
140.0000000000001137
 30
-0.0000000000000311
 11
-161.9499999999999886
 21
0.0
 31
0.0
210
0.0
220
1.0
230
-0.0000000000000002
  0
LINE
  5
EE7
  8
0
  6
CONTINUOUS
 62
     3
 10
210.0
 20
152.0000000000001137
 30
-0.0000000000000338
 11
-210.0
 21
152.0000000000001137
 31
-0.0000000000000338
210
0.0
220
1.0
230
-0.0000000000000002
  0
LINE
  5
EE8
  8
0
  6
CONTINUOUS
 62
     3
 10
-210.0
 20
148.0000000000001137
 30
-0.0000000000000329
 11
210.0
 21
148.0000000000001137
 31
-0.0000000000000329
210
0.0
220
1.0
230
-0.0000000000000002
  0
LINE
  5
EE9
  8
0
  6
CONTINUOUS
 62
     3
 10
210.0
 20
152.0000000000001137
 30
-0.0000000000000338
 11
210.0
 21
148.0000000000001137
 31
-0.0000000000000329
210
0.0
220
1.0
230
-0.0000000000000002
  0
LINE
  5
EEA
  8
0
  6
CONTINUOUS
 62
     3
 10
-210.0
 20
152.0000000000001137
 30
-0.0000000000000338
 11
-210.0
 21
148.0000000000001137
 31
-0.0000000000000329
210
0.0
220
1.0
230
-0.0000000000000002
  0
LINE
  5
EEB
  8
0
  6
CONTINUOUS
 62
     3
 10
-210.0
 20
140.0000000000001137
 30
-0.0000000000000311
 11
210.0
 21
140.0000000000001137
 31
-0.0000000000000311
210
0.0
220
1.0
230
-0.0000000000000002
  0
LINE
  5
EEC
  8
0
  6
CONTINUOUS
 62
     3
 10
210.0
 20
148.0000000000001137
 30
-0.0000000000000329
 11
-210.0
 21
148.0000000000001137
 31
-0.0000000000000329
210
0.0
220
1.0
230
-0.0000000000000002
  0
LINE
  5
EED
  8
0
  6
CONTINUOUS
 62
     3
 10
210.0
 20
148.0000000000001137
 30
-0.0000000000000329
 11
210.0
 21
140.0000000000001137
 31
-0.0000000000000311
210
0.0
220
1.0
230
-0.0000000000000002
  0
LINE
  5
EEE
  8
0
  6
CONTINUOUS
 62
     3
 10
-210.0
 20
148.0000000000001137
 30
-0.0000000000000329
 11
-210.0
 21
140.0000000000001137
 31
-0.0000000000000311
210
0.0
220
1.0
230
-0.0000000000000002
  0
LINE
  5
EEF
  8
0
  6
VERDECKT
 62
     1
 10
161.9499999999999886
 20
156.9999999999998863
 30
-0.0000000000000349
 11
161.9499999999999886
 21
152.0
 31
-0.0000000000000338
210
0.0
220
1.0
230
-0.0000000000000002
  0
LINE
  5
EF0
  8
0
  6
VERDECKT
 62
     1
 10
-161.9499999999999886
 20
156.9999999999998863
 30
-0.0000000000000349
 11
-161.9499999999999886
 21
152.0
 31
-0.0000000000000338
210
0.0
220
1.0
230
-0.0000000000000002
  0
LINE
  5
EF1
  8
0
  6
VERDECKT
 62
     1
 10
157.9500000000003013
 20
300.0000000000002842
 30
-0.0000000000000666
 11
157.9500000000003013
 21
0.0
 31
0.0
210
0.0
220
1.0
230
-0.0000000000000002
  0
LINE
  5
EF2
  8
0
  6
VERDECKT
 62
     1
 10
-157.9500000000003013
 20
300.0000000000002842
 30
-0.0000000000000666
 11
-157.9500000000003013
 21
0.0
 31
0.0
210
0.0
220
1.0
230
-0.0000000000000002
  0
LINE
  5
EF3
  8
0
  6
VERDECKT
 62
     1
 10
161.9499999999999886
 20
156.9999999999998863
 30
-0.0000000000000349
 11
161.9499999999999886
 21
140.0000000000001137
 31
-0.0000000000000311
210
0.0
220
1.0
230
-0.0000000000000002
  0
LINE
  5
EF4
  8
0
  6
VERDECKT
 62
     1
 10
-161.9499999999999886
 20
156.9999999999998863
 30
-0.0000000000000349
 11
-161.9499999999999886
 21
140.0000000000001137
 31
-0.0000000000000311
210
0.0
220
1.0
230
-0.0000000000000002
  0
LINE
  5
EF5
  8
0
  6
VERDECKT
 62
     1
 10
163.5
 20
152.0000000000001137
 30
-0.0000000000000338
 11
163.5
 21
148.0000000000001137
 31
-0.0000000000000329
210
0.0
220
1.0
230
-0.0000000000000002
  0
LINE
  5
EF6
  8
0
  6
VERDECKT
 62
     1
 10
-163.5
 20
152.0000000000001137
 30
-0.0000000000000338
 11
-163.5
 21
148.0000000000001137
 31
-0.0000000000000329
210
0.0
220
1.0
230
-0.0000000000000002
  0
LINE
  5
EF7
  8
0
  6
VERDECKT
 62
     1
 10
163.5
 20
148.0000000000001137
 30
-0.0000000000000329
 11
163.5
 21
140.0000000000001137
 31
-0.0000000000000311
210
0.0
220
1.0
230
-0.0000000000000002
  0
LINE
  5
EF8
  8
0
  6
VERDECKT
 62
     1
 10
-163.5
 20
148.0000000000001137
 30
-0.0000000000000329
 11
-163.5
 21
140.0000000000001137
 31
-0.0000000000000311
210
0.0
220
1.0
230
-0.0000000000000002
  0
ENDBLK
  5
EFA
  8
0
  0
ENDSEC
  0
SECTION
  2
ENTITIES
  0
TEXT
  5
195
  8
VOLL
 10
78.076754716981128
 20
31.025947764705851
 30
0.0
 40
1.8
  1

  7
GREEKS
  0
TEXT
  5
427
  8
VOLL
 10
4978.7057667088147355
 20
438.7834624396555796
 30
0.0
 40
9.0
  1

  7
GREEKS
  0
TEXT
  5
428
  8
VOLL
 10
5585.7196100547189417
 20
1475.3855026659680334
 30
0.0
 40
9.0
  1

  7
GREEKS
  0
TEXT
  5
429
  8
VOLL
 10
7234.885664876816918
 20
557.4383824955020827
 30
0.0
 40
9.0
  1

  7
GREEKS
  0
TEXT
  5
42A
  8
VOLL
 10
7215.7242823051310552
 20
501.4192638531977764
 30
0.0
 40
9.0
  1

  7
GREEKS
  0
INSERT
  5
5D2
  8
ADSK_ASSOC_ENTITY_BACKUPS
  2
*S8
 10
0.0
 20
0.0
 30
0.0
  0
INSERT
  5
EDB
  8
STEMPEL
  2
A$C2BFB4EFD
 10
0.0
 20
-310.0
 30
0.0
  0
INSERT
  5
EFB
  8
STEMPEL
  2
A$C46E06AB2
 10
0.0
 20
0.0
 30
0.0
  0
VIEWPORT
  5
626
 67
     1
  8
0
 10
5.723614065622983
 20
8.1354262821797825
 30
0.0
 40
32.4831673943576718
 41
16.5435520527704689
 68
     1
 69
     1
1001
ACAD
1000
MVIEW
1002
{
1070
    16
1010
0.0
1020
0.0
1030
0.0
1010
0.0
1020
0.0
1030
1.0
1040
0.0
1040
16.5435520527704689
1040
5.723614065622983
1040
8.1354262821797825
1040
50.0
1040
0.0
1040
0.0
1070
     0
1070
  1500
1070
     1
1070
     1
1070
     0
1070
     0
1070
     0
1070
     0
1040
0.0
1040
0.0
1040
0.0
1040
10.0
1040
10.0
1040
10.0
1040
10.0
1070
     0
1002
{
1002
}
1002
}
  0
VIEWPORT
  5
62A
 67
     1
  8
DEFPOINTS
 10
5.7238386238306189
 20
8.1356965864900879
 30
0.0
 40
11.5604889443281902
 41
16.413757226065151
 68
     2
 69
     2
1001
ACAD
1000
MVIEW
1002
{
1070
    16
1010
1776.1560759851549847
1020
898.2834135586223283
1030
0.0
1010
0.0
1020
0.0
1030
1.0
1040
0.0
1040
1544.693597495100903
1040
-1259.80039035272398
1040
-152.5963006293534932
1040
50.0
1040
0.0
1040
0.0
1070
     0
1070
  1500
1070
     1
1070
     0
1070
     0
1070
     0
1070
     0
1070
     0
1040
0.0
1040
0.0
1040
0.0
1040
1.0
1040
1.0
1040
10.0
1040
10.0
1070
     0
1002
{
1002
}
1002
}
  0
VIEWPORT
  5
62F
 67
     1
  8
DEFPOINTS
 10
5.7929922628337556
 20
7.2725579936102882
 30
0.0
 40
5.2116958861945326
 41
4.7303235238843149
 68
     3
 69
     3
1001
ACAD
1000
MVIEW
1002
{
1070
    16
1010
1783.5263540366520374
1020
906.3839827660139008
1030
1.7507861689261111
1010
6.0177713521645719
1020
-146.5469595750809049
1030
684.1028248151837943
1040
0.0390797762434407
1040
406.6112588489220911
1040
-11.8244460869929906
1040
0.0
1040
50.0
1040
0.0
1040
0.0
1070
     0
1070
  1500
1070
     1
1070
     0
1070
     0
1070
     0
1070
     0
1070
     0
1040
0.0
1040
0.0
1040
0.0
1040
1.0
1040
1.0
1040
10.0
1040
10.0
1070
     0
1002
{
1002
}
1002
}
  0
ENDSEC
  0
EOF
