  0
SECTION
  2
HEADER
  9
$ACADVER
  1
AC1009
  9
$INSBASE
 10
0.0
 20
0.0
 30
0.0
  9
$EXTMIN
 10
204.357423921506296
 20
-350.2718095517257098
 30
-23.9063826929136383
  9
$EXTMAX
 10
331.571728120344801
 20
51.096006213633018
 30
-23.9045588641430093
  9
$LIMMIN
 10
0.0
 20
0.0
  9
$LIMMAX
 10
210.0
 20
297.0
  9
$ORTHOMODE
 70
     1
  9
$REGENMODE
 70
     1
  9
$FILLMODE
 70
     1
  9
$QTEXTMODE
 70
     0
  9
$MIRRTEXT
 70
     1
  9
$DRAGMODE
 70
     2
  9
$LTSCALE
 40
10.0
  9
$OSMODE
 70
  2495
  9
$ATTMODE
 70
     1
  9
$TEXTSIZE
 40
3.5
  9
$TRACEWID
 40
0.5
  9
$TEXTSTYLE
  7
STANDARD
  9
$CLAYER
  8
STEMPEL
  9
$CELTYPE
  6
BYLAYER
  9
$CECOLOR
 62
   256
  9
$DIMSCALE
 40
1.0
  9
$DIMASZ
 40
3.5
  9
$DIMEXO
 40
1.0
  9
$DIMDLI
 40
7.0
  9
$DIMRND
 40
0.0
  9
$DIMDLE
 40
0.0
  9
$DIMEXE
 40
1.0
  9
$DIMTP
 40
0.0
  9
$DIMTM
 40
0.0
  9
$DIMTXT
 40
3.5
  9
$DIMCEN
 40
1.5
  9
$DIMTSZ
 40
0.0
  9
$DIMTOL
 70
     0
  9
$DIMLIM
 70
     0
  9
$DIMTIH
 70
     0
  9
$DIMTOH
 70
     0
  9
$DIMSE1
 70
     0
  9
$DIMSE2
 70
     0
  9
$DIMTAD
 70
     1
  9
$DIMZIN
 70
     8
  9
$DIMBLK
  1

  9
$DIMASO
 70
     1
  9
$DIMSHO
 70
     0
  9
$DIMPOST
  1

  9
$DIMAPOST
  1

  9
$DIMALT
 70
     0
  9
$DIMALTD
 70
     2
  9
$DIMALTF
 40
25.3999999999999986
  9
$DIMLFAC
 40
2.0
  9
$DIMTOFL
 70
     1
  9
$DIMTVP
 40
0.0
  9
$DIMTIX
 70
     0
  9
$DIMSOXD
 70
     0
  9
$DIMSAH
 70
     0
  9
$DIMBLK1
  1

  9
$DIMBLK2
  1

  9
$DIMSTYLE
  2
STANDARD
  9
$DIMCLRD
 70
     0
  9
$DIMCLRE
 70
     0
  9
$DIMCLRT
 70
     1
  9
$DIMTFAC
 40
0.5
  9
$DIMGAP
 40
1.5
  9
$LUNITS
 70
     2
  9
$LUPREC
 70
     2
  9
$SKETCHINC
 40
1.0
  9
$FILLETRAD
 40
15.0
  9
$AUNITS
 70
     0
  9
$AUPREC
 70
     0
  9
$MENU
  1
ACAD
  9
$ELEVATION
 40
0.0
  9
$PELEVATION
 40
0.0
  9
$THICKNESS
 40
0.0
  9
$LIMCHECK
 70
     0
  9
$BLIPMODE
 70
     0
  9
$CHAMFERA
 40
2.0
  9
$CHAMFERB
 40
2.0
  9
$SKPOLY
 70
     0
  9
$TDCREATE
 40
2455397.8646990740671754
  9
$TDUPDATE
 40
2459627.421886574011296
  9
$TDINDWG
 40
0.2064624074
  9
$TDUSRTIMER
 40
0.2064624074
  9
$USRTIMER
 70
     1
  9
$ANGBASE
 50
0.0
  9
$ANGDIR
 70
     0
  9
$PDMODE
 70
     0
  9
$PDSIZE
 40
0.0
  9
$PLINEWID
 40
0.0
  9
$COORDS
 70
     1
  9
$SPLFRAME
 70
     0
  9
$SPLINETYPE
 70
     6
  9
$SPLINESEGS
 70
     8
  9
$ATTDIA
 70
     1
  9
$ATTREQ
 70
     1
  9
$HANDLING
 70
     1
  9
$HANDSEED
  5
2083
  9
$SURFTAB1
 70
     6
  9
$SURFTAB2
 70
     6
  9
$SURFTYPE
 70
     6
  9
$SURFU
 70
     6
  9
$SURFV
 70
     6
  9
$UCSNAME
  2

  9
$UCSORG
 10
0.0
 20
0.0
 30
0.0
  9
$UCSXDIR
 10
1.0
 20
0.0
 30
0.0
  9
$UCSYDIR
 10
0.0
 20
1.0
 30
0.0
  9
$PUCSNAME
  2

  9
$PUCSORG
 10
0.0
 20
0.0
 30
0.0
  9
$PUCSXDIR
 10
1.0
 20
0.0
 30
0.0
  9
$PUCSYDIR
 10
0.0
 20
1.0
 30
0.0
  9
$USERI1
 70
     0
  9
$USERI2
 70
     0
  9
$USERI3
 70
     0
  9
$USERI4
 70
     0
  9
$USERI5
 70
     0
  9
$USERR1
 40
0.0
  9
$USERR2
 40
0.0
  9
$USERR3
 40
0.0
  9
$USERR4
 40
0.0
  9
$USERR5
 40
0.0
  9
$WORLDVIEW
 70
     1
  9
$SHADEDGE
 70
     3
  9
$SHADEDIF
 70
    70
  9
$TILEMODE
 70
     1
  9
$MAXACTVP
 70
    16
  9
$PLIMCHECK
 70
     0
  9
$PEXTMIN
 10
1.0000000000000000E+20
 20
1.0000000000000000E+20
 30
1.0000000000000000E+20
  9
$PEXTMAX
 10
-1.0000000000000000E+20
 20
-1.0000000000000000E+20
 30
-1.0000000000000000E+20
  9
$PLIMMIN
 10
-0.0674642631973264
 20
-0.0511601294987543
  9
$PLIMMAX
 10
209.9325357368026914
 20
296.9488398705012742
  9
$UNITMODE
 70
     0
  9
$VISRETAIN
 70
     0
  9
$PLINEGEN
 70
     0
  9
$PSLTSCALE
 70
     0
  0
ENDSEC
  0
SECTION
  2
TABLES
  0
TABLE
  2
VPORT
 70
     1
  0
VPORT
  2
*ACTIVE
 70
     0
 10
0.0
 20
0.0
 11
1.0
 21
1.0
 12
-0.0015650551611088
 22
-149.3848492515610076
 13
0.0
 23
0.0
 14
1.0
 24
1.0
 15
10.0
 25
10.0
 16
-0.0000000000002274
 26
0.0
 36
898.7542440184474799
 17
267.9661410760867284
 27
-0.2030524174853667
 37
-11.95282660296653
 40
404.2381457946698902
 41
1.7852028639618129
 42
50.0
 43
0.0
 44
0.0
 50
0.0
 51
0.0
 71
     0
 72
  1500
 73
     1
 74
     0
 75
     0
 76
     0
 77
     0
 78
     0
  0
ENDTAB
  0
TABLE
  2
LTYPE
 70
     3
  0
LTYPE
  2
CONTINUOUS
 70
     0
  3
Solid line
 72
    65
 73
     0
 40
0.0
  0
LTYPE
  2
PHANTOM2
 70
     0
  3
Phantom (.5x) ___ _ _ ___ _ _ ___ _ _ ___ _ _
 72
    65
 73
     6
 40
1.25
 49
0.625
 49
-0.125
 49
0.125
 49
-0.125
 49
0.125
 49
-0.125
  0
LTYPE
  2
VERDECKT
 70
     0
  3
Verdeckt __ __ __ __ __ __ __ __ __ __ __ __ __
 72
    65
 73
     2
 40
0.375
 49
0.25
 49
-0.125
  0
ENDTAB
  0
TABLE
  2
LAYER
 70
     7
  0
LAYER
  2
0
 70
     0
 62
     7
  6
CONTINUOUS
  0
LAYER
  2
VOLL
 70
     0
 62
     1
  6
CONTINUOUS
  0
LAYER
  2
DEFPOINTS
 70
     0
 62
     7
  6
CONTINUOUS
  0
LAYER
  2
ADSK_ASSOC_ENTITY_BACKUPS
 70
     1
 62
    -7
  6
CONTINUOUS
  0
LAYER
  2
STEMPEL
 70
     0
 62
     3
  6
CONTINUOUS
  0
ENDTAB
  0
TABLE
  2
STYLE
 70
     3
  0
STYLE
  2
STANDARD
 70
     0
 40
0.0
 41
0.8
 50
0.0
 71
     0
 42
3.5
  3
simplex.shx
  4

  0
STYLE
  2
GREEKS
 70
     0
 40
0.0
 41
0.8
 50
0.0
 71
     0
 42
2.5
  3
SIMPLEX.shx
  4

  0
ENDTAB
  0
TABLE
  2
VIEW
 70
     0
  0
ENDTAB
  0
TABLE
  2
UCS
 70
     0
  0
ENDTAB
  0
TABLE
  2
APPID
 70
    23
  0
APPID
  2
ACAD
 70
     0
  0
APPID
  2
ACAD_NAV_VCDISPLAY
 70
     0
  0
APPID
  2
ACAD_MLEADERVER
 70
     0
  0
APPID
  2
ACAD_EXEMPT_FROM_CAD_STANDARDS
 70
     0
  0
APPID
  2
ACAD_PSEXT
 70
     0
  0
APPID
  2
ACAECLAYERSTANDARD
 70
     0
  0
APPID
  2
ACAUTHENVIRON
 70
     0
  0
APPID
  2
ACCMTRANSPARENCY
 70
     0
  0
APPID
  2
ACAD_STEPID
 70
     0
  0
APPID
  2
ACSYNERGY
 70
     0
  0
APPID
  2
SYNERGY_BODY_TBR_ID
 70
     0
  0
APPID
  2
ACAD_VIEW_EDGE_ID
 70
     0
  0
APPID
  2
ACSYNERGYSKETCH
 70
     0
  0
APPID
  2
ACAD_MODELDOC_XFORM
 70
     0
  0
APPID
  2
ACAD_DSTYLE_DIMJAG
 70
     0
  0
APPID
  2
ACAD_DSTYLE_DIMTALN
 70
     0
  0
APPID
  2
ACADANNOMONITORALERTICONDI
 70
     0
  0
APPID
  2
ACAD_DIMASSOC_CALC_DIMLFAC
 70
     0
  0
APPID
  2
ACAD_DIMASSOC_DIMLFAC
 70
     0
  0
APPID
  2
ACAD_DIMASSOC_OVERRIDDEN_D
 70
     0
  0
APPID
  2
ACAD_DSTYLE_DIMRADIAL_EXTENSION
 70
     0
  0
APPID
  2
GRADIENTCOLOR1ACI
 70
     0
  0
APPID
  2
GRADIENTCOLOR2ACI
 70
     0
  0
ENDTAB
  0
TABLE
  2
DIMSTYLE
 70
     1
  0
DIMSTYLE
  2
STANDARD
 70
     0
  3

  4

  5

  6

  7

 40
1.0
 41
0.18
 42
0.0625
 43
0.38
 44
0.18
 45
0.0
 46
0.0
 47
0.0
 48
0.0
140
0.18
141
0.09
142
0.0
143
25.3999999999999986
144
1.0
145
0.0
146
1.0
147
0.09
 71
     0
 72
     0
 73
     1
 74
     1
 75
     0
 76
     0
 77
     0
 78
     0
170
     0
171
     2
172
     0
173
     0
174
     0
175
     0
176
     0
177
     0
178
     0
  0
ENDTAB
  0
ENDSEC
  0
SECTION
  2
BLOCKS
  0
BLOCK
  8
0
  2
$MODEL_SPACE
 70
     0
 10
0.0
 20
0.0
 30
0.0
  3
$MODEL_SPACE
  1

  0
ENDBLK
  5
36
  8
0
  0
BLOCK
 67
     1
  8
0
  2
$PAPER_SPACE
 70
     0
 10
0.0
 20
0.0
 30
0.0
  3
$PAPER_SPACE
  1

  0
ENDBLK
  5
34
 67
     1
  8
0
  0
BLOCK
  8
0
  2
*S0
 70
     1
 10
0.0
 20
0.0
 30
0.0
  3
*S0
  1

  0
ENDBLK
  5
B3A
  8
0
  0
BLOCK
  8
0
  2
A$CD4E5CCB7
 70
     0
 10
0.0
 20
0.0
 30
0.0
  3
A$CD4E5CCB7
  1

  0
CIRCLE
  5
1FD8
  8
0
 10
129.7973054191288043
 20
97.1939330370279606
 30
0.0000000000000284
 40
63.4999999999998792
  0
CIRCLE
  5
1FD9
  8
0
 10
129.7973054191288043
 20
97.1939330370279606
 30
0.0000000000000284
 40
54.699999999999811
  0
CIRCLE
  5
1FDA
  8
0
 10
129.7973054191288043
 20
97.1939330370279606
 30
0.0000000000000568
 40
42.0251133647404913
  0
CIRCLE
  5
1FDB
  8
0
 10
129.7973054191288043
 20
97.193933037027989
 30
0.0000000000000284
 40
42.8999999999997499
  0
CIRCLE
  5
1FDC
  8
0
  6
VERDECKT
 62
     1
 10
129.7973054191288043
 20
97.1939330370279606
 30
0.0000000000000568
 40
43.6312251048096869
  0
CIRCLE
  5
1FDD
  8
0
  6
VERDECKT
 62
     1
 10
129.7973054191288043
 20
97.193933037027989
 30
0.0000000000000284
 40
44.4999999999997726
  0
CIRCLE
  5
1FDE
  8
0
  6
VERDECKT
 62
     1
 10
129.7973054191288043
 20
97.193933037027989
 30
0.0000000000000284
 40
56.0269037636873009
  0
ENDBLK
  5
1FE0
  8
0
  0
BLOCK
  8
0
  2
A$C546B193B
 70
     0
 10
0.0
 20
0.0
 30
0.0
  3
A$C546B193B
  1

  0
LINE
  5
1FE4
  8
0
 10
193.2973054191288043
 20
-150.0350682550881913
 30
0.0000000000000333
 11
66.2973054191288611
 21
-150.0350682550881913
 31
0.0000000000000333
210
0.0
220
1.0
230
-0.0000000000000002
  0
LINE
  5
1FE5
  8
0
 10
193.2973054191286906
 20
-50.0350682550881203
 30
0.0000000000000111
 11
66.2973054191289748
 21
-50.0350682550881203
 31
0.0000000000000111
210
0.0
220
1.0
230
-0.0000000000000002
  0
LINE
  5
1FE6
  8
0
 10
66.2973054191288611
 20
-150.0350682550881913
 30
0.0000000000000333
 11
66.2973054191288611
 21
-50.0350682550881203
 31
0.0000000000000111
210
0.0
220
1.0
230
-0.0000000000000002
  0
LINE
  5
1FE7
  8
0
 10
193.2973054191288043
 20
-150.0350682550881913
 30
0.0000000000000333
 11
193.2973054191288043
 21
-50.0350682550881203
 31
0.0000000000000111
210
0.0
220
1.0
230
-0.0000000000000002
  0
LINE
  5
1FE8
  8
0
 10
86.1660803143191742
 20
-270.0350682550882198
 30
0.00000000000006
 11
173.4285305239384911
 21
-270.0350682550882198
 31
0.00000000000006
210
0.0
220
1.0
230
-0.0000000000000002
  0
LINE
  5
1FE9
  8
0
 10
73.7704016554415603
 20
-150.9291188140120994
 30
0.0000000000000335
 11
185.8242091828161051
 21
-150.9291188140120994
 31
0.0000000000000335
210
0.0
220
1.0
230
-0.0000000000000002
  0
ARC
  5
1FEA
  8
0
 10
-94.897305419135094
 20
-259.6857807118183246
 30
0.0
 40
9.6000000000060073
210
0.0
220
-0.0000000000000002
230
-1.0
 50
355.0000000000014779
 51
359.9999999999989768
  0
ARC
  5
1FEB
  8
0
 10
-164.6973054191456072
 20
-259.6857807118191204
 30
0.0
 40
9.5999999999829981
210
0.0
220
-0.0000000000000002
230
-1.0
 50
179.9999999999961915
 51
185.0000000000052864
  0
LINE
  5
1FEC
  8
0
 10
86.1660803143191742
 20
-270.0350682550882198
 30
0.00000000000006
 11
85.3338363174483447
 21
-260.5224758421961155
 31
0.0000000000000578
210
0.0
220
1.0
230
-0.0000000000000002
  0
LINE
  5
1FED
  8
0
 10
173.4285305239384911
 20
-270.0350682550882198
 30
0.00000000000006
 11
174.2607745208094059
 21
-260.5224758421960018
 31
0.0000000000000578
210
0.0
220
1.0
230
-0.0000000000000002
  0
LINE
  5
1FEE
  8
0
 10
174.2973054191286053
 20
-170.4804313250625967
 30
0.0000000000000379
 11
174.2973054191286053
 21
-259.6857807118184951
 31
0.0000000000000577
210
0.0
220
1.0
230
-0.0000000000000002
  0
LINE
  5
1FEF
  8
0
 10
85.2973054191290885
 20
-170.4804313250625967
 30
0.0000000000000379
 11
85.2973054191290885
 21
-259.6857807118184951
 31
0.0000000000000577
210
0.0
220
1.0
230
-0.0000000000000002
  0
LINE
  5
1FF0
  8
0
 10
184.4973054191287076
 20
-150.0350682550881913
 30
0.0000000000000333
 11
185.8242091828161051
 21
-150.9291188140120994
 31
0.0000000000000335
210
0.0
220
1.0
230
-0.0000000000000002
  0
LINE
  5
1FF1
  8
0
 10
75.097305419129043
 20
-150.0350682550881913
 30
0.0000000000000333
 11
73.7704016554415603
 21
-150.9291188140120994
 31
0.0000000000000335
210
0.0
220
1.0
230
-0.0000000000000002
  0
LINE
  5
1FF2
  8
0
 10
83.9318242375661754
 20
-166.0101785304431985
 30
0.0000000000000369
 11
73.7704016554415745
 21
-150.9291188140120994
 31
0.0000000000000335
210
0.0
220
1.0
230
-0.0000000000000002
  0
LINE
  5
1FF3
  8
0
 10
175.6627866006915042
 20
-166.0101785304431985
 30
0.0000000000000369
 11
185.8242091828161051
 21
-150.9291188140120994
 31
0.0000000000000335
210
0.0
220
1.0
230
-0.0000000000000002
  0
ARC
  5
1FF4
  8
0
 10
-182.297305419129799
 20
-170.4804313250631083
 30
0.0
 40
8.0000000000011369
210
0.0
220
-0.0000000000000002
230
-1.0
 50
0.0000000000034604
 51
33.9715790314859802
  0
ARC
  5
1FF5
  8
0
 10
-77.2973054191278095
 20
-170.4804313250631935
 30
0.0
 40
8.0000000000012967
210
0.0
220
-0.0000000000000002
230
-1.0
 50
146.0284209685140979
 51
179.9999999999959073
  0
LINE
  5
1FF6
  8
0
  6
VERDECKT
 62
     1
 10
75.097305419129043
 20
-150.0350682550881913
 30
0.0000000000000333
 11
75.097305419129043
 21
-50.0350682550881203
 31
0.0000000000000111
210
0.0
220
1.0
230
-0.0000000000000002
  0
LINE
  5
1FF7
  8
0
  6
VERDECKT
 62
     1
 10
184.4973054191287076
 20
-150.0350682550881913
 30
0.0000000000000333
 11
184.4973054191287076
 21
-50.0350682550881203
 31
0.0000000000000111
210
0.0
220
1.0
230
-0.0000000000000002
  0
LINE
  5
1FF8
  8
0
  6
VERDECKT
 62
     1
 10
87.7721920543884266
 20
-270.0350682550882198
 30
0.00000000000006
 11
86.9353584382116367
 21
-260.4700162534791161
 31
0.0000000000000578
210
0.0
220
1.0
230
-0.0000000000000002
  0
LINE
  5
1FF9
  8
0
  6
VERDECKT
 62
     1
 10
171.8224187838692956
 20
-270.0350682550882198
 30
0.00000000000006
 11
172.6592524000460003
 21
-260.4700162534791161
 31
0.0000000000000578
210
0.0
220
1.0
230
-0.0000000000000002
  0
ARC
  5
1FFA
  8
0
  6
VERDECKT
 62
     1
 10
-96.8973054191270933
 20
-259.5984588260025134
 30
0.0
 40
9.9999999999979678
210
0.0
220
-0.0000000000000002
230
-1.0
 50
354.9999999999988063
 51
0.0
  0
ARC
  5
1FFB
  8
0
  6
VERDECKT
 62
     1
 10
-162.6973054191410029
 20
-259.5984588260029113
 30
0.0
 40
9.9999999999876081
210
0.0
220
-0.0000000000000002
230
-1.0
 50
179.9999999999969873
 51
185.0000000000036096
  0
ARC
  5
1FFC
  8
0
  6
VERDECKT
 62
     1
 10
-182.2973054191282074
 20
-170.4804313250623977
 30
0.0
 40
9.5999999999995964
210
0.0
220
-0.0000000000000002
230
-1.0
 50
359.9999999999985789
 51
33.9715790314875932
  0
ARC
  5
1FFD
  8
0
  6
VERDECKT
 62
     1
 10
-77.2973054191296569
 20
-170.4804313250623977
 30
0.0
 40
9.5999999999994525
210
0.0
220
-0.0000000000000002
230
-1.0
 50
146.0284209685119947
 51
180.0000000000015064
  0
LINE
  5
1FFE
  8
0
  6
VERDECKT
 62
     1
 10
85.2587280012537434
 20
-165.1161279715192052
 30
0.0000000000000367
 11
75.097305419129043
 21
-150.0350682550881913
 31
0.0000000000000333
210
0.0
220
1.0
230
-0.0000000000000002
  0
LINE
  5
1FFF
  8
0
  6
VERDECKT
 62
     1
 10
174.3358828370039078
 20
-165.1161279715192052
 30
0.0000000000000367
 11
184.4973054191287076
 21
-150.0350682550881913
 31
0.0000000000000333
210
0.0
220
1.0
230
-0.0000000000000002
  0
LINE
  5
2000
  8
0
  6
VERDECKT
 62
     1
 10
172.6973054191286963
 20
-170.4804313250625967
 30
0.0000000000000379
 11
172.6973054191286963
 21
-259.5984588260023997
 31
0.0000000000000576
210
0.0
220
1.0
230
-0.0000000000000002
  0
LINE
  5
2001
  8
0
  6
VERDECKT
 62
     1
 10
86.8973054191289833
 20
-170.4804313250625967
 30
0.0000000000000379
 11
86.8973054191289833
 21
-259.5984588260025134
 31
0.0000000000000576
210
0.0
220
1.0
230
-0.0000000000000002
  0
ENDBLK
  5
2003
  8
0
  0
ENDSEC
  0
SECTION
  2
ENTITIES
  0
TEXT
  5
8F
  8
VOLL
 10
78.076754716981128
 20
31.025947764705851
 30
0.0
 40
1.8
  1

  7
GREEKS
  0
INSERT
  5
B3C
  8
ADSK_ASSOC_ENTITY_BACKUPS
  2
*S0
 10
0.0
 20
0.0
 30
0.0
  0
INSERT
  5
1FE1
  8
STEMPEL
  2
A$CD4E5CCB7
 10
138.2643034719245918
 20
-383.9595560258613887
 30
-23.9056532059331097
  0
INSERT
  5
2004
  8
STEMPEL
  2
A$C546B193B
 10
138.0733741880611092
 20
101.1057231319954042
 30
-23.9056532059331417
  0
VIEWPORT
  5
928
 67
     1
  8
0
 10
104.9325357368027056
 20
148.4488398705011889
 30
0.0
 40
533.9969448798291296
 41
299.1239570917758783
 68
     1
 69
     1
1001
ACAD
1000
MVIEW
1002
{
1070
    16
1010
0.0
1020
0.0
1030
0.0
1010
0.0
1020
0.0
1030
1.0
1040
0.0
1040
299.1239570917758783
1040
104.9325357368027056
1040
148.4488398705011889
1040
50.0
1040
0.0
1040
0.0
1070
     0
1070
  1500
1070
     1
1070
     1
1070
     0
1070
     0
1070
     0
1070
     0
1040
0.0
1040
0.0
1040
0.0
1040
10.0
1040
10.0
1040
10.0
1040
10.0
1070
     0
1002
{
1002
}
1002
}
  0
ENDSEC
  0
EOF
