  0
SECTION
  2
HEADER
  9
$ACADVER
  1
AC1009
  9
$INSBASE
 10
0.0
 20
0.0
 30
0.0
  9
$EXTMIN
 10
197.7320342661251118
 20
-277.7059569034365154
 30
-25.9824190910081185
  9
$EXTMAX
 10
292.7320342661250834
 20
60.5449480246544312
 30
-25.9824190910080404
  9
$LIMMIN
 10
0.0
 20
0.0
  9
$LIMMAX
 10
210.0
 20
297.0
  9
$ORTHOMODE
 70
     1
  9
$REGENMODE
 70
     1
  9
$FILLMODE
 70
     1
  9
$QTEXTMODE
 70
     0
  9
$MIRRTEXT
 70
     1
  9
$DRAGMODE
 70
     2
  9
$LTSCALE
 40
10.0
  9
$OSMODE
 70
  2495
  9
$ATTMODE
 70
     1
  9
$TEXTSIZE
 40
3.5
  9
$TRACEWID
 40
0.5
  9
$TEXTSTYLE
  7
STANDARD
  9
$CLAYER
  8
STEMPEL
  9
$CELTYPE
  6
BYLAYER
  9
$CECOLOR
 62
   256
  9
$DIMSCALE
 40
1.0
  9
$DIMASZ
 40
3.5
  9
$DIMEXO
 40
1.0
  9
$DIMDLI
 40
7.0
  9
$DIMRND
 40
0.0
  9
$DIMDLE
 40
0.0
  9
$DIMEXE
 40
1.0
  9
$DIMTP
 40
0.0
  9
$DIMTM
 40
0.0
  9
$DIMTXT
 40
3.5
  9
$DIMCEN
 40
1.5
  9
$DIMTSZ
 40
0.0
  9
$DIMTOL
 70
     0
  9
$DIMLIM
 70
     0
  9
$DIMTIH
 70
     0
  9
$DIMTOH
 70
     0
  9
$DIMSE1
 70
     0
  9
$DIMSE2
 70
     0
  9
$DIMTAD
 70
     1
  9
$DIMZIN
 70
     8
  9
$DIMBLK
  1

  9
$DIMASO
 70
     1
  9
$DIMSHO
 70
     0
  9
$DIMPOST
  1

  9
$DIMAPOST
  1

  9
$DIMALT
 70
     0
  9
$DIMALTD
 70
     2
  9
$DIMALTF
 40
25.3999999999999986
  9
$DIMLFAC
 40
2.0
  9
$DIMTOFL
 70
     1
  9
$DIMTVP
 40
0.0
  9
$DIMTIX
 70
     0
  9
$DIMSOXD
 70
     0
  9
$DIMSAH
 70
     0
  9
$DIMBLK1
  1

  9
$DIMBLK2
  1

  9
$DIMSTYLE
  2
STANDARD
  9
$DIMCLRD
 70
     0
  9
$DIMCLRE
 70
     0
  9
$DIMCLRT
 70
     1
  9
$DIMTFAC
 40
0.5
  9
$DIMGAP
 40
1.5
  9
$LUNITS
 70
     2
  9
$LUPREC
 70
     2
  9
$SKETCHINC
 40
1.0
  9
$FILLETRAD
 40
15.0
  9
$AUNITS
 70
     0
  9
$AUPREC
 70
     0
  9
$MENU
  1
ACAD
  9
$ELEVATION
 40
0.0
  9
$PELEVATION
 40
0.0
  9
$THICKNESS
 40
0.0
  9
$LIMCHECK
 70
     0
  9
$BLIPMODE
 70
     0
  9
$CHAMFERA
 40
2.0
  9
$CHAMFERB
 40
2.0
  9
$SKPOLY
 70
     0
  9
$TDCREATE
 40
2455397.8646990740671754
  9
$TDUPDATE
 40
2459627.4141087969765067
  9
$TDINDWG
 40
0.2536846296
  9
$TDUSRTIMER
 40
0.2536846296
  9
$USRTIMER
 70
     1
  9
$ANGBASE
 50
0.0
  9
$ANGDIR
 70
     0
  9
$PDMODE
 70
     0
  9
$PDSIZE
 40
0.0
  9
$PLINEWID
 40
0.0
  9
$COORDS
 70
     1
  9
$SPLFRAME
 70
     0
  9
$SPLINETYPE
 70
     6
  9
$SPLINESEGS
 70
     8
  9
$ATTDIA
 70
     1
  9
$ATTREQ
 70
     1
  9
$HANDLING
 70
     1
  9
$HANDSEED
  5
1EBF
  9
$SURFTAB1
 70
     6
  9
$SURFTAB2
 70
     6
  9
$SURFTYPE
 70
     6
  9
$SURFU
 70
     6
  9
$SURFV
 70
     6
  9
$UCSNAME
  2

  9
$UCSORG
 10
0.0
 20
0.0
 30
0.0
  9
$UCSXDIR
 10
1.0
 20
0.0
 30
0.0
  9
$UCSYDIR
 10
0.0
 20
1.0
 30
0.0
  9
$PUCSNAME
  2

  9
$PUCSORG
 10
0.0
 20
0.0
 30
0.0
  9
$PUCSXDIR
 10
1.0
 20
0.0
 30
0.0
  9
$PUCSYDIR
 10
0.0
 20
1.0
 30
0.0
  9
$USERI1
 70
     0
  9
$USERI2
 70
     0
  9
$USERI3
 70
     0
  9
$USERI4
 70
     0
  9
$USERI5
 70
     0
  9
$USERR1
 40
0.0
  9
$USERR2
 40
0.0
  9
$USERR3
 40
0.0
  9
$USERR4
 40
0.0
  9
$USERR5
 40
0.0
  9
$WORLDVIEW
 70
     1
  9
$SHADEDGE
 70
     3
  9
$SHADEDIF
 70
    70
  9
$TILEMODE
 70
     1
  9
$MAXACTVP
 70
    16
  9
$PLIMCHECK
 70
     0
  9
$PEXTMIN
 10
-0.0706663596347426
 20
-61.9950848436081898
 30
-0.0000000000112498
  9
$PEXTMAX
 10
209.9357407670854911
 20
296.9543180067252024
 30
0.0000000000002956
  9
$PLIMMIN
 10
-0.0674642631973264
 20
-0.0511601294987543
  9
$PLIMMAX
 10
209.9325357368026914
 20
296.9488398705012742
  9
$UNITMODE
 70
     0
  9
$VISRETAIN
 70
     0
  9
$PLINEGEN
 70
     0
  9
$PSLTSCALE
 70
     0
  0
ENDSEC
  0
SECTION
  2
TABLES
  0
TABLE
  2
VPORT
 70
     1
  0
VPORT
  2
*ACTIVE
 70
     0
 10
0.0
 20
0.0
 11
1.0
 21
1.0
 12
0.9943042850038921
 22
-119.5860307205769999
 13
0.0
 23
0.0
 14
1.0
 24
1.0
 15
10.0
 25
10.0
 16
-0.000000000000199
 26
0.0
 36
836.1972548784226547
 17
244.2377299811211913
 27
11.0055262811859205
 37
-12.9912095455040308
 40
340.6698625318675226
 41
1.7852028639618129
 42
50.0
 43
0.0
 44
0.0
 50
0.0
 51
0.0
 71
     0
 72
  1500
 73
     1
 74
     0
 75
     0
 76
     0
 77
     0
 78
     0
  0
ENDTAB
  0
TABLE
  2
LTYPE
 70
     6
  0
LTYPE
  2
CONTINUOUS
 70
     0
  3
Solid line
 72
    65
 73
     0
 40
0.0
  0
LTYPE
  2
PHANTOM2
 70
     0
  3
Phantom (.5x) ___ _ _ ___ _ _ ___ _ _ ___ _ _
 72
    65
 73
     6
 40
1.25
 49
0.625
 49
-0.125
 49
0.125
 49
-0.125
 49
0.125
 49
-0.125
  0
LTYPE
  2
VERDECKT
 70
     0
  3
Verdeckt __ __ __ __ __ __ __ __ __ __ __ __ __
 72
    65
 73
     2
 40
0.375
 49
0.25
 49
-0.125
  0
ENDTAB
  0
TABLE
  2
LAYER
 70
    15
  0
LAYER
  2
0
 70
     0
 62
     7
  6
CONTINUOUS
  0
LAYER
  2
VOLL
 70
     0
 62
     1
  6
CONTINUOUS
  0
LAYER
  2
STEMPEL
 70
     0
 62
     3
  6
CONTINUOUS
  0
LAYER
  2
DEFPOINTS
 70
     0
 62
     7
  6
CONTINUOUS
  0
LAYER
  2
ADSK_ASSOC_ENTITY_BACKUPS
 70
     1
 62
    -7
  6
CONTINUOUS
  0
ENDTAB
  0
TABLE
  2
STYLE
 70
     4
  0
STYLE
  2
STANDARD
 70
     0
 40
0.0
 41
0.8
 50
0.0
 71
     0
 42
3.5
  3
simplex.shx
  4

  0
STYLE
  2
GREEKS
 70
     0
 40
0.0
 41
0.8
 50
0.0
 71
     0
 42
2.5
  3
SIMPLEX.shx
  4

  0
ENDTAB
  0
TABLE
  2
VIEW
 70
     1
  0
ENDTAB
  0
TABLE
  2
UCS
 70
     0
  0
ENDTAB
  0
TABLE
  2
APPID
 70
    22
  0
APPID
  2
ACAD
 70
     0
  0
APPID
  2
ACAD_NAV_VCDISPLAY
 70
     0
  0
APPID
  2
ACAD_MLEADERVER
 70
     0
  0
APPID
  2
ACAD_EXEMPT_FROM_CAD_STANDARDS
 70
     0
  0
APPID
  2
ACAD_PSEXT
 70
     0
  0
APPID
  2
ACAECLAYERSTANDARD
 70
     0
  0
APPID
  2
ACAUTHENVIRON
 70
     0
  0
APPID
  2
ACCMTRANSPARENCY
 70
     0
  0
APPID
  2
ACAD_STEPID
 70
     0
  0
APPID
  2
ACSYNERGY
 70
     0
  0
APPID
  2
SYNERGY_BODY_TBR_ID
 70
     0
  0
APPID
  2
ACAD_VIEW_EDGE_ID
 70
     0
  0
APPID
  2
ACSYNERGYSKETCH
 70
     0
  0
APPID
  2
ACAD_MODELDOC_XFORM
 70
     0
  0
APPID
  2
ACAD_DSTYLE_DIMJAG
 70
     0
  0
APPID
  2
ACAD_DSTYLE_DIMTALN
 70
     0
  0
APPID
  2
ACADANNOMONITORALERTICONDI
 70
     0
  0
APPID
  2
ACAD_DIMASSOC_CALC_DIMLFAC
 70
     0
  0
APPID
  2
ACAD_DIMASSOC_DIMLFAC
 70
     0
  0
APPID
  2
ACAD_DIMASSOC_OVERRIDDEN_D
 70
     0
  0
APPID
  2
ACAD_DSTYLE_DIMRADIAL_EXTENSION
 70
     0
  0
APPID
  2
AcDbAttr
 70
     0
  0
ENDTAB
  0
TABLE
  2
DIMSTYLE
 70
     2
  0
DIMSTYLE
  2
STANDARD
 70
     0
  3

  4

  5

  6

  7

 40
1.0
 41
0.18
 42
0.0625
 43
0.38
 44
0.18
 45
0.0
 46
0.0
 47
0.0
 48
0.0
140
0.18
141
0.09
142
0.0
143
25.3999999999999986
144
1.0
145
0.0
146
1.0
147
0.09
 71
     0
 72
     0
 73
     1
 74
     1
 75
     0
 76
     0
 77
     0
 78
     0
170
     0
171
     2
172
     0
173
     0
174
     0
175
     0
176
     0
177
     0
178
     0
  0
ENDTAB
  0
ENDSEC
  0
SECTION
  2
BLOCKS
  0
BLOCK
  8
0
  2
$MODEL_SPACE
 70
     0
 10
0.0
 20
0.0
 30
0.0
  3
$MODEL_SPACE
  1

  0
ENDBLK
  5
36
  8
0
  0
BLOCK
 67
     1
  8
0
  2
$PAPER_SPACE
 70
     0
 10
0.0
 20
0.0
 30
0.0
  3
$PAPER_SPACE
  1

  0
ENDBLK
  5
34
 67
     1
  8
0
  0
BLOCK
  8
0
  2
*S2
 70
     1
 10
0.0
 20
0.0
 30
0.0
  3
*S2
  1

  0
ENDBLK
  5
B3A
  8
0
  0
BLOCK
  8
0
  2
A$C625B45D4
 70
     0
 10
0.0
 20
0.0
 30
0.0
  3
A$C625B45D4
  1

  0
CIRCLE
  5
1E40
  8
0
 10
129.7973054191288043
 20
97.193933037027989
 30
0.0000000000000284
 40
38.7000000000000384
  0
CIRCLE
  5
1E41
  8
0
 10
129.7973054191288043
 20
97.193933037027989
 30
0.0000000000000284
 40
47.5
  0
CIRCLE
  5
1E42
  8
0
 10
129.7973054191288043
 20
97.1939330370279606
 30
0.0000000000000568
 40
34.0251133647404913
  0
CIRCLE
  5
1E43
  8
0
 10
129.7973054191288043
 20
97.193933037027989
 30
0.0000000000000284
 40
34.8999999999998565
  0
CIRCLE
  5
1E44
  8
0
  6
VERDECKT
 62
     1
 10
129.7973054191288043
 20
97.1939330370279606
 30
0.0000000000000568
 40
35.6312251048100279
  0
CIRCLE
  5
1E45
  8
0
  6
VERDECKT
 62
     1
 10
129.7973054191288043
 20
97.193933037027989
 30
0.0000000000000284
 40
36.5
  0
CIRCLE
  5
1E46
  8
0
  6
VERDECKT
 62
     1
 10
129.7973054191288043
 20
97.193933037027989
 30
0.0000000000000284
 40
40.1956537289413518
  0
ENDBLK
  5
1E48
  8
0
  0
BLOCK
  8
0
  2
A$C31507F9C
 70
     0
 10
0.0
 20
0.0
 30
0.0
  3
A$C31507F9C
  1

  0
LINE
  5
1E4C
  8
0
 10
177.2973054191288043
 20
-150.0350682550879924
 30
0.0000000000000333
 11
82.2973054191288611
 21
-150.0350682550879924
 31
0.0000000000000333
210
0.0
220
1.0
230
-0.0000000000000002
  0
LINE
  5
1E4D
  8
0
 10
177.2973054191288043
 20
-50.0350682550880634
 30
0.0000000000000111
 11
82.2973054191288611
 21
-50.0350682550880634
 31
0.0000000000000111
210
0.0
220
1.0
230
-0.0000000000000002
  0
LINE
  5
1E4E
  8
0
 10
82.2973054191288611
 20
-150.0350682550879924
 30
0.0000000000000333
 11
82.2973054191288611
 21
-50.0350682550880634
 31
0.0000000000000111
210
0.0
220
1.0
230
-0.0000000000000002
  0
LINE
  5
1E4F
  8
0
 10
177.2973054191288043
 20
-150.0350682550879924
 30
0.0000000000000333
 11
177.2973054191288043
 21
-50.0350682550880634
 31
0.0000000000000111
210
0.0
220
1.0
230
-0.0000000000000002
  0
LINE
  5
1E50
  8
0
 10
94.166080314318819
 20
-260.0350682550882198
 30
0.0000000000000577
 11
165.428530523938889
 21
-260.0350682550882198
 31
0.0000000000000577
210
0.0
220
1.0
230
-0.0000000000000002
  0
LINE
  5
1E51
  8
0
 10
89.6016516901874951
 20
-150.6034166720858138
 30
0.0000000000000334
 11
169.9929591480702129
 21
-150.6034166720858138
 31
0.0000000000000334
210
0.0
220
1.0
230
-0.0000000000000002
  0
ARC
  5
1E52
  8
0
 10
-101.8973054191239953
 20
-249.7294416547285039
 30
0.0
 40
8.5999999999951182
210
0.0
220
-0.0000000000000002
230
-1.0
 50
354.99999999999892
 51
0.0000000000020864
  0
ARC
  5
1E53
  8
0
 10
-157.6973054191336985
 20
-249.7294416547285039
 30
0.0
 40
8.5999999999951342
210
0.0
220
-0.0000000000000002
230
-1.0
 50
179.9999999999978968
 51
185.0000000000009948
  0
LINE
  5
1E54
  8
0
 10
94.166080314318819
 20
-260.0350682550882198
 30
0.0000000000000577
 11
93.3300310155398591
 21
-250.4789810423581002
 31
0.0000000000000556
210
0.0
220
1.0
230
-0.0000000000000002
  0
LINE
  5
1E55
  8
0
 10
165.428530523938889
 20
-260.0350682550882198
 30
0.0000000000000577
 11
166.264579822717792
 21
-250.4789810423581002
 31
0.0000000000000556
210
0.0
220
1.0
230
-0.0000000000000002
  0
LINE
  5
1E56
  8
0
 10
166.2973054191288043
 20
-162.5319684732567964
 30
0.0000000000000361
 11
166.2973054191288043
 21
-249.7294416547281912
 31
0.0000000000000555
210
0.0
220
1.0
230
-0.0000000000000002
  0
LINE
  5
1E57
  8
0
 10
93.2973054191288469
 20
-162.5319684732567964
 30
0.0000000000000361
 11
93.2973054191288469
 21
-249.7294416547281912
 31
0.0000000000000555
210
0.0
220
1.0
230
-0.0000000000000002
  0
LINE
  5
1E58
  8
0
 10
168.4973054191289066
 20
-150.0350682550879924
 30
0.0000000000000333
 11
169.9929591480702129
 21
-150.6034166720857002
 31
0.0000000000000334
210
0.0
220
1.0
230
-0.0000000000000002
  0
LINE
  5
1E59
  8
0
 10
91.0973054191287872
 20
-150.0350682550879924
 30
0.0000000000000333
 11
89.6016516901874951
 21
-150.6034166720857002
 31
0.0000000000000334
210
0.0
220
1.0
230
-0.0000000000000002
  0
LINE
  5
1E5A
  8
0
 10
92.5147083861891133
 20
-158.2693553457739029
 30
0.0000000000000351
 11
89.6016516901874951
 21
-150.6034166720858138
 31
0.0000000000000334
210
0.0
220
1.0
230
-0.0000000000000002
  0
LINE
  5
1E5B
  8
0
 10
167.0799024520686089
 20
-158.2693553457739029
 30
0.0000000000000351
 11
169.9929591480702129
 21
-150.6034166720858138
 31
0.0000000000000334
210
0.0
220
1.0
230
-0.0000000000000002
  0
ARC
  5
1E5C
  8
0
 10
-178.2973054191282074
 20
-162.5319684732565122
 30
0.0
 40
11.9999999999993694
210
0.0
220
-0.0000000000000002
230
-1.0
 50
0.0
 51
20.806791012712111
  0
ARC
  5
1E5D
  8
0
 10
-81.2973054191294864
 20
-162.5319684732565122
 30
0.0
 40
11.9999999999993694
210
0.0
220
-0.0000000000000002
230
-1.0
 50
159.193208987289097
 51
180.0000000000011937
  0
LINE
  5
1E5E
  8
0
  6
VERDECKT
 62
     1
 10
91.0973054191288156
 20
-150.0350682550879924
 30
0.0000000000000333
 11
91.0973054191288156
 21
-50.0350682550879995
 31
0.0000000000000111
210
0.0
220
1.0
230
-0.0000000000000002
  0
LINE
  5
1E5F
  8
0
  6
VERDECKT
 62
     1
 10
168.4973054191289066
 20
-150.0350682550879924
 30
0.0000000000000333
 11
168.4973054191289066
 21
-50.0350682550879995
 31
0.0000000000000111
210
0.0
220
1.0
230
-0.0000000000000002
  0
LINE
  5
1E60
  8
0
  6
VERDECKT
 62
     1
 10
95.7721920543884266
 20
-260.0350682550882198
 30
0.0000000000000577
 11
94.9353584382114519
 21
-250.4700162534790877
 31
0.0000000000000556
210
0.0
220
1.0
230
-0.0000000000000002
  0
LINE
  5
1E61
  8
0
  6
VERDECKT
 62
     1
 10
163.8224187838692956
 20
-260.0350682550882198
 30
0.0000000000000577
 11
164.6592524000463129
 21
-250.4700162534790877
 31
0.0000000000000556
210
0.0
220
1.0
230
-0.0000000000000002
  0
ARC
  5
1E62
  8
0
  6
VERDECKT
 62
     1
 10
-104.897305419127207
 20
-249.5984588260022861
 30
0.0
 40
9.9999999999983515
210
0.0
220
-0.0000000000000002
230
-1.0
 50
354.9999999999981242
 51
0.0000000000003308
  0
ARC
  5
1E63
  8
0
  6
VERDECKT
 62
     1
 10
-154.6973054191082042
 20
-249.5984588260014903
 30
0.0
 40
10.0000000000206608
210
0.0
220
-0.0000000000000002
230
-1.0
 50
180.0000000000042917
 51
184.9999999999953957
  0
ARC
  5
1E64
  8
0
  6
VERDECKT
 62
     1
 10
-178.2973054191317885
 20
-162.5319684732577912
 30
0.0
 40
13.6000000000031207
210
0.0
220
-0.0000000000000002
230
-1.0
 50
0.0000000000044401
 51
20.8067910127102813
  0
ARC
  5
1E65
  8
0
  6
VERDECKT
 62
     1
 10
-81.2973054191258768
 20
-162.5319684732577912
 30
0.0
 40
13.6000000000031207
210
0.0
220
-0.0000000000000002
230
-1.0
 50
159.1932089872896938
 51
179.9999999999955946
  0
LINE
  5
1E66
  8
0
  6
VERDECKT
 62
     1
 10
94.0103621151304338
 20
-157.7010069287763088
 30
0.000000000000035
 11
91.0973054191288156
 21
-150.0350682550879924
 31
0.0000000000000333
210
0.0
220
1.0
230
-0.0000000000000002
  0
LINE
  5
1E67
  8
0
  6
VERDECKT
 62
     1
 10
165.5842487231273026
 20
-157.7010069287763088
 30
0.000000000000035
 11
168.4973054191289066
 21
-150.0350682550879924
 31
0.0000000000000333
210
0.0
220
1.0
230
-0.0000000000000002
  0
LINE
  5
1E68
  8
0
  6
VERDECKT
 62
     1
 10
164.6973054191286963
 20
-162.5319684732567964
 30
0.0000000000000361
 11
164.6973054191286963
 21
-249.5984588260022861
 31
0.0000000000000554
210
0.0
220
1.0
230
-0.0000000000000002
  0
LINE
  5
1E69
  8
0
  6
VERDECKT
 62
     1
 10
94.8973054191289975
 20
-162.5319684732567964
 30
0.0000000000000361
 11
94.8973054191289975
 21
-249.5984588260022861
 31
0.0000000000000554
210
0.0
220
1.0
230
-0.0000000000000002
  0
ENDBLK
  5
1E6B
  8
0
  0
ENDSEC
  0
SECTION
  2
ENTITIES
  0
TEXT
  5
8F
  8
VOLL
 10
78.076754716981128
 20
31.025947764705851
 30
0.0
 40
1.8
  1

  7
GREEKS
  0
INSERT
  5
B3C
  8
ADSK_ASSOC_ENTITY_BACKUPS
  2
*S2
 10
0.0
 20
0.0
 30
0.0
  0
INSERT
  5
1E49
  8
STEMPEL
  2
A$C625B45D4
 10
115.4347288469961939
 20
-327.3998899404645044
 30
-25.9824190910081008
  0
INSERT
  5
1E6C
  8
STEMPEL
  2
A$C31507F9C
 10
115.4347288469961939
 20
110.5800162797423951
 30
-25.9824190910081292
  0
VIEWPORT
  5
928
 67
     1
  8
0
 10
380.8187487377110756
 20
82.3538459711539303
 30
0.0
 40
1312.5807183399740552
 41
735.2557767171775822
 68
     1
 69
     1
1001
ACAD
1000
MVIEW
1002
{
1070
    16
1010
0.0
1020
0.0
1030
0.0
1010
0.0
1020
0.0
1030
1.0
1040
0.0
1040
735.2557767171775822
1040
380.8187487377110756
1040
82.3538459711539303
1040
50.0
1040
0.0
1040
0.0
1070
     0
1070
  1500
1070
     1
1070
     1
1070
     0
1070
     0
1070
     0
1070
     0
1040
0.0
1040
0.0
1040
0.0
1040
10.0
1040
10.0
1040
10.0
1040
10.0
1070
     0
1002
{
1002
}
1002
}
  0
ENDSEC
  0
EOF
