  0
SECTION
  2
HEADER
  9
$ACADVER
  1
AC1009
  9
$INSBASE
 10
0.0
 20
0.0
 30
0.0
  9
$EXTMIN
 10
198.4910161318387054
 20
-262.607781592957906
 30
-25.9344843943073009
  9
$EXTMAX
 10
274.5910161318386145
 20
51.3178602249853526
 30
-25.9344843943072192
  9
$LIMMIN
 10
0.0
 20
0.0
  9
$LIMMAX
 10
210.0
 20
297.0
  9
$ORTHOMODE
 70
     1
  9
$REGENMODE
 70
     1
  9
$FILLMODE
 70
     1
  9
$QTEXTMODE
 70
     0
  9
$MIRRTEXT
 70
     1
  9
$DRAGMODE
 70
     2
  9
$LTSCALE
 40
10.0
  9
$OSMODE
 70
  2495
  9
$ATTMODE
 70
     1
  9
$TEXTSIZE
 40
3.5
  9
$TRACEWID
 40
0.5
  9
$TEXTSTYLE
  7
STANDARD
  9
$CLAYER
  8
STEMPEL
  9
$CELTYPE
  6
BYLAYER
  9
$CECOLOR
 62
   256
  9
$DIMSCALE
 40
1.0
  9
$DIMASZ
 40
3.5
  9
$DIMEXO
 40
1.0
  9
$DIMDLI
 40
7.0
  9
$DIMRND
 40
0.0
  9
$DIMDLE
 40
0.0
  9
$DIMEXE
 40
1.0
  9
$DIMTP
 40
0.0
  9
$DIMTM
 40
0.0
  9
$DIMTXT
 40
3.5
  9
$DIMCEN
 40
1.5
  9
$DIMTSZ
 40
0.0
  9
$DIMTOL
 70
     0
  9
$DIMLIM
 70
     0
  9
$DIMTIH
 70
     0
  9
$DIMTOH
 70
     0
  9
$DIMSE1
 70
     0
  9
$DIMSE2
 70
     0
  9
$DIMTAD
 70
     1
  9
$DIMZIN
 70
     8
  9
$DIMBLK
  1

  9
$DIMASO
 70
     1
  9
$DIMSHO
 70
     0
  9
$DIMPOST
  1

  9
$DIMAPOST
  1

  9
$DIMALT
 70
     0
  9
$DIMALTD
 70
     2
  9
$DIMALTF
 40
25.3999999999999986
  9
$DIMLFAC
 40
2.0
  9
$DIMTOFL
 70
     1
  9
$DIMTVP
 40
0.0
  9
$DIMTIX
 70
     0
  9
$DIMSOXD
 70
     0
  9
$DIMSAH
 70
     0
  9
$DIMBLK1
  1

  9
$DIMBLK2
  1

  9
$DIMSTYLE
  2
STANDARD
  9
$DIMCLRD
 70
     0
  9
$DIMCLRE
 70
     0
  9
$DIMCLRT
 70
     1
  9
$DIMTFAC
 40
0.5
  9
$DIMGAP
 40
1.5
  9
$LUNITS
 70
     2
  9
$LUPREC
 70
     2
  9
$SKETCHINC
 40
1.0
  9
$FILLETRAD
 40
15.0
  9
$AUNITS
 70
     0
  9
$AUPREC
 70
     0
  9
$MENU
  1
ACAD
  9
$ELEVATION
 40
0.0
  9
$PELEVATION
 40
0.0
  9
$THICKNESS
 40
0.0
  9
$LIMCHECK
 70
     0
  9
$BLIPMODE
 70
     0
  9
$CHAMFERA
 40
2.0
  9
$CHAMFERB
 40
2.0
  9
$SKPOLY
 70
     0
  9
$TDCREATE
 40
2455397.8646990740671754
  9
$TDUPDATE
 40
2459627.4027314819395542
  9
$TDINDWG
 40
0.1894485185
  9
$TDUSRTIMER
 40
0.1894485185
  9
$USRTIMER
 70
     1
  9
$ANGBASE
 50
0.0
  9
$ANGDIR
 70
     0
  9
$PDMODE
 70
     0
  9
$PDSIZE
 40
0.0
  9
$PLINEWID
 40
0.0
  9
$COORDS
 70
     1
  9
$SPLFRAME
 70
     0
  9
$SPLINETYPE
 70
     6
  9
$SPLINESEGS
 70
     8
  9
$ATTDIA
 70
     1
  9
$ATTREQ
 70
     1
  9
$HANDLING
 70
     1
  9
$HANDSEED
  5
1E45
  9
$SURFTAB1
 70
     6
  9
$SURFTAB2
 70
     6
  9
$SURFTYPE
 70
     6
  9
$SURFU
 70
     6
  9
$SURFV
 70
     6
  9
$UCSNAME
  2

  9
$UCSORG
 10
0.0
 20
0.0
 30
0.0
  9
$UCSXDIR
 10
1.0
 20
0.0
 30
0.0
  9
$UCSYDIR
 10
0.0
 20
1.0
 30
0.0
  9
$PUCSNAME
  2

  9
$PUCSORG
 10
0.0
 20
0.0
 30
0.0
  9
$PUCSXDIR
 10
1.0
 20
0.0
 30
0.0
  9
$PUCSYDIR
 10
0.0
 20
1.0
 30
0.0
  9
$USERI1
 70
     0
  9
$USERI2
 70
     0
  9
$USERI3
 70
     0
  9
$USERI4
 70
     0
  9
$USERI5
 70
     0
  9
$USERR1
 40
0.0
  9
$USERR2
 40
0.0
  9
$USERR3
 40
0.0
  9
$USERR4
 40
0.0
  9
$USERR5
 40
0.0
  9
$WORLDVIEW
 70
     1
  9
$SHADEDGE
 70
     3
  9
$SHADEDIF
 70
    70
  9
$TILEMODE
 70
     1
  9
$MAXACTVP
 70
    16
  9
$PLIMCHECK
 70
     0
  9
$PEXTMIN
 10
1.0000000000000000E+20
 20
1.0000000000000000E+20
 30
1.0000000000000000E+20
  9
$PEXTMAX
 10
-1.0000000000000000E+20
 20
-1.0000000000000000E+20
 30
-1.0000000000000000E+20
  9
$PLIMMIN
 10
-0.0674642631973264
 20
-0.0511601294987543
  9
$PLIMMAX
 10
209.9325357368026914
 20
296.9488398705012742
  9
$UNITMODE
 70
     0
  9
$VISRETAIN
 70
     0
  9
$PLINEGEN
 70
     0
  9
$PSLTSCALE
 70
     0
  0
ENDSEC
  0
SECTION
  2
TABLES
  0
TABLE
  2
VPORT
 70
     1
  0
VPORT
  2
*ACTIVE
 70
     0
 10
0.0
 20
0.0
 11
1.0
 21
1.0
 12
-1.677781774986044
 22
-98.0848548841989327
 13
0.0
 23
0.0
 14
1.0
 24
1.0
 15
10.0
 25
10.0
 16
-0.0000000000001705
 26
0.0
 36
779.8116972507940545
 17
238.2187979068247046
 27
-7.560105799787336
 37
-12.9672421971536203
 40
316.1706404483458073
 41
1.7852028639618129
 42
50.0
 43
0.0
 44
0.0
 50
0.0
 51
0.0
 71
     0
 72
  1500
 73
     1
 74
     0
 75
     0
 76
     0
 77
     0
 78
     0
  0
ENDTAB
  0
TABLE
  2
LTYPE
 70
     6
  0
LTYPE
  2
CONTINUOUS
 70
     0
  3
Solid line
 72
    65
 73
     0
 40
0.0
  0
LTYPE
  2
PHANTOM2
 70
     0
  3
Phantom (.5x) ___ _ _ ___ _ _ ___ _ _ ___ _ _
 72
    65
 73
     6
 40
1.25
 49
0.625
 49
-0.125
 49
0.125
 49
-0.125
 49
0.125
 49
-0.125
  0
LTYPE
  2
VERDECKT
 70
     0
  3
Verdeckt __ __ __ __ __ __ __ __ __ __ __ __ __
 72
    65
 73
     2
 40
0.375
 49
0.25
 49
-0.125
  0
ENDTAB
  0
TABLE
  2
LAYER
 70
    15
  0
LAYER
  2
0
 70
     0
 62
     7
  6
CONTINUOUS
  0
LAYER
  2
VOLL
 70
     0
 62
     1
  6
CONTINUOUS
  0
LAYER
  2
STEMPEL
 70
     0
 62
     3
  6
CONTINUOUS
  0
LAYER
  2
DEFPOINTS
 70
     0
 62
     7
  6
CONTINUOUS
  0
LAYER
  2
ADSK_ASSOC_ENTITY_BACKUPS
 70
     1
 62
    -7
  6
CONTINUOUS
  0
ENDTAB
  0
TABLE
  2
STYLE
 70
     4
  0
STYLE
  2
STANDARD
 70
     0
 40
0.0
 41
0.8
 50
0.0
 71
     0
 42
3.5
  3
simplex.shx
  4

  0
STYLE
  2
GREEKS
 70
     0
 40
0.0
 41
0.8
 50
0.0
 71
     0
 42
2.5
  3
SIMPLEX.shx
  4

  0
ENDTAB
  0
TABLE
  2
VIEW
 70
     3
  0
ENDTAB
  0
TABLE
  2
UCS
 70
     0
  0
ENDTAB
  0
TABLE
  2
APPID
 70
    24
  0
APPID
  2
ACAD
 70
     0
  0
APPID
  2
ACAD_NAV_VCDISPLAY
 70
     0
  0
APPID
  2
ACAD_MLEADERVER
 70
     0
  0
APPID
  2
ACAD_EXEMPT_FROM_CAD_STANDARDS
 70
     0
  0
APPID
  2
ACAD_PSEXT
 70
     0
  0
APPID
  2
ACAECLAYERSTANDARD
 70
     0
  0
APPID
  2
ACAUTHENVIRON
 70
     0
  0
APPID
  2
ACCMTRANSPARENCY
 70
     0
  0
APPID
  2
ACAD_STEPID
 70
     0
  0
APPID
  2
ACSYNERGY
 70
     0
  0
APPID
  2
SYNERGY_BODY_TBR_ID
 70
     0
  0
APPID
  2
ACAD_VIEW_EDGE_ID
 70
     0
  0
APPID
  2
ACSYNERGYSKETCH
 70
     0
  0
APPID
  2
ACAD_MODELDOC_XFORM
 70
     0
  0
APPID
  2
ACAD_DSTYLE_DIMJAG
 70
     0
  0
APPID
  2
ACAD_DSTYLE_DIMTALN
 70
     0
  0
APPID
  2
ACADANNOMONITORALERTICONDI
 70
     0
  0
APPID
  2
ACAD_DIMASSOC_CALC_DIMLFAC
 70
     0
  0
APPID
  2
ACAD_DIMASSOC_DIMLFAC
 70
     0
  0
APPID
  2
ACAD_DIMASSOC_OVERRIDDEN_D
 70
     0
  0
APPID
  2
ACAD_DSTYLE_DIMRADIAL_EXTENSION
 70
     0
  0
APPID
  2
GRADIENTCOLOR1ACI
 70
     0
  0
APPID
  2
GRADIENTCOLOR2ACI
 70
     0
  0
APPID
  2
AcDbAttr
 70
     0
  0
ENDTAB
  0
TABLE
  2
DIMSTYLE
 70
     2
  0
DIMSTYLE
  2
STANDARD
 70
     0
  3

  4

  5

  6

  7

 40
1.0
 41
0.18
 42
0.0625
 43
0.38
 44
0.18
 45
0.0
 46
0.0
 47
0.0
 48
0.0
140
0.18
141
0.09
142
0.0
143
25.3999999999999986
144
1.0
145
0.0
146
1.0
147
0.09
 71
     0
 72
     0
 73
     1
 74
     1
 75
     0
 76
     0
 77
     0
 78
     0
170
     0
171
     2
172
     0
173
     0
174
     0
175
     0
176
     0
177
     0
178
     0
  0
ENDTAB
  0
ENDSEC
  0
SECTION
  2
BLOCKS
  0
BLOCK
  8
0
  2
$MODEL_SPACE
 70
     0
 10
0.0
 20
0.0
 30
0.0
  3
$MODEL_SPACE
  1

  0
ENDBLK
  5
36
  8
0
  0
BLOCK
 67
     1
  8
0
  2
$PAPER_SPACE
 70
     0
 10
0.0
 20
0.0
 30
0.0
  3
$PAPER_SPACE
  1

  0
ENDBLK
  5
34
 67
     1
  8
0
  0
BLOCK
  8
0
  2
*S2
 70
     1
 10
0.0
 20
0.0
 30
0.0
  3
*S2
  1

  0
ENDBLK
  5
B3A
  8
0
  0
BLOCK
  8
0
  2
A$C2269EFA4
 70
     0
 10
0.0
 20
0.0
 30
0.0
  3
A$C2269EFA4
  1

  0
CIRCLE
  5
1DC6
  8
0
 10
129.7973054191288043
 20
97.1939330370280459
 30
0.0000000000000284
 40
31.75
  0
CIRCLE
  5
1DC7
  8
0
 10
129.7973054191288043
 20
97.1939330370280459
 30
0.0000000000000284
 40
38.0499999999999616
  0
CIRCLE
  5
1DC8
  8
0
 10
129.7973054191288043
 20
97.1939330370280743
 30
0.0000000000000568
 40
24.3000906917927715
  0
CIRCLE
  5
1DC9
  8
0
 10
129.7973054191288043
 20
97.1939330370281027
 30
0.0000000000000284
 40
25.0
  0
CIRCLE
  5
1DCA
  8
0
  6
VERDECKT
 62
     1
 10
129.7973054191288043
 20
97.1939330370280743
 30
0.0000000000000568
 40
25.8058204481076316
  0
CIRCLE
  5
1DCB
  8
0
  6
VERDECKT
 62
     1
 10
129.7973054191288043
 20
97.1939330370281027
 30
0.0000000000000284
 40
26.5
  0
CIRCLE
  5
1DCC
  8
0
  6
VERDECKT
 62
     1
 10
129.7973054191288043
 20
97.1939330370281027
 30
0.0000000000000284
 40
32.9932730111133878
  0
ENDBLK
  5
1DCE
  8
0
  0
BLOCK
  8
0
  2
A$C5C801E5D
 70
     0
 10
0.0
 20
0.0
 30
0.0
  3
A$C5C801E5D
  1

  0
LINE
  5
1DD2
  8
0
 10
91.7473054191289066
 20
-150.0350682550881061
 30
0.0000000000000333
 11
167.8473054191287872
 21
-150.0350682550881061
 31
0.0000000000000333
210
0.0
220
1.0
230
-0.0000000000000002
  0
LINE
  5
1DD3
  8
0
 10
91.7473054191289066
 20
-50.0350682550880634
 30
0.0000000000000111
 11
167.8473054191287872
 21
-50.0350682550880634
 31
0.0000000000000111
210
0.0
220
1.0
230
-0.0000000000000002
  0
LINE
  5
1DD4
  8
0
 10
167.8473054191287872
 20
-50.0350682550880634
 30
0.0000000000000111
 11
167.8473054191287872
 21
-150.0350682550881061
 31
0.0000000000000333
210
0.0
220
1.0
230
-0.0000000000000002
  0
LINE
  5
1DD5
  8
0
 10
91.7473054191289066
 20
-50.0350682550880634
 30
0.0000000000000111
 11
91.7473054191289066
 21
-150.0350682550881061
 31
0.0000000000000333
210
0.0
220
1.0
230
-0.0000000000000002
  0
LINE
  5
1DD6
  8
0
 10
103.9914849710211939
 20
-260.0350682550879924
 30
0.0000000000000577
 11
155.6031258672365141
 21
-260.0350682550879924
 31
0.0000000000000577
210
0.0
220
1.0
230
-0.0000000000000002
  0
LINE
  5
1DD7
  8
0
 10
96.8040324080154733
 20
-150.8742775375897054
 30
0.0000000000000335
 11
162.7905784302421921
 21
-150.8742775375897054
 31
0.0000000000000335
210
0.0
220
1.0
230
-0.0000000000000002
  0
ARC
  5
1DD8
  8
0
 10
-109.7973054191199935
 20
-251.8167635405457077
 30
0.0
 40
6.4999999999911591
210
0.0
220
-0.0000000000000002
230
-1.0
 50
354.9999999999964189
 51
0.0000000000030024
  0
ARC
  5
1DD9
  8
0
 10
-149.7973054191301969
 20
-251.8167635405455087
 30
0.0
 40
6.4999999999986073
210
0.0
220
-0.0000000000000002
230
-1.0
 50
179.9999999999984084
 51
184.9999999999992895
  0
LINE
  5
1DDA
  8
0
 10
103.9914849710211939
 20
-260.0350682550879924
 30
0.0000000000000577
 11
103.3220398815325041
 21
-252.383275868405093
 31
0.000000000000056
210
0.0
220
1.0
230
-0.0000000000000002
  0
LINE
  5
1DDB
  8
0
 10
155.6031258672365141
 20
-260.0350682550879924
 30
0.0000000000000577
 11
156.2725709567251897
 21
-252.383275868405093
 31
0.000000000000056
210
0.0
220
1.0
230
-0.0000000000000002
  0
LINE
  5
1DDC
  8
0
 10
156.2973054191288895
 20
-162.9412639386630133
 30
0.0000000000000362
 11
156.2973054191288895
 21
-251.816763540545395
 31
0.0000000000000559
210
0.0
220
1.0
230
-0.0000000000000002
  0
LINE
  5
1DDD
  8
0
 10
103.2973054191288043
 20
-162.9412639386630133
 30
0.0000000000000362
 11
103.2973054191288043
 21
-251.816763540545395
 31
0.0000000000000559
210
0.0
220
1.0
230
-0.0000000000000002
  0
LINE
  5
1DDE
  8
0
 10
161.5473054191288043
 20
-150.0350682550881061
 30
0.0000000000000333
 11
162.7905784302421921
 21
-150.8742775375897054
 31
0.0000000000000335
210
0.0
220
1.0
230
-0.0000000000000002
  0
LINE
  5
1DDF
  8
0
 10
98.0473054191288469
 20
-150.0350682550881061
 30
0.0000000000000333
 11
96.8040324080154448
 21
-150.8742775375897054
 31
0.0000000000000335
210
0.0
220
1.0
230
-0.0000000000000002
  0
LINE
  5
1DE0
  8
0
 10
101.9280948117340984
 20
-158.4654810986544931
 30
0.0000000000000352
 11
96.8040324080154448
 21
-150.8742775375897054
 31
0.0000000000000335
210
0.0
220
1.0
230
-0.0000000000000002
  0
LINE
  5
1DE1
  8
0
 10
157.6665160265235954
 20
-158.4654810986544931
 30
0.0000000000000352
 11
162.7905784302421921
 21
-150.8742775375897054
 31
0.0000000000000335
210
0.0
220
1.0
230
-0.0000000000000002
  0
ARC
  5
1DE2
  8
0
 10
-164.2973054191282074
 20
-162.9412639386627006
 30
0.0
 40
7.9999999999993738
210
0.0
220
-0.0000000000000002
230
-1.0
 50
359.9999999999980105
 51
34.0193499898268996
  0
ARC
  5
1DE3
  8
0
 10
-95.2973054191293443
 20
-162.9412639386627859
 30
0.0
 40
7.9999999999995337
210
0.0
220
-0.0000000000000002
230
-1.0
 50
145.9806500101732922
 51
180.0000000000015064
  0
LINE
  5
1DE4
  8
0
  6
VERDECKT
 62
     1
 10
161.5473054191288043
 20
-50.0350682550880634
 30
0.0000000000000111
 11
161.5473054191288043
 21
-150.0350682550881061
 31
0.0000000000000333
210
0.0
220
1.0
230
-0.0000000000000002
  0
LINE
  5
1DE5
  8
0
  6
VERDECKT
 62
     1
 10
98.0473054191288753
 20
-50.0350682550880634
 30
0.0000000000000111
 11
98.0473054191288753
 21
-150.0350682550881061
 31
0.0000000000000333
210
0.0
220
1.0
230
-0.0000000000000002
  0
LINE
  5
1DE6
  8
0
  6
VERDECKT
 62
     1
 10
105.4972147273361003
 20
-260.0350682550879924
 30
0.0000000000000577
 11
104.8353584382114008
 21
-252.4700162534795993
 31
0.0000000000000561
210
0.0
220
1.0
230
-0.0000000000000002
  0
LINE
  5
1DE7
  8
0
  6
VERDECKT
 62
     1
 10
154.0973961109216077
 20
-260.0350682550879924
 30
0.0000000000000577
 11
154.7592524000463072
 21
-252.4700162534795993
 31
0.0000000000000561
210
0.0
220
1.0
230
-0.0000000000000002
  0
ARC
  5
1DE8
  8
0
  6
VERDECKT
 62
     1
 10
-114.7973054191241999
 20
-251.5984588260033945
 30
0.0
 40
9.9999999999953388
210
0.0
220
-0.0000000000000002
230
-1.0
 50
355.0000000000002274
 51
0.0000000000012977
  0
ARC
  5
1DE9
  8
0
  6
VERDECKT
 62
     1
 10
-144.7973054191334938
 20
-251.5984588260033945
 30
0.0
 40
9.9999999999953673
210
0.0
220
-0.0000000000000002
230
-1.0
 50
179.9999999999986073
 51
184.9999999999996874
  0
ARC
  5
1DEA
  8
0
  6
VERDECKT
 62
     1
 10
-164.2973054191288043
 20
-162.9412639386630133
 30
0.0
 40
9.5
210
0.0
220
-0.0000000000000002
230
-1.0
 50
0.0
 51
34.0193499898259901
  0
ARC
  5
1DEB
  8
0
  6
VERDECKT
 62
     1
 10
-95.2973054191293159
 20
-162.9412639386628996
 30
0.0
 40
9.4999999999995595
210
0.0
220
-0.0000000000000002
230
-1.0
 50
145.980650010173008
 51
180.0000000000005969
  0
LINE
  5
1DEC
  8
0
  6
VERDECKT
 62
     1
 10
103.1713678228475004
 20
-157.6262718161530074
 30
0.000000000000035
 11
98.0473054191288753
 21
-150.0350682550881061
 31
0.0000000000000333
210
0.0
220
1.0
230
-0.0000000000000002
  0
LINE
  5
1DED
  8
0
  6
VERDECKT
 62
     1
 10
156.4232430154100939
 20
-157.6262718161530074
 30
0.000000000000035
 11
161.5473054191288043
 21
-150.0350682550881061
 31
0.0000000000000333
210
0.0
220
1.0
230
-0.0000000000000002
  0
LINE
  5
1DEE
  8
0
  6
VERDECKT
 62
     1
 10
154.7973054191288043
 20
-162.9412639386630133
 30
0.0000000000000362
 11
154.7973054191288043
 21
-251.5984588260031956
 31
0.0000000000000559
210
0.0
220
1.0
230
-0.0000000000000002
  0
LINE
  5
1DEF
  8
0
  6
VERDECKT
 62
     1
 10
104.7973054191288043
 20
-162.9412639386630133
 30
0.0000000000000362
 11
104.7973054191288043
 21
-251.5984588260031956
 31
0.0000000000000559
210
0.0
220
1.0
230
-0.0000000000000002
  0
ENDBLK
  5
1DF1
  8
0
  0
ENDSEC
  0
SECTION
  2
ENTITIES
  0
TEXT
  5
8F
  8
VOLL
 10
78.076754716981128
 20
31.025947764705851
 30
0.0
 40
1.8
  1

  7
GREEKS
  0
INSERT
  5
B3C
  8
ADSK_ASSOC_ENTITY_BACKUPS
  2
*S2
 10
0.0
 20
0.0
 30
0.0
  0
INSERT
  5
1DCF
  8
STEMPEL
  2
A$C2269EFA4
 10
106.7437107127097988
 20
-321.7517146299859974
 30
-25.9344843943072796
  0
INSERT
  5
1DF2
  8
STEMPEL
  2
A$C5C801E5D
 10
106.7437107127097988
 20
101.3529284800734018
 30
-25.9344843943073009
  0
VIEWPORT
  5
928
 67
     1
  8
0
 10
104.9325357368027056
 20
148.4488398705011889
 30
0.0
 40
533.9969448798291296
 41
299.1239570917758783
 68
     1
 69
     1
1001
ACAD
1000
MVIEW
1002
{
1070
    16
1010
0.0
1020
0.0
1030
0.0
1010
0.0
1020
0.0
1030
1.0
1040
0.0
1040
299.1239570917758783
1040
104.9325357368027056
1040
148.4488398705011889
1040
50.0
1040
0.0
1040
0.0
1070
     0
1070
  1500
1070
     1
1070
     1
1070
     0
1070
     0
1070
     0
1070
     0
1040
0.0
1040
0.0
1040
0.0
1040
10.0
1040
10.0
1040
10.0
1040
10.0
1070
     0
1002
{
1002
}
1002
}
  0
ENDSEC
  0
EOF
