  0
SECTION
  2
HEADER
  9
$ACADVER
  1
AC1009
  9
$INSBASE
 10
0.0
 20
0.0
 30
0.0
  9
$EXTMIN
 10
185.98810398311781
 20
-266.6450637327133109
 30
-25.0070940404893314
  9
$EXTMAX
 10
262.5467866103772963
 20
46.9632058139968791
 30
-25.0070940404892816
  9
$LIMMIN
 10
0.0
 20
0.0
  9
$LIMMAX
 10
210.0
 20
297.0
  9
$ORTHOMODE
 70
     1
  9
$REGENMODE
 70
     1
  9
$FILLMODE
 70
     1
  9
$QTEXTMODE
 70
     0
  9
$MIRRTEXT
 70
     1
  9
$DRAGMODE
 70
     2
  9
$LTSCALE
 40
10.0
  9
$OSMODE
 70
  2495
  9
$ATTMODE
 70
     1
  9
$TEXTSIZE
 40
3.5
  9
$TRACEWID
 40
0.5
  9
$TEXTSTYLE
  7
STANDARD
  9
$CLAYER
  8
STEMPEL
  9
$CELTYPE
  6
BYLAYER
  9
$CECOLOR
 62
   256
  9
$DIMSCALE
 40
1.0
  9
$DIMASZ
 40
3.5
  9
$DIMEXO
 40
1.0
  9
$DIMDLI
 40
7.0
  9
$DIMRND
 40
0.0
  9
$DIMDLE
 40
0.0
  9
$DIMEXE
 40
1.0
  9
$DIMTP
 40
0.0
  9
$DIMTM
 40
0.0
  9
$DIMTXT
 40
3.5
  9
$DIMCEN
 40
1.5
  9
$DIMTSZ
 40
0.0
  9
$DIMTOL
 70
     0
  9
$DIMLIM
 70
     0
  9
$DIMTIH
 70
     0
  9
$DIMTOH
 70
     0
  9
$DIMSE1
 70
     0
  9
$DIMSE2
 70
     0
  9
$DIMTAD
 70
     1
  9
$DIMZIN
 70
     8
  9
$DIMBLK
  1

  9
$DIMASO
 70
     1
  9
$DIMSHO
 70
     0
  9
$DIMPOST
  1

  9
$DIMAPOST
  1

  9
$DIMALT
 70
     0
  9
$DIMALTD
 70
     2
  9
$DIMALTF
 40
25.3999999999999986
  9
$DIMLFAC
 40
2.0
  9
$DIMTOFL
 70
     1
  9
$DIMTVP
 40
0.0
  9
$DIMTIX
 70
     0
  9
$DIMSOXD
 70
     0
  9
$DIMSAH
 70
     0
  9
$DIMBLK1
  1

  9
$DIMBLK2
  1

  9
$DIMSTYLE
  2
STANDARD
  9
$DIMCLRD
 70
     0
  9
$DIMCLRE
 70
     0
  9
$DIMCLRT
 70
     1
  9
$DIMTFAC
 40
0.5
  9
$DIMGAP
 40
1.5
  9
$LUNITS
 70
     2
  9
$LUPREC
 70
     2
  9
$SKETCHINC
 40
1.0
  9
$FILLETRAD
 40
15.0
  9
$AUNITS
 70
     0
  9
$AUPREC
 70
     0
  9
$MENU
  1
ACAD
  9
$ELEVATION
 40
0.0
  9
$PELEVATION
 40
0.0
  9
$THICKNESS
 40
0.0
  9
$LIMCHECK
 70
     0
  9
$BLIPMODE
 70
     0
  9
$CHAMFERA
 40
2.0
  9
$CHAMFERB
 40
2.0
  9
$SKPOLY
 70
     0
  9
$TDCREATE
 40
2455397.8646990740671754
  9
$TDUPDATE
 40
2459627.3687731479294598
  9
$TDINDWG
 40
0.1763003704
  9
$TDUSRTIMER
 40
0.1763003704
  9
$USRTIMER
 70
     1
  9
$ANGBASE
 50
0.0
  9
$ANGDIR
 70
     0
  9
$PDMODE
 70
     0
  9
$PDSIZE
 40
0.0
  9
$PLINEWID
 40
0.0
  9
$COORDS
 70
     1
  9
$SPLFRAME
 70
     0
  9
$SPLINETYPE
 70
     6
  9
$SPLINESEGS
 70
     8
  9
$ATTDIA
 70
     1
  9
$ATTREQ
 70
     1
  9
$HANDLING
 70
     1
  9
$HANDSEED
  5
1D22
  9
$SURFTAB1
 70
     6
  9
$SURFTAB2
 70
     6
  9
$SURFTYPE
 70
     6
  9
$SURFU
 70
     6
  9
$SURFV
 70
     6
  9
$UCSNAME
  2

  9
$UCSORG
 10
0.0
 20
0.0
 30
0.0
  9
$UCSXDIR
 10
1.0
 20
0.0
 30
0.0
  9
$UCSYDIR
 10
0.0
 20
1.0
 30
0.0
  9
$PUCSNAME
  2

  9
$PUCSORG
 10
0.0
 20
0.0
 30
0.0
  9
$PUCSXDIR
 10
1.0
 20
0.0
 30
0.0
  9
$PUCSYDIR
 10
0.0
 20
1.0
 30
0.0
  9
$USERI1
 70
     0
  9
$USERI2
 70
     0
  9
$USERI3
 70
     0
  9
$USERI4
 70
     0
  9
$USERI5
 70
     0
  9
$USERR1
 40
0.0
  9
$USERR2
 40
0.0
  9
$USERR3
 40
0.0
  9
$USERR4
 40
0.0
  9
$USERR5
 40
0.0
  9
$WORLDVIEW
 70
     1
  9
$SHADEDGE
 70
     3
  9
$SHADEDIF
 70
    70
  9
$TILEMODE
 70
     1
  9
$MAXACTVP
 70
    16
  9
$PLIMCHECK
 70
     0
  9
$PEXTMIN
 10
1.0000000000000000E+20
 20
1.0000000000000000E+20
 30
1.0000000000000000E+20
  9
$PEXTMAX
 10
-1.0000000000000000E+20
 20
-1.0000000000000000E+20
 30
-1.0000000000000000E+20
  9
$PLIMMIN
 10
-0.0674642631973264
 20
-0.0511601294987543
  9
$PLIMMAX
 10
209.9325357368026914
 20
296.9488398705012742
  9
$UNITMODE
 70
     0
  9
$VISRETAIN
 70
     0
  9
$PLINEGEN
 70
     0
  9
$PSLTSCALE
 70
     0
  0
ENDSEC
  0
SECTION
  2
TABLES
  0
TABLE
  2
VPORT
 70
     1
  0
VPORT
  2
*ACTIVE
 70
     0
 10
0.0
 20
0.0
 11
1.0
 21
1.0
 12
0.0000000526988799
 22
-95.7413208674288683
 13
0.0
 23
0.0
 14
1.0
 24
1.0
 15
10.0
 25
10.0
 16
-0.0000000000001705
 26
0.0
 36
767.335054563859785
 17
224.2674452440487016
 27
-14.0996080919293103
 37
-12.5035470202446692
 40
315.8509985303575718
 41
1.785202863961814
 42
50.0
 43
0.0
 44
0.0
 50
0.0
 51
0.0
 71
     0
 72
  1500
 73
     1
 74
     0
 75
     0
 76
     0
 77
     0
 78
     0
  0
ENDTAB
  0
TABLE
  2
LTYPE
 70
     6
  0
LTYPE
  2
CONTINUOUS
 70
     0
  3
Solid line
 72
    65
 73
     0
 40
0.0
  0
LTYPE
  2
PHANTOM2
 70
     0
  3
Phantom (.5x) ___ _ _ ___ _ _ ___ _ _ ___ _ _
 72
    65
 73
     6
 40
1.25
 49
0.625
 49
-0.125
 49
0.125
 49
-0.125
 49
0.125
 49
-0.125
  0
LTYPE
  2
VERDECKT
 70
     0
  3
Verdeckt __ __ __ __ __ __ __ __ __ __ __ __ __
 72
    65
 73
     2
 40
0.375
 49
0.25
 49
-0.125
  0
ENDTAB
  0
TABLE
  2
LAYER
 70
    15
  0
LAYER
  2
0
 70
     0
 62
     7
  6
CONTINUOUS
  0
LAYER
  2
VOLL
 70
     0
 62
     1
  6
CONTINUOUS
  0
LAYER
  2
DEFPOINTS
 70
     0
 62
     7
  6
CONTINUOUS
  0
LAYER
  2
ADSK_ASSOC_ENTITY_BACKUPS
 70
     1
 62
    -7
  6
CONTINUOUS
  0
LAYER
  2
STEMPEL
 70
     0
 62
     3
  6
CONTINUOUS
  0
ENDTAB
  0
TABLE
  2
STYLE
 70
     4
  0
STYLE
  2
STANDARD
 70
     0
 40
0.0
 41
0.8
 50
0.0
 71
     0
 42
3.5
  3
simplex.shx
  4

  0
STYLE
  2
GREEKS
 70
     0
 40
0.0
 41
0.8
 50
0.0
 71
     0
 42
2.5
  3
SIMPLEX.shx
  4

  0
ENDTAB
  0
TABLE
  2
VIEW
 70
     1
  0
ENDTAB
  0
TABLE
  2
UCS
 70
     0
  0
ENDTAB
  0
TABLE
  2
APPID
 70
    24
  0
APPID
  2
ACAD
 70
     0
  0
APPID
  2
ACAD_NAV_VCDISPLAY
 70
     0
  0
APPID
  2
ACAD_MLEADERVER
 70
     0
  0
APPID
  2
ACAD_EXEMPT_FROM_CAD_STANDARDS
 70
     0
  0
APPID
  2
ACAD_PSEXT
 70
     0
  0
APPID
  2
ACAECLAYERSTANDARD
 70
     0
  0
APPID
  2
ACAUTHENVIRON
 70
     0
  0
APPID
  2
ACCMTRANSPARENCY
 70
     0
  0
APPID
  2
ACAD_STEPID
 70
     0
  0
APPID
  2
ACSYNERGY
 70
     0
  0
APPID
  2
SYNERGY_BODY_TBR_ID
 70
     0
  0
APPID
  2
ACAD_VIEW_EDGE_ID
 70
     0
  0
APPID
  2
ACSYNERGYSKETCH
 70
     0
  0
APPID
  2
ACAD_MODELDOC_XFORM
 70
     0
  0
APPID
  2
ACAD_DSTYLE_DIMJAG
 70
     0
  0
APPID
  2
ACAD_DSTYLE_DIMTALN
 70
     0
  0
APPID
  2
ACADANNOMONITORALERTICONDI
 70
     0
  0
APPID
  2
ACAD_DIMASSOC_CALC_DIMLFAC
 70
     0
  0
APPID
  2
ACAD_DIMASSOC_DIMLFAC
 70
     0
  0
APPID
  2
ACAD_DIMASSOC_OVERRIDDEN_D
 70
     0
  0
APPID
  2
ACAD_DSTYLE_DIMRADIAL_EXTENSION
 70
     0
  0
APPID
  2
GRADIENTCOLOR1ACI
 70
     0
  0
APPID
  2
GRADIENTCOLOR2ACI
 70
     0
  0
APPID
  2
AcDbAttr
 70
     0
  0
ENDTAB
  0
TABLE
  2
DIMSTYLE
 70
     2
  0
DIMSTYLE
  2
STANDARD
 70
     0
  3

  4

  5

  6

  7

 40
1.0
 41
0.18
 42
0.0625
 43
0.38
 44
0.18
 45
0.0
 46
0.0
 47
0.0
 48
0.0
140
0.18
141
0.09
142
0.0
143
25.3999999999999986
144
1.0
145
0.0
146
1.0
147
0.09
 71
     0
 72
     0
 73
     1
 74
     1
 75
     0
 76
     0
 77
     0
 78
     0
170
     0
171
     2
172
     0
173
     0
174
     0
175
     0
176
     0
177
     0
178
     0
  0
ENDTAB
  0
ENDSEC
  0
SECTION
  2
BLOCKS
  0
BLOCK
  8
0
  2
$MODEL_SPACE
 70
     0
 10
0.0
 20
0.0
 30
0.0
  3
$MODEL_SPACE
  1

  0
ENDBLK
  5
36
  8
0
  0
BLOCK
 67
     1
  8
0
  2
$PAPER_SPACE
 70
     0
 10
0.0
 20
0.0
 30
0.0
  3
$PAPER_SPACE
  1

  0
ENDBLK
  5
34
 67
     1
  8
0
  0
BLOCK
  8
0
  2
*S2
 70
     1
 10
0.0
 20
0.0
 30
0.0
  3
*S2
  1

  0
ENDBLK
  5
B3A
  8
0
  0
BLOCK
  8
0
  2
A$C19FF3771
 70
     0
 10
0.0
 20
0.0
 30
0.0
  3
A$C19FF3771
  1

  0
CIRCLE
  5
1C9E
  8
0
 10
48.6756027062708014
 20
107.6127100475250984
 30
-0.0000000000000284
 40
38.0499999999999901
  0
CIRCLE
  5
1C9F
  8
0
 10
48.6756027062708014
 20
107.6127100475250984
 30
-0.0000000000000284
 40
31.7500000000000284
  0
CIRCLE
  5
1CA0
  8
0
 10
48.6756027062708725
 20
107.6127100475250984
 30
-0.0000000000000568
 40
19.1625566823527897
  0
CIRCLE
  5
1CA1
  8
0
 10
48.6756027062707233
 20
107.6127100475250984
 30
-0.0000000000000284
 40
19.60000000000014
  0
CIRCLE
  5
1CA2
  8
0
  6
VERDECKT
 62
     1
 10
48.6756027062708725
 20
107.6127100475250984
 30
-0.0000000000000568
 40
20.7686684224223299
  0
CIRCLE
  5
1CA3
  8
0
  6
VERDECKT
 62
     1
 10
48.6756027062707233
 20
107.6127100475250984
 30
-0.0000000000000284
 40
21.2000000000001592
  0
CIRCLE
  5
1CA4
  8
0
  6
VERDECKT
 62
     1
 10
48.6756027062707233
 20
107.6127100475250984
 30
-0.0000000000000284
 40
32.9193993402709424
  0
ENDBLK
  5
1CA6
  8
0
  0
BLOCK
  8
0
  2
A$C5388485A
 70
     0
 10
0.0
 20
0.0
 30
0.0
  3
A$C5388485A
  1

  0
LINE
  5
1CAA
  8
0
 10
167.8473054191289009
 20
-150.0350682550879924
 30
0.0000000000000333
 11
91.7473054191290203
 21
-150.0350682550881913
 31
0.0000000000000333
210
0.0
220
1.0
230
-0.0000000000000002
  0
LINE
  5
1CAB
  8
0
 10
167.8473054191287872
 20
-50.0350682550879995
 30
0.0000000000000111
 11
91.7473054191289066
 21
-50.0350682550881203
 31
0.0000000000000111
210
0.0
220
1.0
230
-0.0000000000000002
  0
LINE
  5
1CAC
  8
0
 10
91.7473054191289776
 20
-150.0350682550881913
 30
0.0000000000000333
 11
91.7473054191288355
 21
-50.0350682550881203
 31
0.0000000000000111
210
0.0
220
1.0
230
-0.0000000000000002
  0
LINE
  5
1CAD
  8
0
 10
167.8473054191289009
 20
-150.0350682550879924
 30
0.0000000000000333
 11
167.8473054191287019
 21
-50.0350682550879995
 31
0.0000000000000111
210
0.0
220
1.0
230
-0.0000000000000002
  0
LINE
  5
1CAE
  8
0
 10
109.0286369967064957
 20
-260.0350682550895272
 30
0.0000000000000577
 11
150.5659738415511981
 21
-260.035068255086685
 31
0.0000000000000577
210
0.0
220
1.0
230
-0.0000000000000002
  0
LINE
  5
1CAF
  8
0
 10
162.716704759399704
 20
-150.9744857251058932
 30
0.0000000000000335
 11
96.877906078857805
 21
-150.9744857251056942
 31
0.0000000000000335
210
0.0
220
1.0
230
-0.0000000000000002
  0
ARC
  5
1CB0
  8
0
 10
-114.1973054191302026
 20
-254.8604244832548886
 30
0.0
 40
5.600000000001784
210
0.0
220
-0.0000000000000002
230
-1.0
 50
354.999999999996021
 51
0.0000000000005852
  0
ARC
  5
1CB1
  8
0
 10
-145.3973054191241943
 20
-254.8604244832548034
 30
0.0
 40
5.6000000000045409
210
0.0
220
-0.0000000000000002
230
-1.0
 50
180.0000000000011084
 51
184.9999999999944009
  0
LINE
  5
1CB2
  8
0
 10
109.0286369967065951
 20
-260.0350682550895272
 30
0.0000000000000577
 11
108.6186151098145984
 21
-255.3484966426424023
 31
0.0000000000000567
210
0.0
220
1.0
230
-0.0000000000000002
  0
LINE
  5
1CB3
  8
0
 10
150.5659738415511981
 20
-260.035068255086685
 30
0.0000000000000577
 11
150.975995728442399
 21
-255.3484966426416065
 31
0.0000000000000567
210
0.0
220
1.0
230
-0.0000000000000002
  0
LINE
  5
1CB4
  8
0
 10
108.5973054191284035
 20
-254.8604244832548886
 30
0.0000000000000566
 11
108.5973054191286025
 21
-169.7860006667033019
 31
0.0000000000000377
210
0.0
220
1.0
230
-0.0000000000000002
  0
LINE
  5
1CB5
  8
0
 10
150.9973054191287929
 20
-254.8604244832550023
 30
0.0000000000000566
 11
150.9973054191289066
 21
-169.7860006667033872
 31
0.0000000000000377
210
0.0
220
1.0
230
-0.0000000000000002
  0
ARC
  5
1CB6
  8
0
 10
-96.5973054191286735
 20
-169.7860006667033019
 30
0.0
 40
11.9999999999999005
210
0.0
220
-0.0000000000000002
230
-1.0
 50
141.2239261191438118
 51
180.000000000000199
  0
ARC
  5
1CB7
  8
0
 10
-162.9973054191285939
 20
-169.7860006667033019
 30
0.0
 40
11.9999999999997105
210
0.0
220
-0.0000000000000002
230
-1.0
 50
359.9999999999996021
 51
38.7760738808565932
  0
LINE
  5
1CB8
  8
0
 10
105.9525001412950047
 20
-162.2706609065629095
 30
0.000000000000036
 11
96.877906078857805
 21
-150.9744857251056942
 31
0.0000000000000335
210
0.0
220
1.0
230
-0.0000000000000002
  0
LINE
  5
1CB9
  8
0
 10
153.6421106969623906
 20
-162.2706609065629948
 30
0.000000000000036
 11
162.716704759399704
 21
-150.9744857251058079
 31
0.0000000000000335
210
0.0
220
1.0
230
-0.0000000000000002
  0
LINE
  5
1CBA
  8
0
 10
161.5473054191288895
 20
-150.0350682550881913
 30
0.0000000000000333
 11
162.716704759399704
 21
-150.9744857251056942
 31
0.0000000000000335
210
0.0
220
1.0
230
-0.0000000000000002
  0
LINE
  5
1CBB
  8
0
 10
98.0473054191286195
 20
-150.0350682550879924
 30
0.0000000000000333
 11
96.8779060788577766
 21
-150.9744857251056089
 31
0.0000000000000335
210
0.0
220
1.0
230
-0.0000000000000002
  0
LINE
  5
1CBC
  8
0
  6
VERDECKT
 62
     1
 10
98.0473054191289464
 20
-150.0350682550881061
 30
0.0000000000000333
 11
98.0473054191288043
 21
-50.0350682550881203
 31
0.0000000000000111
210
0.0
220
1.0
230
-0.0000000000000002
  0
LINE
  5
1CBD
  8
0
  6
VERDECKT
 62
     1
 10
161.5473054191288895
 20
-150.0350682550879924
 30
0.0000000000000333
 11
161.5473054191288043
 21
-50.0350682550879995
 31
0.0000000000000111
210
0.0
220
1.0
230
-0.0000000000000002
  0
LINE
  5
1CBE
  8
0
  6
VERDECKT
 62
     1
 10
110.6347487367761033
 20
-260.0350682550892998
 30
0.0000000000000577
 11
110.2353584382212972
 21
-255.4700162533999901
 31
0.0000000000000567
210
0.0
220
1.0
230
-0.0000000000000002
  0
LINE
  5
1CBF
  8
0
  6
VERDECKT
 62
     1
 10
148.9598621014816899
 20
-260.035068255086685
 30
0.0000000000000577
 11
149.3592524000358992
 21
-255.4700162533972048
 31
0.0000000000000567
210
0.0
220
1.0
230
-0.0000000000000002
  0
ARC
  5
1CC0
  8
0
  6
VERDECKT
 62
     1
 10
-120.1973054191341959
 20
-254.5984588259219947
 30
0.0
 40
9.9999999999955822
210
0.0
220
-0.0000000000000002
230
-1.0
 50
354.999999999989825
 51
359.9999999999968736
  0
ARC
  5
1CC1
  8
0
  6
VERDECKT
 62
     1
 10
-139.3973054191158099
 20
-254.5984588259204884
 30
0.0
 40
10.0000000000025793
210
0.0
220
-0.0000000000000002
230
-1.0
 50
179.9999999999965894
 51
184.9999999999998863
  0
ARC
  5
1CC2
  8
0
  6
VERDECKT
 62
     1
 10
-96.5973054191286451
 20
-169.7860006667033019
 30
0.0
 40
13.5999999999999801
210
0.0
220
-0.0000000000000002
230
-1.0
 50
141.2239261191438118
 51
180.0
  0
ARC
  5
1CC3
  8
0
  6
VERDECKT
 62
     1
 10
-162.9973054191287076
 20
-169.7860006667033872
 30
0.0
 40
13.5999999999998504
210
0.0
220
-0.0000000000000002
230
-1.0
 50
0.0
 51
38.7760738808564085
  0
LINE
  5
1CC4
  8
0
  6
VERDECKT
 62
     1
 10
107.1998594375838962
 20
-161.268615605210897
 30
0.0000000000000358
 11
98.0473054191286337
 21
-150.0350682550881061
 31
0.0000000000000333
210
0.0
220
1.0
230
-0.0000000000000002
  0
LINE
  5
1CC5
  8
0
  6
VERDECKT
 62
     1
 10
152.3947514006734991
 20
-161.268615605210897
 30
0.0000000000000358
 11
161.5473054191288043
 21
-150.0350682550881913
 31
0.0000000000000333
210
0.0
220
1.0
230
-0.0000000000000002
  0
LINE
  5
1CC6
  8
0
  6
VERDECKT
 62
     1
 10
110.1973054191284973
 20
-254.5984588259225916
 30
0.0000000000000565
 11
110.1973054191285968
 21
-169.7860006667033019
 31
0.0000000000000377
210
0.0
220
1.0
230
-0.0000000000000002
  0
LINE
  5
1CC7
  8
0
  6
VERDECKT
 62
     1
 10
149.3973054191287133
 20
-254.5984588259198063
 30
0.0000000000000565
 11
149.3973054191289123
 21
-169.7860006667033872
 31
0.0000000000000377
210
0.0
220
1.0
230
-0.0000000000000002
  0
ENDBLK
  5
1CC9
  8
0
  0
ENDSEC
  0
SECTION
  2
ENTITIES
  0
TEXT
  5
8F
  8
VOLL
 10
78.076754716981128
 20
31.025947764705851
 30
0.0
 40
1.8
  1

  7
GREEKS
  0
INSERT
  5
B3C
  8
ADSK_ASSOC_ENTITY_BACKUPS
  2
*S2
 10
0.0
 20
0.0
 30
0.0
  0
INSERT
  5
1CA7
  8
STEMPEL
  2
A$C19FF3771
 10
175.8211839041065048
 20
-336.2077737802384263
 30
-25.0070940404892603
  0
INSERT
  5
1CCA
  8
STEMPEL
  2
A$C5388485A
 10
94.2407985639889461
 20
96.9982740690848857
 30
-25.0070940404893314
  0
VIEWPORT
  5
928
 67
     1
  8
0
 10
104.9325357368027056
 20
148.4488398705011889
 30
0.0
 40
533.9969448798291296
 41
299.1239570917758783
 68
     1
 69
     1
1001
ACAD
1000
MVIEW
1002
{
1070
    16
1010
0.0
1020
0.0
1030
0.0
1010
0.0
1020
0.0
1030
1.0
1040
0.0
1040
299.1239570917758783
1040
104.9325357368027056
1040
148.4488398705011889
1040
50.0
1040
0.0
1040
0.0
1070
     0
1070
  1500
1070
     1
1070
     1
1070
     0
1070
     0
1070
     0
1070
     0
1040
0.0
1040
0.0
1040
0.0
1040
10.0
1040
10.0
1040
10.0
1040
10.0
1070
     0
1002
{
1002
}
1002
}
  0
ENDSEC
  0
EOF
