  0
SECTION
  2
HEADER
  9
$ACADVER
  1
AC1009
  9
$INSBASE
 10
0.0
 20
0.0
 30
0.0
  9
$EXTMIN
 10
587.14172502062149
 20
-711.44786305013849
 30
-210.0000000000002
  9
$EXTMAX
 10
1199.2833507362391
 20
561.1889085183094
 30
0.0000000100000539
  9
$LIMMIN
 10
0.0
 20
0.0
  9
$LIMMAX
 10
419.99999999999989
 20
594.0
  9
$ORTHOMODE
 70
     1
  9
$REGENMODE
 70
     1
  9
$FILLMODE
 70
     1
  9
$QTEXTMODE
 70
     0
  9
$MIRRTEXT
 70
     1
  9
$DRAGMODE
 70
     2
  9
$LTSCALE
 40
20.0
  9
$OSMODE
 70
   311
  9
$ATTMODE
 70
     1
  9
$TEXTSIZE
 40
3.5
  9
$TRACEWID
 40
0.5
  9
$TEXTSTYLE
  7
STANDARD
  9
$CLAYER
  8
VOLL
  9
$CELTYPE
  6
BYLAYER
  9
$CECOLOR
 62
   256
  9
$DIMSCALE
 40
2.0
  9
$DIMASZ
 40
3.5
  9
$DIMEXO
 40
1.0
  9
$DIMDLI
 40
7.0
  9
$DIMRND
 40
0.0
  9
$DIMDLE
 40
0.0
  9
$DIMEXE
 40
1.0
  9
$DIMTP
 40
0.0
  9
$DIMTM
 40
0.0
  9
$DIMTXT
 40
3.5
  9
$DIMCEN
 40
1.5
  9
$DIMTSZ
 40
0.0
  9
$DIMTOL
 70
     0
  9
$DIMLIM
 70
     0
  9
$DIMTIH
 70
     0
  9
$DIMTOH
 70
     0
  9
$DIMSE1
 70
     0
  9
$DIMSE2
 70
     0
  9
$DIMTAD
 70
     1
  9
$DIMZIN
 70
     8
  9
$DIMBLK
  1

  9
$DIMASO
 70
     1
  9
$DIMSHO
 70
     0
  9
$DIMPOST
  1

  9
$DIMAPOST
  1

  9
$DIMALT
 70
     0
  9
$DIMALTD
 70
     2
  9
$DIMALTF
 40
25.399999999999999
  9
$DIMLFAC
 40
1.0
  9
$DIMTOFL
 70
     1
  9
$DIMTVP
 40
0.0
  9
$DIMTIX
 70
     0
  9
$DIMSOXD
 70
     0
  9
$DIMSAH
 70
     0
  9
$DIMBLK1
  1

  9
$DIMBLK2
  1

  9
$DIMSTYLE
  2
STANDARD
  9
$DIMCLRD
 70
     0
  9
$DIMCLRE
 70
     0
  9
$DIMCLRT
 70
     1
  9
$DIMTFAC
 40
0.5
  9
$DIMGAP
 40
1.5
  9
$LUNITS
 70
     2
  9
$LUPREC
 70
     2
  9
$SKETCHINC
 40
1.0
  9
$FILLETRAD
 40
0.0
  9
$AUNITS
 70
     0
  9
$AUPREC
 70
     0
  9
$MENU
  1
ACAD
  9
$ELEVATION
 40
0.0
  9
$PELEVATION
 40
0.0
  9
$THICKNESS
 40
0.0
  9
$LIMCHECK
 70
     0
  9
$BLIPMODE
 70
     0
  9
$CHAMFERA
 40
0.0
  9
$CHAMFERB
 40
0.0
  9
$SKPOLY
 70
     0
  9
$TDCREATE
 40
2455240.4187527779
  9
$TDUPDATE
 40
2458431.3478279398
  9
$TDINDWG
 40
0.4995044907
  9
$TDUSRTIMER
 40
0.4995044907
  9
$USRTIMER
 70
     1
  9
$ANGBASE
 50
0.0
  9
$ANGDIR
 70
     0
  9
$PDMODE
 70
     0
  9
$PDSIZE
 40
0.0
  9
$PLINEWID
 40
0.0
  9
$COORDS
 70
     1
  9
$SPLFRAME
 70
     0
  9
$SPLINETYPE
 70
     6
  9
$SPLINESEGS
 70
     8
  9
$ATTDIA
 70
     0
  9
$ATTREQ
 70
     0
  9
$HANDLING
 70
     1
  9
$HANDSEED
  5
975A
  9
$SURFTAB1
 70
     6
  9
$SURFTAB2
 70
     6
  9
$SURFTYPE
 70
     6
  9
$SURFU
 70
     6
  9
$SURFV
 70
     6
  9
$UCSNAME
  2

  9
$UCSORG
 10
0.0
 20
0.0
 30
0.0
  9
$UCSXDIR
 10
1.0
 20
0.0
 30
0.0
  9
$UCSYDIR
 10
0.0
 20
1.0
 30
0.0
  9
$PUCSNAME
  2

  9
$PUCSORG
 10
0.0
 20
0.0
 30
0.0
  9
$PUCSXDIR
 10
1.0
 20
0.0
 30
0.0
  9
$PUCSYDIR
 10
0.0
 20
1.0
 30
0.0
  9
$USERI1
 70
     0
  9
$USERI2
 70
     0
  9
$USERI3
 70
     0
  9
$USERI4
 70
     0
  9
$USERI5
 70
     0
  9
$USERR1
 40
0.0
  9
$USERR2
 40
0.0
  9
$USERR3
 40
0.0
  9
$USERR4
 40
0.0
  9
$USERR5
 40
0.0
  9
$WORLDVIEW
 70
     1
  9
$SHADEDGE
 70
     3
  9
$SHADEDIF
 70
    70
  9
$TILEMODE
 70
     1
  9
$MAXACTVP
 70
    16
  9
$PLIMCHECK
 70
     0
  9
$PEXTMIN
 10
1.0000000000000000E+020
 20
1.0000000000000000E+020
 30
1.0000000000000000E+020
  9
$PEXTMAX
 10
-1.0000000000000000E+020
 20
-1.0000000000000000E+020
 30
-1.0000000000000000E+020
  9
$PLIMMIN
 10
-0.2500002402958907
 20
-0.2499999962453767
  9
$PLIMMAX
 10
10.74999951940822
 20
8.2499997634587334
  9
$UNITMODE
 70
     0
  9
$VISRETAIN
 70
     0
  9
$PLINEGEN
 70
     0
  9
$PSLTSCALE
 70
     0
  0
ENDSEC
  0
SECTION
  2
TABLES
  0
TABLE
  2
VPORT
 70
     1
  0
VPORT
  2
*ACTIVE
 70
     0
 10
0.0
 20
0.0
 11
1.0
 21
1.0
 12
0.0
 22
0.0
 13
0.0
 23
0.0
 14
1.0
 24
1.0
 15
10.0
 25
10.0
 16
-0.0000000000004547
 26
0.0
 36
1447.5235404135601
 17
1176.3724780741891
 27
-98.803688806761301
 37
-309.96875376840779
 40
518.38382236660379
 41
2.1217510259917911
 42
50.0
 43
0.0
 44
0.0
 50
0.0
 51
0.0
 71
     0
 72
  1500
 73
     1
 74
     1
 75
     0
 76
     0
 77
     0
 78
     0
  0
ENDTAB
  0
TABLE
  2
LTYPE
 70
     5
  0
LTYPE
  2
CONTINUOUS
 70
     0
  3
Solid line
 72
    65
 73
     0
 40
0.0
  0
LTYPE
  2
PHANTOM2
 70
     0
  3
Phantom (.5x) ___ _ _ ___ _ _ ___ _ _ ___ _ _
 72
    65
 73
     6
 40
1.25
 49
0.625
 49
-0.125
 49
0.125
 49
-0.125
 49
0.125
 49
-0.125
  0
LTYPE
  2
VERDECKT
 70
     0
  3
Verdeckt __ __ __ __ __ __ __ __ __ __ __ __ __
 72
    65
 73
     2
 40
0.375
 49
0.25
 49
-0.125
  0
ENDTAB
  0
TABLE
  2
LAYER
 70
    12
  0
LAYER
  2
0
 70
     0
 62
     7
  6
CONTINUOUS
  0
LAYER
  2
VOLL
 70
     0
 62
     1
  6
CONTINUOUS
  0
LAYER
  2
TEXT
 70
     0
 62
     7
  6
CONTINUOUS
  0
LAYER
  2
DEFPOINTS
 70
     0
 62
     7
  6
CONTINUOUS
  0
ENDTAB
  0
TABLE
  2
STYLE
 70
     4
  0
STYLE
  2
STANDARD
 70
     0
 40
0.0
 41
0.8
 50
0.0
 71
     0
 42
3.5
  3
simplex.shx
  4

  0
STYLE
  2
GREEKS
 70
     0
 40
0.0
 41
0.8
 50
0.0
 71
     0
 42
2.5
  3
SIMPLEX.shx
  4

  0
ENDTAB
  0
TABLE
  2
VIEW
 70
     6
  0
ENDTAB
  0
TABLE
  2
UCS
 70
     0
  0
ENDTAB
  0
TABLE
  2
APPID
 70
    15
  0
APPID
  2
ACAD
 70
     0
  0
APPID
  2
ACAD_EXEMPT_FROM_CAD_STANDARDS
 70
     0
  0
APPID
  2
ACAD_NAV_VCDISPLAY
 70
     0
  0
APPID
  2
ACAD_PSEXT
 70
     0
  0
APPID
  2
ACAD_MLEADERVER
 70
     0
  0
APPID
  2
ACAD_DSTYLE_DIMRADIAL_EXTENSION
 70
     0
  0
APPID
  2
GRADIENTCOLOR1ACI
 70
     0
  0
APPID
  2
GRADIENTCOLOR2ACI
 70
     0
  0
APPID
  2
ACADANNOMONITORALERTICONDI
 70
     0
  0
APPID
  2
ACAECLAYERSTANDARD
 70
     0
  0
APPID
  2
ACCMTRANSPARENCY
 70
     0
  0
APPID
  2
ACAD_STEPID
 70
     0
  0
APPID
  2
ACAD_ASSOCPERSSUBENTMANAGER
 70
     0
  0
APPID
  2
ACAD_OBJECT_CHANGE_GUID
 70
     0
  0
APPID
  2
ACADANNOTATIVE
 70
     0
  0
ENDTAB
  0
TABLE
  2
DIMSTYLE
 70
     2
  0
DIMSTYLE
  2
STANDARD
 70
     0
  3

  4

  5

  6

  7

 40
1.0
 41
0.18
 42
0.0625
 43
0.38
 44
0.18
 45
0.0
 46
0.0
 47
0.0
 48
0.0
140
0.18
141
0.09
142
0.0
143
25.399999999999999
144
1.0
145
0.0
146
1.0
147
0.09
 71
     0
 72
     0
 73
     1
 74
     1
 75
     0
 76
     0
 77
     0
 78
     0
170
     0
171
     2
172
     0
173
     0
174
     0
175
     0
176
     0
177
     0
178
     0
  0
ENDTAB
  0
ENDSEC
  0
SECTION
  2
BLOCKS
  0
BLOCK
  8
0
  2
$MODEL_SPACE
 70
     0
 10
0.0
 20
0.0
 30
0.0
  3
$MODEL_SPACE
  1

  0
ENDBLK
  5
4F
  8
0
  0
BLOCK
 67
     1
  8
0
  2
$PAPER_SPACE
 70
     0
 10
0.0
 20
0.0
 30
0.0
  3
$PAPER_SPACE
  1

  0
ENDBLK
  5
4D
 67
     1
  8
0
  0
BLOCK
  8
0
  2
A$C005447A3
 70
     0
 10
0.0
 20
0.0
 30
0.0
  3
A$C005447A3
  1

  0
ARC
  5
9657
  8
0
  6
CONTINUOUS
 62
     3
 10
-594.27182944597632
 20
-112.94591025755911
 30
0.0
 40
5.3493736062409374
210
0.0
220
0.0000000000000002
230
-1.0
 50
33.415180202320251
 51
90.0
  0
ARC
  5
9658
  8
0
  6
CONTINUOUS
 62
     3
 10
-748.3116205952673
 20
-112.94591025755911
 30
0.0
 40
5.3493736062409454
210
0.0
220
0.0000000000000002
230
-1.0
 50
90.0
 51
146.5848197976797
  0
LINE
  5
9659
  8
0
  6
CONTINUOUS
 62
     3
 10
748.3116205952673
 20
-107.5965366513182
 30
-0.0000000000000239
 11
594.27182944597632
 21
-107.5965366513182
 31
-0.0000000000000239
210
0.0
220
1.0
230
0.0000000000000002
  0
LINE
  5
965A
  8
0
  6
CONTINUOUS
 62
     3
 10
598.53328022321568
 20
0.0
 30
0.0
 11
744.05016981802783
 21
0.0
 31
0.0
210
0.0
220
1.0
230
0.0000000000000002
  0
LINE
  5
965B
  8
0
  6
CONTINUOUS
 62
     3
 10
744.05016981802783
 20
-0.0000000000000052
 30
0.0
 11
744.48095863172045
 21
-0.9238295922420483
 31
-0.0000000000000002
210
0.0
220
1.0
230
0.0000000000000002
  0
LINE
  5
965C
  8
0
  6
CONTINUOUS
 62
     3
 10
598.53328022321568
 20
-0.0000000000000052
 30
0.0
 11
598.10249140952305
 21
-0.9238295922420483
 31
-0.0000000000000002
210
0.0
220
1.0
230
0.0000000000000002
  0
ARC
  5
965D
  8
0
  6
CONTINUOUS
 62
     3
 10
-625.29172502062102
 20
-13.60237744446416
 30
0.0
 40
29.999999999999091
210
0.0
220
0.0000000000000002
230
-1.0
 50
359.99999999999977
 51
25.000000000003201
  0
ARC
  5
965E
  8
0
  6
CONTINUOUS
 62
     3
 10
-717.29172502062272
 20
-13.60237744446415
 30
0.0
 40
29.99999999999898
210
0.0
220
0.0000000000000002
230
-1.0
 50
154.9999999999967
 51
180.00000000000011
  0
LINE
  5
965F
  8
0
  6
CONTINUOUS
 62
     3
 10
595.29198876092983
 20
-22.70900000000001
 30
-0.000000000000005
 11
595.29172502062193
 21
-13.602377444464249
 31
-0.000000000000003
210
0.0
220
1.0
230
0.0000000000000002
  0
LINE
  5
9660
  8
0
  6
CONTINUOUS
 62
     3
 10
747.2914612803138
 20
-22.70900000000001
 30
-0.000000000000005
 11
747.2917250206217
 21
-13.602377444464249
 31
-0.000000000000003
210
0.0
220
1.0
230
0.0000000000000002
  0
ARC
  5
9661
  8
0
  6
CONTINUOUS
 62
     3
 10
-625.29564342922822
 20
-22.708131052915618
 30
0.0
 40
30.003654680881361
210
0.0
220
0.0000000000000002
230
-1.0
 50
334.99450102798232
 51
359.9983406354628
  0
ARC
  5
9662
  8
0
  6
CONTINUOUS
 62
     3
 10
-717.2878066120154
 20
-22.708131052915618
 30
0.0
 40
30.00365468088135
210
0.0
220
0.0000000000000002
230
-1.0
 50
180.00165936453709
 51
205.00549897201759
  0
ARC
  5
9663
  8
0
  6
CONTINUOUS
 62
     3
 10
-581.78937395479352
 20
-43.000521372833028
 30
0.0
 40
18.002351073378239
210
0.0
220
0.0000000000000002
230
-1.0
 50
154.9945010279848
 51
179.99834063546649
  0
ARC
  5
9664
  8
0
  6
CONTINUOUS
 62
     3
 10
-760.79407608645022
 20
-43.000521372833049
 30
0.0
 40
18.00235107337836
210
0.0
220
0.0000000000000002
230
-1.0
 50
0.0016593645335194
 51
25.005498972015062
  0
LINE
  5
9665
  8
0
  6
CONTINUOUS
 62
     3
 10
742.7917250206217
 20
-43.0
 30
-0.0000000000000095
 11
742.7917250206217
 21
-66.531280577328843
 31
-0.0000000000000148
210
0.0
220
1.0
230
0.0000000000000002
  0
LINE
  5
9666
  8
0
  6
CONTINUOUS
 62
     3
 10
599.79172502062193
 20
-43.0
 30
-0.0000000000000095
 11
599.79172502062193
 21
-66.531280577328843
 31
-0.0000000000000148
210
0.0
220
1.0
230
0.0000000000000002
  0
ARC
  5
9667
  8
0
  6
CONTINUOUS
 62
     3
 10
-617.79172502062136
 20
-66.531280577328985
 30
0.0
 40
17.999999999999439
210
0.0
220
0.0000000000000002
230
-1.0
 50
325.22805596804977
 51
0.0000000000004071
  0
ARC
  5
9668
  8
0
  6
CONTINUOUS
 62
     3
 10
-724.79172502062227
 20
-66.531280577328985
 30
0.0
 40
17.999999999999432
210
0.0
220
0.0000000000000002
230
-1.0
 50
179.9999999999996
 51
214.7719440319502
  0
ARC
  5
9669
  8
0
  6
CONTINUOUS
 62
     3
 10
-594.79172502062397
 20
-82.49999999999946
 30
0.0
 40
9.9999999999979501
210
0.0
220
0.0000000000000002
230
-1.0
 50
145.22805596804949
 51
180.00000000000301
  0
ARC
  5
966A
  8
0
  6
CONTINUOUS
 62
     3
 10
-747.79172502061965
 20
-82.49999999999946
 30
0.0
 40
9.9999999999979536
210
0.0
220
0.0000000000000002
230
-1.0
 50
359.99999999999687
 51
34.771944031950447
  0
LINE
  5
966B
  8
0
  6
CONTINUOUS
 62
     3
 10
737.79172502062158
 20
-82.5
 30
-0.0000000000000183
 11
737.79172502062158
 21
-90.803777399222497
 31
-0.0000000000000202
210
0.0
220
1.0
230
0.0000000000000002
  0
LINE
  5
966C
  8
0
  6
CONTINUOUS
 62
     3
 10
604.79172502062193
 20
-82.5
 30
-0.0000000000000183
 11
604.79172502062193
 21
-90.803777399222497
 31
-0.0000000000000202
210
0.0
220
1.0
230
0.0000000000000002
  0
ARC
  5
966D
  8
0
  6
CONTINUOUS
 62
     3
 10
-594.79172502062329
 20
-90.803777399222696
 30
0.0
 40
9.9999999999985221
210
0.0
220
0.0000000000000002
230
-1.0
 50
179.99999999999881
 51
217.11357838610229
  0
ARC
  5
966E
  8
0
  6
CONTINUOUS
 62
     3
 10
-747.79172502062022
 20
-90.803777399222696
 30
0.0
 40
9.9999999999985292
210
0.0
220
0.0000000000000002
230
-1.0
 50
322.88642161389771
 51
0.0000000000011386
  0
LINE
  5
966F
  8
0
  6
CONTINUOUS
 62
     3
 10
739.81731548412859
 20
-96.837747281835803
 30
-0.0000000000000215
 11
747.9581327737036
 21
-107.5965366513181
 31
-0.0000000000000239
210
0.0
220
1.0
230
0.0000000000000002
  0
LINE
  5
9670
  8
0
  6
CONTINUOUS
 62
     3
 10
602.76613455711504
 20
-96.837747281835803
 30
-0.0000000000000215
 11
594.62531726754003
 21
-107.5965366513181
 31
-0.0000000000000239
210
0.0
220
1.0
230
0.0000000000000002
  0
LINE
  5
9671
  8
0
  6
CONTINUOUS
 62
     3
 10
587.14172502062183
 20
-210.0000000000002
 30
-0.0000000000000466
 11
755.44172502062179
 21
-210.0000000000002
 31
-0.0000000000000466
210
0.0
220
1.0
230
0.0000000000000002
  0
LINE
  5
9672
  8
0
  6
CONTINUOUS
 62
     3
 10
587.14172502062183
 20
-110.0
 30
-0.0000000000000244
 11
755.44172502062179
 21
-110.0
 31
-0.0000000000000244
210
0.0
220
1.0
230
0.0000000000000002
  0
LINE
  5
9673
  8
0
  6
CONTINUOUS
 62
     3
 10
755.44172502062179
 20
-110.0
 30
-0.0000000000000244
 11
755.44172502062179
 21
-210.0000000000002
 31
-0.0000000000000466
210
0.0
220
1.0
230
0.0000000000000002
  0
LINE
  5
9674
  8
0
  6
CONTINUOUS
 62
     3
 10
587.14172502062183
 20
-110.0
 30
-0.0000000000000244
 11
587.14172502062183
 21
-210.0000000000002
 31
-0.0000000000000466
210
0.0
220
1.0
230
0.0000000000000002
  0
LINE
  5
9675
  8
0
  6
VERDECKT
 62
     1
 10
596.44172502062202
 20
-110.1678489040311
 30
-0.0000000000000245
 11
746.14172502062183
 21
-110.1678489040313
 31
-0.0000000000000245
210
0.0
220
1.0
230
0.0000000000000002
  0
LINE
  5
9676
  8
0
  6
VERDECKT
 62
     1
 10
746.64172502062195
 20
-110.0
 30
-0.0000000000000244
 11
746.64172502062172
 21
-210.0000000000002
 31
-0.0000000000000466
210
0.0
220
1.0
230
0.0000000000000002
  0
LINE
  5
9677
  8
0
  6
VERDECKT
 62
     1
 10
595.94172502062213
 20
-109.9999999999998
 30
-0.0000000000000244
 11
595.9417250206219
 21
-210.0
 31
-0.0000000000000466
210
0.0
220
1.0
230
0.0000000000000002
  0
LINE
  5
9678
  8
0
  6
VERDECKT
 62
     1
 10
746.14172502062183
 20
-110.1678489040312
 30
-0.0000000000000245
 11
746.14172502062183
 21
-210.0000000000002
 31
-0.0000000000000466
210
0.0
220
1.0
230
0.0000000000000002
  0
LINE
  5
9679
  8
0
  6
VERDECKT
 62
     1
 10
596.44172502062167
 20
-110.1678489040311
 30
-0.0000000000000245
 11
596.44172502062167
 21
-210.0
 31
-0.0000000000000466
210
0.0
220
1.0
230
0.0000000000000002
  0
LINE
  5
967A
  8
0
  6
VERDECKT
 62
     1
 10
746.01471934990479
 20
-110.0
 30
-0.0000000000000244
 11
746.14172502062183
 21
-110.1678489040312
 31
-0.0000000000000245
210
0.0
220
1.0
230
0.0000000000000002
  0
LINE
  5
967B
  8
0
  6
VERDECKT
 62
     1
 10
596.56873069133894
 20
-109.9999999999998
 30
-0.0000000000000244
 11
596.44172502062202
 21
-110.1678489040311
 31
-0.0000000000000245
210
0.0
220
1.0
230
0.0000000000000002
  0
ARC
  5
967C
  8
0
  6
VERDECKT
 62
     1
 10
-625.2917250206167
 20
-13.602377444463251
 30
0.0
 40
27.499999999994881
210
0.0
220
0.0000000000000002
230
-1.0
 50
359.99999999999761
 51
25.000000000001201
  0
ARC
  5
967D
  8
0
  6
VERDECKT
 62
     1
 10
-717.29172502062693
 20
-13.602377444463119
 30
0.0
 40
27.499999999994781
210
0.0
220
0.0000000000000002
230
-1.0
 50
154.99999999999869
 51
180.0000000000023
  0
LINE
  5
967E
  8
0
  6
VERDECKT
 62
     1
 10
744.79172502062158
 20
-13.602377444464249
 30
-0.000000000000003
 11
744.79172502062158
 21
-22.70900000000001
 31
-0.000000000000005
210
0.0
220
1.0
230
0.0000000000000002
  0
LINE
  5
967F
  8
0
  6
VERDECKT
 62
     1
 10
597.79172502062193
 20
-13.602377444464381
 30
-0.000000000000003
 11
597.79172502062193
 21
-22.709000000000131
 31
-0.000000000000005
210
0.0
220
1.0
230
0.0000000000000002
  0
ARC
  5
9680
  8
0
  6
VERDECKT
 62
     1
 10
-625.29172502062033
 20
-22.709000000000511
 30
0.0
 40
27.499999999998291
210
0.0
220
0.0000000000000002
230
-1.0
 50
334.82885225693468
 51
0.0000000000007761
  0
ARC
  5
9681
  8
0
  6
VERDECKT
 62
     1
 10
-717.29172502062318
 20
-22.70900000000038
 30
0.0
 40
27.499999999998291
210
0.0
220
0.0000000000000002
230
-1.0
 50
179.9999999999992
 51
205.17114774306529
  0
ARC
  5
9682
  8
0
  6
VERDECKT
 62
     1
 10
-582.3984214622235
 20
-42.866680332730041
 30
0.0
 40
19.893750289984759
210
0.0
220
0.0000000000000002
230
-1.0
 50
154.82885225693681
 51
180.3839754358724
  0
ARC
  5
9683
  8
0
  6
VERDECKT
 62
     1
 10
-760.18502857901547
 20
-42.86668033272894
 30
0.0
 40
19.893750289980328
210
0.0
220
0.0000000000000002
230
-1.0
 50
359.6160245641247
 51
25.17114774306609
  0
LINE
  5
9684
  8
0
  6
VERDECKT
 62
     1
 10
740.2917250206217
 20
-43.0
 30
-0.0000000000000095
 11
740.2917250206217
 21
-66.531280577328801
 31
-0.0000000000000148
210
0.0
220
1.0
230
0.0000000000000002
  0
LINE
  5
9685
  8
0
  6
VERDECKT
 62
     1
 10
602.29172502062193
 20
-43.000000000000128
 30
-0.0000000000000095
 11
602.29172502062193
 21
-66.531280577328914
 31
-0.0000000000000148
210
0.0
220
1.0
230
0.0000000000000002
  0
ARC
  5
9686
  8
0
  6
VERDECKT
 62
     1
 10
-617.79172502062249
 20
-66.531280577328872
 30
0.0
 40
15.500000000000339
210
0.0
220
0.0000000000000002
230
-1.0
 50
325.22805596805199
 51
359.99999999999977
  0
ARC
  5
9687
  8
0
  6
VERDECKT
 62
     1
 10
-724.79172502062352
 20
-66.531280577329454
 30
0.0
 40
15.499999999998179
210
0.0
220
0.0000000000000002
230
-1.0
 50
179.9999999999975
 51
214.77194403195031
  0
ARC
  5
9688
  8
0
  6
VERDECKT
 62
     1
 10
-594.79172502062249
 20
-82.500000000000156
 30
0.0
 40
12.499999999999551
210
0.0
220
0.0000000000000002
230
-1.0
 50
145.2280559680504
 51
179.99999999999989
  0
ARC
  5
9689
  8
0
  6
VERDECKT
 62
     1
 10
-747.79172502062136
 20
-82.500000000000057
 30
0.0
 40
12.499999999999771
210
0.0
220
0.0000000000000002
230
-1.0
 50
0.0000000000002036
 51
34.771944031949133
  0
LINE
  5
968A
  8
0
  6
VERDECKT
 62
     1
 10
735.29172502062181
 20
-82.5
 30
-0.0000000000000183
 11
735.29172502062181
 21
-90.803777399222497
 31
-0.0000000000000202
210
0.0
220
1.0
230
0.0000000000000002
  0
LINE
  5
968B
  8
0
  6
VERDECKT
 62
     1
 10
607.29172502062204
 20
-82.500000000000114
 30
-0.0000000000000183
 11
607.29172502062204
 21
-90.803777399222625
 31
-0.0000000000000202
210
0.0
220
1.0
230
0.0000000000000002
  0
ARC
  5
968C
  8
0
  6
VERDECKT
 62
     1
 10
-594.79172502062124
 20
-90.803777399222426
 30
0.0
 40
12.50000000000068
210
0.0
220
0.0000000000000002
230
-1.0
 50
180.00000000000071
 51
217.11357838609661
  0
ARC
  5
968D
  8
0
  6
VERDECKT
 62
     1
 10
-747.79172502062249
 20
-90.803777399222326
 30
0.0
 40
12.50000000000056
210
0.0
220
0.0000000000000002
230
-1.0
 50
322.88642161390322
 51
359.9999999999992
  0
LINE
  5
968E
  8
0
  6
VERDECKT
 62
     1
 10
737.82371310000519
 20
-98.346239752489154
 30
-0.0000000000000218
 11
746.64172502062183
 21
-110.0
 31
-0.0000000000000244
210
0.0
220
1.0
230
0.0000000000000002
  0
LINE
  5
968F
  8
0
  6
VERDECKT
 62
     1
 10
604.75973694123854
 20
-98.346239752489296
 30
-0.0000000000000218
 11
595.94172502062202
 21
-110.0000000000001
 31
-0.0000000000000244
210
0.0
220
1.0
230
0.0000000000000002
  0
LINE
  5
9690
  8
0
  6
VERDECKT
 62
     1
 10
737.42499262318063
 20
-98.647938246619873
 30
-0.0000000000000219
 11
746.01471934990479
 21
-109.9999999999999
 31
-0.0000000000000244
210
0.0
220
1.0
230
0.0000000000000002
  0
LINE
  5
9691
  8
0
  6
VERDECKT
 62
     1
 10
605.15845741806322
 20
-98.647938246619987
 30
-0.0000000000000219
 11
596.56873069133894
 21
-110.0000000000001
 31
-0.0000000000000244
210
0.0
220
1.0
230
0.0000000000000002
  0
ARC
  5
9692
  8
0
  6
VERDECKT
 62
     1
 10
-594.79172502062158
 20
-90.803777399222597
 30
0.0
 40
13.000000000000339
210
0.0
220
0.0000000000000002
230
-1.0
 50
180.0
 51
217.113578386097
  0
ARC
  5
9693
  8
0
  6
VERDECKT
 62
     1
 10
-747.79172502062215
 20
-90.803777399222497
 30
0.0
 40
13.000000000000229
210
0.0
220
0.0000000000000002
230
-1.0
 50
322.88642161390271
 51
0.0
  0
LINE
  5
9694
  8
0
  6
VERDECKT
 62
     1
 10
734.79172502062181
 20
-82.5
 30
-0.0000000000000183
 11
734.79172502062181
 21
-90.803777399222497
 31
-0.0000000000000202
210
0.0
220
1.0
230
0.0000000000000002
  0
LINE
  5
9695
  8
0
  6
VERDECKT
 62
     1
 10
607.79172502062204
 20
-82.500000000000114
 30
-0.0000000000000183
 11
607.79172502062204
 21
-90.803777399222625
 31
-0.0000000000000202
210
0.0
220
1.0
230
0.0000000000000002
  0
ARC
  5
9696
  8
0
  6
VERDECKT
 62
     1
 10
-594.79172502062352
 20
-82.499999999999716
 30
0.0
 40
12.99999999999863
210
0.0
220
0.0000000000000002
230
-1.0
 50
145.22805596804881
 51
180.00000000000179
  0
ARC
  5
9697
  8
0
  6
VERDECKT
 62
     1
 10
-747.79172502062045
 20
-82.499999999999616
 30
0.0
 40
12.999999999998749
210
0.0
220
0.0000000000000002
230
-1.0
 50
359.99999999999841
 51
34.771944031951122
  0
ARC
  5
9698
  8
0
  6
VERDECKT
 62
     1
 10
-617.79172502062045
 20
-66.531280577329284
 30
0.0
 40
14.9999999999983
210
0.0
220
0.0000000000000002
230
-1.0
 50
325.22805596805
 51
0.0000000000013613
  0
ARC
  5
9699
  8
0
  6
VERDECKT
 62
     1
 10
-724.7917250206234
 20
-66.53128057732917
 30
0.0
 40
14.999999999998289
210
0.0
220
0.0000000000000002
230
-1.0
 50
179.99999999999861
 51
214.77194403194989
  0
LINE
  5
969A
  8
0
  6
VERDECKT
 62
     1
 10
739.7917250206217
 20
-43.0
 30
-0.0000000000000095
 11
739.7917250206217
 21
-66.531280577328801
 31
-0.0000000000000148
210
0.0
220
1.0
230
0.0000000000000002
  0
LINE
  5
969B
  8
0
  6
VERDECKT
 62
     1
 10
602.79172502062193
 20
-43.000000000000128
 30
-0.0000000000000095
 11
602.79172502062193
 21
-66.531280577328914
 31
-0.0000000000000148
210
0.0
220
1.0
230
0.0000000000000002
  0
ARC
  5
969C
  8
0
  6
VERDECKT
 62
     1
 10
-581.79172502062056
 20
-43.000000000000377
 30
0.0
 40
21.000000000001251
210
0.0
220
0.0000000000000002
230
-1.0
 50
155.212827692812
 51
179.99999999999929
  0
ARC
  5
969D
  8
0
  6
VERDECKT
 62
     1
 10
-760.79172502062295
 20
-43.00000000000027
 30
0.0
 40
21.000000000001361
210
0.0
220
0.0000000000000002
230
-1.0
 50
0.0000000000007252
 51
24.787172307187969
  0
ARC
  5
969E
  8
0
  6
VERDECKT
 62
     1
 10
-626.14286357876017
 20
-22.518945268757459
 30
0.0
 40
27.85178701242506
210
0.0
220
0.0000000000000002
230
-1.0
 50
335.21282769281152
 51
359.60902262816069
  0
ARC
  5
969F
  8
0
  6
VERDECKT
 62
     1
 10
-716.44058646248311
 20
-22.51894526875731
 30
0.0
 40
27.85178701242528
210
0.0
220
0.0000000000000002
230
-1.0
 50
180.39097737183931
 51
204.78717230718831
  0
LINE
  5
96A0
  8
0
  6
VERDECKT
 62
     1
 10
744.2917250206217
 20
-13.078402466101631
 30
-0.0000000000000029
 11
744.2917250206217
 21
-22.70900000000001
 31
-0.000000000000005
210
0.0
220
1.0
230
0.0000000000000002
  0
LINE
  5
96A1
  8
0
  6
VERDECKT
 62
     1
 10
598.29172502062193
 20
-13.078402466101769
 30
-0.0000000000000029
 11
598.29172502062193
 21
-22.709000000000131
 31
-0.000000000000005
210
0.0
220
1.0
230
0.0000000000000002
  0
ARC
  5
96A2
  8
0
  6
VERDECKT
 62
     1
 10
-622.98249213390443
 20
-13.07840246610111
 30
0.0
 40
24.690767113282512
210
0.0
220
0.0000000000000002
230
-1.0
 50
0.0
 51
26.16276368563085
  0
ARC
  5
96A3
  8
0
  6
VERDECKT
 62
     1
 10
-719.60095790733499
 20
-13.07840246610195
 30
0.0
 40
24.690767113286711
210
0.0
220
0.0000000000000002
230
-1.0
 50
153.837236314373
 51
179.99999999999929
  0
LINE
  5
96A4
  8
0
  6
VERDECKT
 62
     1
 10
740.74003606114036
 20
0.0000000000000377
 30
0.0
 11
741.76203527061125
 21
-2.1916843774657382
 31
-0.0000000000000005
210
0.0
220
1.0
230
0.0000000000000002
  0
LINE
  5
96A5
  8
0
  6
VERDECKT
 62
     1
 10
601.84341398010315
 20
-0.0000000000000926
 30
0.0
 11
600.82141477063215
 21
-2.191684377465871
 31
-0.0000000000000005
210
0.0
220
1.0
230
0.0000000000000002
  0
LINE
  5
96A6
  8
0
  6
VERDECKT
 62
     1
 10
741.29172502062181
 20
0.0000000000000293
 30
0.0
 11
742.21518916412981
 21
-1.980375246595512
 31
-0.0000000000000004
210
0.0
220
1.0
230
0.0000000000000002
  0
LINE
  5
96A7
  8
0
  6
VERDECKT
 62
     1
 10
601.29172502062181
 20
-0.0000000000001017
 30
0.0
 11
600.3682608771137
 21
-1.9803752465956459
 31
-0.0000000000000004
210
0.0
220
1.0
230
0.0000000000000002
  0
LINE
  5
96A8
  8
0
  6
VERDECKT
 62
     1
 10
594.61688763182144
 20
-107.6076771390518
 30
-0.0000000000000239
 11
747.96656240942218
 21
-107.6076771390518
 31
-0.0000000000000239
210
0.0
220
1.0
230
0.0000000000000002
  0
ARC
  5
96A9
  8
0
  6
VERDECKT
 62
     1
 10
-594.27182944597644
 20
-112.9459102575542
 30
0.0
 40
5.3493736062360417
210
0.0
220
0.0000000000000002
230
-1.0
 50
89.999999999998764
 51
93.698398183776561
  0
ARC
  5
96AA
  8
0
  6
VERDECKT
 62
     1
 10
-748.31162059526707
 20
-112.9459102575542
 30
0.0
 40
5.3493736062360453
210
0.0
220
0.0000000000000002
230
-1.0
 50
86.301601816223425
 51
90.000000000001194
  0
LINE
  5
96AB
  8
0
  6
VERDECKT
 62
     1
 10
747.96656240942218
 20
-107.6076771390518
 30
-0.0000000000000239
 11
749.77675337420624
 21
-109.9999999999999
 31
-0.0000000000000244
210
0.0
220
1.0
230
0.0000000000000002
  0
LINE
  5
96AC
  8
0
  6
VERDECKT
 62
     1
 10
594.61688763182144
 20
-107.6076771390518
 30
-0.0000000000000239
 11
592.80669666703739
 21
-109.9999999999999
 31
-0.0000000000000244
210
0.0
220
1.0
230
0.0000000000000002
  0
LINE
  5
96AD
  8
0
  6
VERDECKT
 62
     1
 10
737.82371310000519
 20
-98.346239752489225
 30
-0.0000000000000218
 11
746.64172502062183
 21
-110.0
 31
-0.0000000000000244
210
0.0
220
1.0
230
0.0000000000000002
  0
LINE
  5
96AE
  8
0
  6
VERDECKT
 62
     1
 10
604.75973694123832
 20
-98.346239752489225
 30
-0.0000000000000218
 11
595.94172502062167
 21
-110.0
 31
-0.0000000000000244
210
0.0
220
1.0
230
0.0000000000000002
  0
ARC
  5
96AF
  8
0
  6
VERDECKT
 62
     1
 10
-594.7917250206209
 20
-90.803777399222341
 30
0.0
 40
12.50000000000068
210
0.0
220
0.0000000000000002
230
-1.0
 50
180.0000000000006
 51
217.11357838609669
  0
ARC
  5
96B0
  8
0
  6
VERDECKT
 62
     1
 10
-747.79172502062249
 20
-90.803777399222383
 30
0.0
 40
12.50000000000056
210
0.0
220
0.0000000000000002
230
-1.0
 50
322.88642161390322
 51
359.99999999999949
  0
LINE
  5
96B1
  8
0
  6
VERDECKT
 62
     1
 10
735.29172502062181
 20
-82.5
 30
-0.0000000000000183
 11
735.29172502062181
 21
-90.803777399222497
 31
-0.0000000000000202
210
0.0
220
1.0
230
0.0000000000000002
  0
LINE
  5
96B2
  8
0
  6
VERDECKT
 62
     1
 10
607.2917250206217
 20
-82.5
 30
-0.0000000000000183
 11
607.2917250206217
 21
-90.803777399222497
 31
-0.0000000000000202
210
0.0
220
1.0
230
0.0000000000000002
  0
ARC
  5
96B3
  8
0
  6
VERDECKT
 62
     1
 10
-594.79172502062397
 20
-82.499999999999247
 30
0.0
 40
12.499999999997719
210
0.0
220
0.0000000000000002
230
-1.0
 50
145.22805596804781
 51
180.00000000000341
  0
ARC
  5
96B4
  8
0
  6
VERDECKT
 62
     1
 10
-747.79172502061954
 20
-82.499999999999247
 30
0.0
 40
12.499999999997719
210
0.0
220
0.0000000000000002
230
-1.0
 50
359.99999999999648
 51
34.771944031952131
  0
ARC
  5
96B5
  8
0
  6
VERDECKT
 62
     1
 10
-617.79172502061772
 20
-66.531280577330079
 30
0.0
 40
15.499999999995801
210
0.0
220
0.0000000000000002
230
-1.0
 50
325.22805596804739
 51
0.0000000000046677
  0
ARC
  5
96B6
  8
0
  6
VERDECKT
 62
     1
 10
-724.7917250206259
 20
-66.531280577330079
 30
0.0
 40
15.49999999999579
210
0.0
220
0.0000000000000002
230
-1.0
 50
179.9999999999952
 51
214.7719440319525
  0
LINE
  5
96B7
  8
0
  6
VERDECKT
 62
     1
 10
740.2917250206217
 20
-43.000000000000057
 30
-0.0000000000000095
 11
740.2917250206217
 21
-66.531280577328801
 31
-0.0000000000000148
210
0.0
220
1.0
230
0.0000000000000002
  0
LINE
  5
96B8
  8
0
  6
VERDECKT
 62
     1
 10
602.29172502062193
 20
-43.000000000000057
 30
-0.0000000000000095
 11
602.29172502062193
 21
-66.531280577328801
 31
-0.0000000000000148
210
0.0
220
1.0
230
0.0000000000000002
  0
ARC
  5
96B9
  8
0
  6
VERDECKT
 62
     1
 10
-581.79172502062158
 20
-43.000000000000107
 30
0.0
 40
20.500000000000341
210
0.0
220
0.0000000000000002
230
-1.0
 50
155.2128276928118
 51
179.9999999999998
  0
ARC
  5
96BA
  8
0
  6
VERDECKT
 62
     1
 10
-760.79172502062204
 20
-43.000000000000128
 30
0.0
 40
20.500000000000341
210
0.0
220
0.0000000000000002
230
-1.0
 50
0.0000000000001781
 51
24.787172307188179
  0
ARC
  5
96BB
  8
0
  6
VERDECKT
 62
     1
 10
-626.14274736642756
 20
-22.518998934824381
 30
0.0
 40
28.351659007139919
210
0.0
220
0.0000000000000002
230
-1.0
 50
335.21282769281231
 51
359.61602456412271
  0
ARC
  5
96BC
  8
0
  6
VERDECKT
 62
     1
 10
-716.44070267481595
 20
-22.518998934824381
 30
0.0
 40
28.351659007139919
210
0.0
220
0.0000000000000002
230
-1.0
 50
180.38397543587729
 51
204.78717230718769
  0
LINE
  5
96BD
  8
0
  6
VERDECKT
 62
     1
 10
744.79172502062158
 20
-13.602377444464249
 30
-0.000000000000003
 11
744.79172502062158
 21
-22.70900000000001
 31
-0.000000000000005
210
0.0
220
1.0
230
0.0000000000000002
  0
LINE
  5
96BE
  8
0
  6
VERDECKT
 62
     1
 10
597.79172502062193
 20
-13.602377444464249
 30
-0.000000000000003
 11
597.79172502062193
 21
-22.70900000000001
 31
-0.000000000000005
210
0.0
220
1.0
230
0.0000000000000002
  0
ARC
  5
96BF
  8
0
  6
VERDECKT
 62
     1
 10
-625.29172502062215
 20
-13.602377444464191
 30
0.0
 40
27.500000000000231
210
0.0
220
0.0000000000000002
230
-1.0
 50
359.99999999999989
 51
24.99999999999871
  0
ARC
  5
96C0
  8
0
  6
VERDECKT
 62
     1
 10
-717.29172502062136
 20
-13.60237744446418
 30
0.0
 40
27.500000000000231
210
0.0
220
0.0000000000000002
230
-1.0
 50
155.00000000000131
 51
180.00000000000011
  0
LINE
  5
96C1
  8
0
  6
VERDECKT
 62
     1
 10
741.29172502062158
 20
0.0000000000000165
 30
0.0
 11
742.21518916412981
 21
-1.9803752465954121
 31
-0.0000000000000004
210
0.0
220
1.0
230
0.0000000000000002
  0
LINE
  5
96C2
  8
0
  6
VERDECKT
 62
     1
 10
601.29172502062193
 20
0.0000000000000165
 30
0.0
 11
600.3682608771137
 21
-1.9803752465954121
 31
-0.0000000000000004
210
0.0
220
1.0
230
0.0000000000000002
  0
LINE
  5
96C3
  8
0
  6
VERDECKT
 62
     1
 10
747.9581327737036
 20
-107.5965366513181
 30
-0.0000000000000239
 11
749.77675337420624
 21
-110.0
 31
-0.0000000000000244
210
0.0
220
1.0
230
0.0000000000000002
  0
LINE
  5
96C4
  8
0
  6
VERDECKT
 62
     1
 10
594.62531726754003
 20
-107.5965366513181
 30
-0.0000000000000239
 11
592.80669666703739
 21
-110.0
 31
-0.0000000000000244
210
0.0
220
1.0
230
0.0000000000000002
  0
LINE
  5
96C5
  8
0
  6
VERDECKT
 62
     1
 10
746.64172502062183
 20
-110.0
 30
-0.0000000000000244
 11
746.64172502062183
 21
-210.0000000000002
 31
-0.0000000000000466
210
0.0
220
1.0
230
0.0000000000000002
  0
LINE
  5
96C6
  8
0
  6
VERDECKT
 62
     1
 10
595.94172502062167
 20
-110.0
 30
-0.0000000000000244
 11
595.94172502062167
 21
-210.0000000000002
 31
-0.0000000000000466
210
0.0
220
1.0
230
0.0000000000000002
  0
ENDBLK
  5
96C8
  8
0
  0
BLOCK
  8
0
  2
A$C679E1634
 70
     0
 10
0.0
 20
0.0
 30
0.0
  3
A$C679E1634
  1

  0
CIRCLE
  5
96CC
  8
0
  6
CONTINUOUS
 62
     3
 10
-671.29172502062193
 20
477.03890851830948
 30
0.0000000000000025
 40
63.499999999999773
210
0.0000000000000002
220
0.0
230
-1.0
  0
CIRCLE
  5
96CD
  8
0
  6
CONTINUOUS
 62
     3
 10
-671.29172502062181
 20
477.03890851830948
 30
0.0000000000000025
 40
68.499999999999886
210
0.0000000000000002
220
0.0
230
-1.0
  0
CIRCLE
  5
96CE
  8
0
  6
CONTINUOUS
 62
     3
 10
-671.29172502062181
 20
477.03890851830948
 30
0.0
 40
69.448311040518661
210
0.0000000000000002
220
0.0
230
-1.0
  0
CIRCLE
  5
96CF
  8
0
  6
CONTINUOUS
 62
     3
 10
-671.29172502062181
 20
477.03890851830948
 30
0.0
 40
69.999999999999886
210
0.0000000000000002
220
0.0
230
-1.0
  0
CIRCLE
  5
96D0
  8
0
  6
CONTINUOUS
 62
     3
 10
-671.29172502062181
 20
477.03890851830948
 30
0.0000000000000025
 40
81.485028353584426
210
0.0000000000000002
220
0.0
230
-1.0
  0
CIRCLE
  5
96D1
  8
0
  6
CONTINUOUS
 62
     3
 10
-671.29172502062181
 20
477.03890851830948
 30
0.0000000000000025
 40
76.674837388800356
210
0.0000000000000002
220
0.0
230
-1.0
  0
CIRCLE
  5
96D2
  8
0
  6
CONTINUOUS
 62
     3
 10
-671.29172502062181
 20
477.03890851830948
 30
0.0
 40
69.999999999999886
210
0.0000000000000002
220
0.0
230
-1.0
  0
CIRCLE
  5
96D3
  8
0
  6
CONTINUOUS
 62
     3
 10
-671.29172502062181
 20
477.03890851830948
 30
0.0
 40
72.758444797406014
210
0.0000000000000002
220
0.0
230
-1.0
  0
CIRCLE
  5
96D4
  8
0
  6
CONTINUOUS
 62
     3
 10
-671.29172502062181
 20
477.03890851830948
 30
0.0000000000000007
 40
75.999999999999886
210
0.0000000000000002
220
0.0
230
-1.0
  0
CIRCLE
  5
96D5
  8
0
  6
CONTINUOUS
 62
     3
 10
-671.29172502062181
 20
477.03890851830948
 30
0.0000000000000025
 40
84.149999999999963
210
0.0000000000000002
220
0.0
230
-1.0
  0
CIRCLE
  5
96D6
  8
0
  6
VERDECKT
 62
     1
 10
-671.29172502062193
 20
477.03890851830948
 30
0.0000000000000025
 40
75.349999999999909
210
0.0000000000000002
220
0.0
230
-1.0
  0
CIRCLE
  5
96D7
  8
0
  6
VERDECKT
 62
     1
 10
-671.29172502062193
 20
477.03890851830948
 30
0.0000000000000025
 40
74.722994329282983
210
0.0000000000000002
220
0.0
230
-1.0
  0
CIRCLE
  5
96D8
  8
0
  6
VERDECKT
 62
     1
 10
-671.29172502062193
 20
477.03890851830948
 30
0.0000000000000025
 40
74.849999999999909
210
0.0000000000000002
220
0.0
230
-1.0
  0
CIRCLE
  5
96D9
  8
0
  6
VERDECKT
 62
     1
 10
-671.29172502062181
 20
477.03890851830948
 30
0.0000000000000007
 40
73.499999999999886
210
0.0000000000000002
220
0.0
230
-1.0
  0
CIRCLE
  5
96DA
  8
0
  6
VERDECKT
 62
     1
 10
-671.29172502062181
 20
477.03890851830948
 30
0.0000000000000025
 40
68.999999999999773
210
0.0000000000000002
220
0.0
230
-1.0
  0
CIRCLE
  5
96DB
  8
0
  6
VERDECKT
 62
     1
 10
-671.29172502062193
 20
477.03890851830948
 30
0.0000000000000025
 40
63.999999999999773
210
0.0000000000000002
220
0.0
230
-1.0
  0
CIRCLE
  5
96DC
  8
0
  6
VERDECKT
 62
     1
 10
-671.29172502062193
 20
477.03890851830948
 30
0.0000000000000025
 40
75.349999999999909
210
0.0000000000000002
220
0.0
230
-1.0
  0
CIRCLE
  5
96DD
  8
0
  6
VERDECKT
 62
     1
 10
-671.29172502062193
 20
477.03890851830948
 30
0.0000000000000025
 40
74.722994329282983
210
0.0000000000000002
220
0.0
230
-1.0
  0
CIRCLE
  5
96DE
  8
0
  6
VERDECKT
 62
     1
 10
-671.29172502062181
 20
477.03890851830948
 30
0.0000000000000007
 40
72.999999999999886
210
0.0000000000000002
220
0.0
230
-1.0
  0
CIRCLE
  5
96DF
  8
0
  6
VERDECKT
 62
     1
 10
671.29172502062181
 20
477.03890851830948
 30
0.0000000000001563
 40
68.999553268413393
  0
CIRCLE
  5
96E0
  8
0
  6
VERDECKT
 62
     1
 10
-671.29172502062181
 20
477.03890851830948
 30
0.0000000000000025
 40
78.485028353584426
210
0.0000000000000002
220
0.0
230
-1.0
  0
CIRCLE
  5
96E1
  8
0
  6
VERDECKT
 62
     1
 10
-671.29172502062181
 20
477.03890851830948
 30
0.0000000000000025
 40
75.350000000000023
210
0.0000000000000002
220
0.0
230
-1.0
  0
CIRCLE
  5
96E2
  8
0
  6
VERDECKT
 62
     1
 10
-671.29172502062181
 20
477.03890851830948
 30
0.0000000000000025
 40
63.999999999999879
210
0.0000000000000002
220
0.0
230
-1.0
  0
CIRCLE
  5
96E3
  8
0
  6
VERDECKT
 62
     1
 10
-671.29172502062181
 20
477.03890851830948
 30
0.0000000000000025
 40
68.999999999999886
210
0.0000000000000002
220
0.0
230
-1.0
  0
CIRCLE
  5
96E4
  8
0
  6
VERDECKT
 62
     1
 10
-671.29172502062181
 20
477.03890851830948
 30
0.0000000000000007
 40
73.499999999999886
210
0.0000000000000002
220
0.0
230
-1.0
  0
CIRCLE
  5
96E5
  8
0
  6
VERDECKT
 62
     1
 10
-671.29172502062181
 20
477.03890851830948
 30
0.0000000000000025
 40
71.499999999999886
210
0.0000000000000002
220
0.0
230
-1.0
  0
CIRCLE
  5
96E6
  8
0
  6
VERDECKT
 62
     1
 10
-671.29172502062181
 20
477.03890851830948
 30
0.0000000000000025
 40
66.499999999999886
210
0.0000000000000002
220
0.0
230
-1.0
  0
CIRCLE
  5
96E7
  8
0
  6
VERDECKT
 62
     1
 10
-671.29172502062181
 20
477.03890851830948
 30
0.0000000000000025
 40
78.485028353584426
210
0.0000000000000002
220
0.0
230
-1.0
  0
CIRCLE
  5
96E8
  8
0
  6
VERDECKT
 62
     1
 10
-671.29172502062181
 20
477.03890851830948
 30
0.0000000000000025
 40
75.350000000000023
210
0.0000000000000002
220
0.0
230
-1.0
  0
ENDBLK
  5
96EA
  8
0
  0
ENDSEC
  0
SECTION
  2
ENTITIES
  0
TEXT
  5
3D20
  8
TEXT
 10
225.12963911253161
 20
62.528494077601842
 30
0.0
 40
5.0
  1

 41
0.8
  7
GREEKS
  0
TEXT
  5
8D13
  8
VOLL
 10
573.19014661785593
 20
391.57377935609122
 30
0.0
 40
1.8
  1

  7
GREEKS
  0
TEXT
  5
9197
  8
VOLL
 10
-210.6354182876581
 20
372.57842589366379
 30
0.0
 40
1.8
  1

  7
GREEKS
  0
INSERT
  5
96C9
  8
VOLL
  2
A$C005447A3
 10
432.50483273542551
 20
122.3637842659203
 30
0.0000000000000568
  0
INSERT
  5
96EB
  8
VOLL
  2
A$C679E1634
 10
432.50483273542528
 20
-736.17714842871806
 30
-0.0000000000001705
  0
VIEWPORT
  5
8E95
 67
     1
  8
0
 10
3.8077878034502302
 20
4.470126067983875
 30
0.0
 40
21.92927532879807
 41
10.335461163991869
 68
     1
 69
     1
1001
ACAD
1000
MVIEW
1002
{
1070
    16
1010
0.0
1020
0.0
1030
0.0
1010
0.0
1020
0.0
1030
1.0
1040
0.0
1040
10.335461163991869
1040
3.8077878034502302
1040
4.470126067983875
1040
50.0
1040
0.0
1040
0.0
1070
     0
1070
  1500
1070
     1
1070
     1
1070
     0
1070
     0
1070
     0
1070
     0
1040
0.0
1040
0.0
1040
0.0
1040
10.0
1040
10.0
1040
10.0
1040
10.0
1070
     0
1002
{
1002
}
1002
}
  0
ENDSEC
  0
EOF
