  0
SECTION
  2
HEADER
  9
$ACADVER
  1
AC1009
  9
$INSBASE
 10
0.0
 20
0.0
 30
0.0
  9
$EXTMIN
 10
226.9898793837849951
 20
-333.6407437702370089
 30
-37.462294376803861
  9
$EXTMAX
 10
368.2898793837848075
 20
47.0420071385679819
 30
-37.4622943768038112
  9
$LIMMIN
 10
0.0
 20
0.0
  9
$LIMMAX
 10
210.0
 20
297.0
  9
$ORTHOMODE
 70
     1
  9
$REGENMODE
 70
     1
  9
$FILLMODE
 70
     1
  9
$QTEXTMODE
 70
     0
  9
$MIRRTEXT
 70
     1
  9
$DRAGMODE
 70
     2
  9
$LTSCALE
 40
10.0
  9
$OSMODE
 70
  2495
  9
$ATTMODE
 70
     1
  9
$TEXTSIZE
 40
3.5
  9
$TRACEWID
 40
0.5
  9
$TEXTSTYLE
  7
STANDARD
  9
$CLAYER
  8
STEMPEL
  9
$CELTYPE
  6
BYLAYER
  9
$CECOLOR
 62
   256
  9
$DIMSCALE
 40
1.0
  9
$DIMASZ
 40
3.5
  9
$DIMEXO
 40
1.0
  9
$DIMDLI
 40
7.0
  9
$DIMRND
 40
0.0
  9
$DIMDLE
 40
0.0
  9
$DIMEXE
 40
1.0
  9
$DIMTP
 40
0.0
  9
$DIMTM
 40
0.0
  9
$DIMTXT
 40
3.5
  9
$DIMCEN
 40
1.5
  9
$DIMTSZ
 40
0.0
  9
$DIMTOL
 70
     0
  9
$DIMLIM
 70
     0
  9
$DIMTIH
 70
     0
  9
$DIMTOH
 70
     0
  9
$DIMSE1
 70
     0
  9
$DIMSE2
 70
     0
  9
$DIMTAD
 70
     1
  9
$DIMZIN
 70
     8
  9
$DIMBLK
  1

  9
$DIMASO
 70
     1
  9
$DIMSHO
 70
     0
  9
$DIMPOST
  1

  9
$DIMAPOST
  1

  9
$DIMALT
 70
     0
  9
$DIMALTD
 70
     2
  9
$DIMALTF
 40
25.3999999999999986
  9
$DIMLFAC
 40
2.0
  9
$DIMTOFL
 70
     1
  9
$DIMTVP
 40
0.0
  9
$DIMTIX
 70
     0
  9
$DIMSOXD
 70
     0
  9
$DIMSAH
 70
     0
  9
$DIMBLK1
  1

  9
$DIMBLK2
  1

  9
$DIMSTYLE
  2
STANDARD
  9
$DIMCLRD
 70
     0
  9
$DIMCLRE
 70
     0
  9
$DIMCLRT
 70
     1
  9
$DIMTFAC
 40
0.5
  9
$DIMGAP
 40
1.5
  9
$LUNITS
 70
     2
  9
$LUPREC
 70
     2
  9
$SKETCHINC
 40
1.0
  9
$FILLETRAD
 40
15.0
  9
$AUNITS
 70
     0
  9
$AUPREC
 70
     0
  9
$MENU
  1
ACAD
  9
$ELEVATION
 40
0.0
  9
$PELEVATION
 40
0.0
  9
$THICKNESS
 40
0.0
  9
$LIMCHECK
 70
     0
  9
$BLIPMODE
 70
     0
  9
$CHAMFERA
 40
2.0
  9
$CHAMFERB
 40
2.0
  9
$SKPOLY
 70
     0
  9
$TDCREATE
 40
2455397.8646990740671754
  9
$TDUPDATE
 40
2459627.3595023150555789
  9
$TDINDWG
 40
0.2337425
  9
$TDUSRTIMER
 40
0.2337425
  9
$USRTIMER
 70
     1
  9
$ANGBASE
 50
0.0
  9
$ANGDIR
 70
     0
  9
$PDMODE
 70
     0
  9
$PDSIZE
 40
0.0
  9
$PLINEWID
 40
0.0
  9
$COORDS
 70
     1
  9
$SPLFRAME
 70
     0
  9
$SPLINETYPE
 70
     6
  9
$SPLINESEGS
 70
     8
  9
$ATTDIA
 70
     1
  9
$ATTREQ
 70
     1
  9
$HANDLING
 70
     1
  9
$HANDSEED
  5
22A4
  9
$SURFTAB1
 70
     6
  9
$SURFTAB2
 70
     6
  9
$SURFTYPE
 70
     6
  9
$SURFU
 70
     6
  9
$SURFV
 70
     6
  9
$UCSNAME
  2

  9
$UCSORG
 10
0.0
 20
0.0
 30
0.0
  9
$UCSXDIR
 10
1.0
 20
0.0
 30
0.0
  9
$UCSYDIR
 10
0.0
 20
1.0
 30
0.0
  9
$PUCSNAME
  2

  9
$PUCSORG
 10
0.0
 20
0.0
 30
0.0
  9
$PUCSXDIR
 10
1.0
 20
0.0
 30
0.0
  9
$PUCSYDIR
 10
0.0
 20
1.0
 30
0.0
  9
$USERI1
 70
     0
  9
$USERI2
 70
     0
  9
$USERI3
 70
     0
  9
$USERI4
 70
     0
  9
$USERI5
 70
     0
  9
$USERR1
 40
0.0
  9
$USERR2
 40
0.0
  9
$USERR3
 40
0.0
  9
$USERR4
 40
0.0
  9
$USERR5
 40
0.0
  9
$WORLDVIEW
 70
     1
  9
$SHADEDGE
 70
     3
  9
$SHADEDIF
 70
    70
  9
$TILEMODE
 70
     1
  9
$MAXACTVP
 70
    16
  9
$PLIMCHECK
 70
     0
  9
$PEXTMIN
 10
1.0000000000000000E+20
 20
1.0000000000000000E+20
 30
1.0000000000000000E+20
  9
$PEXTMAX
 10
-1.0000000000000000E+20
 20
-1.0000000000000000E+20
 30
-1.0000000000000000E+20
  9
$PLIMMIN
 10
-0.0674642631973264
 20
-0.0511601294987543
  9
$PLIMMAX
 10
209.9325357368026914
 20
296.9488398705012742
  9
$UNITMODE
 70
     0
  9
$VISRETAIN
 70
     0
  9
$PLINEGEN
 70
     0
  9
$PSLTSCALE
 70
     0
  0
ENDSEC
  0
SECTION
  2
TABLES
  0
TABLE
  2
VPORT
 70
     1
  0
VPORT
  2
*ACTIVE
 70
     0
 10
0.0
 20
0.0
 11
1.0
 21
1.0
 12
-0.681686255570412
 22
-145.6197181159130878
 13
0.0
 23
0.0
 14
1.0
 24
1.0
 15
10.0
 25
10.0
 16
-0.0000000000002274
 26
0.0
 36
900.1317805852428364
 17
298.3215656393554127
 27
2.3203498000785601
 37
-18.7311471884019412
 40
383.4051543717999948
 41
1.785202863961814
 42
50.0
 43
0.0
 44
0.0
 50
0.0
 51
0.0
 71
     0
 72
  1500
 73
     1
 74
     0
 75
     0
 76
     0
 77
     0
 78
     0
  0
ENDTAB
  0
TABLE
  2
LTYPE
 70
     6
  0
LTYPE
  2
CONTINUOUS
 70
     0
  3
Solid line
 72
    65
 73
     0
 40
0.0
  0
LTYPE
  2
PHANTOM2
 70
     0
  3
Phantom (.5x) ___ _ _ ___ _ _ ___ _ _ ___ _ _
 72
    65
 73
     6
 40
1.25
 49
0.625
 49
-0.125
 49
0.125
 49
-0.125
 49
0.125
 49
-0.125
  0
LTYPE
  2
VERDECKT
 70
     0
  3
Verdeckt __ __ __ __ __ __ __ __ __ __ __ __ __
 72
    65
 73
     2
 40
0.375
 49
0.25
 49
-0.125
  0
ENDTAB
  0
TABLE
  2
LAYER
 70
    15
  0
LAYER
  2
0
 70
     0
 62
     7
  6
CONTINUOUS
  0
LAYER
  2
VOLL
 70
     0
 62
     1
  6
CONTINUOUS
  0
LAYER
  2
STEMPEL
 70
     0
 62
     3
  6
CONTINUOUS
  0
LAYER
  2
DEFPOINTS
 70
     0
 62
     7
  6
CONTINUOUS
  0
LAYER
  2
ADSK_ASSOC_ENTITY_BACKUPS
 70
     1
 62
    -7
  6
CONTINUOUS
  0
ENDTAB
  0
TABLE
  2
STYLE
 70
     5
  0
STYLE
  2
STANDARD
 70
     0
 40
0.0
 41
0.8
 50
0.0
 71
     0
 42
3.5
  3
simplex.shx
  4

  0
STYLE
  2
GREEKS
 70
     0
 40
0.0
 41
0.8
 50
0.0
 71
     0
 42
2.5
  3
SIMPLEX.shx
  4

  0
ENDTAB
  0
TABLE
  2
VIEW
 70
     1
  0
ENDTAB
  0
TABLE
  2
UCS
 70
     0
  0
ENDTAB
  0
TABLE
  2
APPID
 70
    24
  0
APPID
  2
ACAD
 70
     0
  0
APPID
  2
ACAD_NAV_VCDISPLAY
 70
     0
  0
APPID
  2
ACAD_MLEADERVER
 70
     0
  0
APPID
  2
ACAD_EXEMPT_FROM_CAD_STANDARDS
 70
     0
  0
APPID
  2
ACAD_PSEXT
 70
     0
  0
APPID
  2
ACAECLAYERSTANDARD
 70
     0
  0
APPID
  2
ACAUTHENVIRON
 70
     0
  0
APPID
  2
ACCMTRANSPARENCY
 70
     0
  0
APPID
  2
ACAD_STEPID
 70
     0
  0
APPID
  2
ACSYNERGY
 70
     0
  0
APPID
  2
SYNERGY_BODY_TBR_ID
 70
     0
  0
APPID
  2
ACAD_VIEW_EDGE_ID
 70
     0
  0
APPID
  2
ACSYNERGYSKETCH
 70
     0
  0
APPID
  2
ACAD_MODELDOC_XFORM
 70
     0
  0
APPID
  2
ACAD_DSTYLE_DIMJAG
 70
     0
  0
APPID
  2
ACAD_DSTYLE_DIMTALN
 70
     0
  0
APPID
  2
ACADANNOMONITORALERTICONDI
 70
     0
  0
APPID
  2
ACAD_DIMASSOC_CALC_DIMLFAC
 70
     0
  0
APPID
  2
ACAD_DIMASSOC_DIMLFAC
 70
     0
  0
APPID
  2
ACAD_DIMASSOC_OVERRIDDEN_D
 70
     0
  0
APPID
  2
ACAD_DSTYLE_DIMRADIAL_EXTENSION
 70
     0
  0
APPID
  2
GRADIENTCOLOR1ACI
 70
     0
  0
APPID
  2
GRADIENTCOLOR2ACI
 70
     0
  0
APPID
  2
AcDbAttr
 70
     0
  0
ENDTAB
  0
TABLE
  2
DIMSTYLE
 70
     3
  0
DIMSTYLE
  2
STANDARD
 70
     0
  3

  4

  5

  6

  7

 40
1.0
 41
0.18
 42
0.0625
 43
0.38
 44
0.18
 45
0.0
 46
0.0
 47
0.0
 48
0.0
140
0.18
141
0.09
142
0.0
143
25.3999999999999986
144
1.0
145
0.0
146
1.0
147
0.09
 71
     0
 72
     0
 73
     1
 74
     1
 75
     0
 76
     0
 77
     0
 78
     0
170
     0
171
     2
172
     0
173
     0
174
     0
175
     0
176
     0
177
     0
178
     0
  0
ENDTAB
  0
ENDSEC
  0
SECTION
  2
BLOCKS
  0
BLOCK
  8
0
  2
$MODEL_SPACE
 70
     0
 10
0.0
 20
0.0
 30
0.0
  3
$MODEL_SPACE
  1

  0
ENDBLK
  5
36
  8
0
  0
BLOCK
 67
     1
  8
0
  2
$PAPER_SPACE
 70
     0
 10
0.0
 20
0.0
 30
0.0
  3
$PAPER_SPACE
  1

  0
ENDBLK
  5
34
 67
     1
  8
0
  0
BLOCK
  8
0
  2
*S2
 70
     1
 10
0.0
 20
0.0
 30
0.0
  3
*S2
  1

  0
ENDBLK
  5
B3A
  8
0
  0
BLOCK
  8
0
  2
A$C9EDE0E28
 70
     0
 10
0.0
 20
0.0
 30
0.0
  3
A$C9EDE0E28
  1

  0
CIRCLE
  5
2206
  8
0
 10
129.7973054191288043
 20
97.1939330370280032
 30
-0.0000000000000284
 40
53.9995501064834116
  0
CIRCLE
  5
2207
  8
0
 10
129.7973054191288043
 20
97.1939330370280032
 30
-0.0000000000000284
 40
55.6546169849272019
  0
CIRCLE
  5
2208
  8
0
 10
129.7973054191288895
 20
97.1939330370280032
 30
-0.0000000000000284
 40
58.9995501064834116
  0
CIRCLE
  5
2209
  8
0
 10
129.7973054191288895
 20
97.1939330370280032
 30
-0.0000000000000284
 40
65.1929415033529267
  0
CIRCLE
  5
220A
  8
0
 10
129.7973054191288895
 20
97.1939330370280032
 30
-0.0000000000000284
 40
53.4995501064834116
  0
CIRCLE
  5
220B
  8
0
 10
129.7973054191288895
 20
97.1939330370280032
 30
-0.0000000000000284
 40
49.9995501064833903
  0
CIRCLE
  5
220C
  8
0
 10
129.7973054191288895
 20
97.1939330370280032
 30
-0.0000000000000284
 40
70.6499999999998636
  0
CIRCLE
  5
220D
  8
0
  6
VERDECKT
 62
     1
 10
129.7973054191288895
 20
97.1939330370280032
 30
-0.0000000000000284
 40
57.4995501064834116
  0
CIRCLE
  5
220E
  8
0
  6
VERDECKT
 62
     1
 10
129.7973054191288895
 20
97.1939330370280032
 30
-0.0000000000000284
 40
54.9995501064834116
  0
CIRCLE
  5
220F
  8
0
  6
VERDECKT
 62
     1
 10
129.7973054191288895
 20
97.1939330370280032
 30
-0.0000000000000284
 40
51.5000000000001066
  0
CIRCLE
  5
2210
  8
0
  6
VERDECKT
 62
     1
 10
129.7973054191288895
 20
97.1939330370280032
 30
-0.0000000000000284
 40
64.0999999999999091
  0
CIRCLE
  5
2211
  8
0
  6
VERDECKT
 62
     1
 10
129.7973054191288895
 20
97.1939330370280032
 30
-0.0000000000000284
 40
50.0
  0
CIRCLE
  5
2212
  8
0
  6
VERDECKT
 62
     1
 10
129.7973054191288895
 20
97.1939330370280032
 30
-0.0000000000000284
 40
51.4995501064833618
  0
CIRCLE
  5
2213
  8
0
  6
VERDECKT
 62
     1
 10
129.7973054191288895
 20
97.1939330370280032
 30
-0.0000000000000284
 40
64.0999999999999091
  0
ENDBLK
  5
2215
  8
0
  0
BLOCK
  8
0
  2
A$CA7701108
 70
     0
 10
0.0
 20
0.0
 30
0.0
  3
A$CA7701108
  1

  0
LINE
  5
2219
  8
0
 10
74.1426884342016592
 20
-50.0350682550879498
 30
0.0000000000000111
 11
185.4519224040560061
 21
-50.0350682550879498
 31
0.0000000000000111
210
0.0
220
1.0
230
-0.0000000000000002
  0
LINE
  5
221A
  8
0
 10
64.6043639157759344
 20
-159.0077032419360137
 30
0.0000000000000353
 11
194.9902469224817878
 21
-159.0077032419360137
 31
0.0000000000000353
210
0.0
220
1.0
230
-0.0000000000000002
  0
LINE
  5
221B
  8
0
 10
185.4519224040560061
 20
-50.0350682550879498
 30
0.0000000000000111
 11
186.5013963080104133
 21
-52.285672305012227
 31
0.0000000000000116
210
0.0
220
1.0
230
-0.0000000000000002
  0
LINE
  5
221C
  8
0
 10
74.1426884342016592
 20
-50.0350682550879498
 30
0.0000000000000111
 11
73.0932145302473231
 21
-52.285672305012227
 31
0.0000000000000116
210
0.0
220
1.0
230
-0.0000000000000002
  0
ARC
  5
221D
  8
0
 10
-95.2977553126468138
 20
-62.6398197176592575
 30
0.0
 40
24.5000000000013785
210
0.0
220
-0.0000000000000002
230
-1.0
 50
0.0
 51
24.9999999999975593
  0
ARC
  5
221E
  8
0
 10
-164.2968555256109937
 20
-62.6398197176592504
 30
0.0
 40
24.500000000001311
210
0.0
220
-0.0000000000000002
230
-1.0
 50
155.0000000000017053
 51
179.9999999999992895
  0
LINE
  5
221F
  8
0
 10
188.7968555256121874
 20
-62.6398197176589733
 30
0.0000000000000139
 11
188.7968555256121874
 21
-77.8020682550880025
 31
0.0000000000000173
210
0.0
220
1.0
230
-0.0000000000000002
  0
LINE
  5
2220
  8
0
 10
70.7977553126454353
 20
-62.6398197176589733
 30
0.0000000000000139
 11
70.7977553126454353
 21
-77.8020682550880025
 31
0.0000000000000173
210
0.0
220
1.0
230
-0.0000000000000002
  0
ARC
  5
2221
  8
0
 10
-95.2977553126453358
 20
-77.802068255088102
 30
0.0
 40
24.4999999999998685
210
0.0
220
-0.0000000000000002
230
-1.0
 50
333.1119523822748079
 51
0.0000000000002417
  0
ARC
  5
2222
  8
0
 10
-164.2968555256121022
 20
-77.8020682550880025
 30
0.0
 40
24.5000000000001386
210
0.0
220
-0.0000000000000002
230
-1.0
 50
180.0
 51
206.8880476177251069
  0
ARC
  5
2223
  8
0
 10
-62.2977553126467072
 20
-94.5352687857692473
 30
0.0
 40
12.4999999999987299
210
0.0
220
-0.0000000000000002
230
-1.0
 50
153.1119523822767974
 51
180.0000000000007105
  0
ARC
  5
2224
  8
0
 10
-197.2968555256109937
 20
-94.5352687857692615
 30
0.0
 40
12.4999999999987494
210
0.0
220
-0.0000000000000002
230
-1.0
 50
0.0
 51
26.8880476177239309
  0
LINE
  5
2225
  8
0
 10
184.7968555256121874
 20
-94.5352687857694178
 30
0.000000000000021
 11
184.7968555256121874
 21
-113.1075793781403007
 31
0.0000000000000251
210
0.0
220
1.0
230
-0.0000000000000002
  0
LINE
  5
2226
  8
0
 10
74.7977553126454495
 20
-94.5352687857694178
 30
0.000000000000021
 11
74.7977553126454495
 21
-113.1075793781403007
 31
0.0000000000000251
210
0.0
220
1.0
230
-0.0000000000000002
  0
ARC
  5
2227
  8
0
 10
-89.2977553126466006
 20
-113.1075793781400023
 30
0.0
 40
14.5000000000011404
210
0.0
220
-0.0000000000000002
230
-1.0
 50
327.6124614669078028
 51
359.9999999999985789
  0
ARC
  5
2228
  8
0
 10
-170.2968555256111074
 20
-113.1075793781399028
 30
0.0
 40
14.5000000000011298
210
0.0
220
-0.0000000000000002
230
-1.0
 50
180.0000000000013074
 51
212.3875385330923109
  0
ARC
  5
2229
  8
0
 10
-70.2977553126465864
 20
-125.1595501713340042
 30
0.0
 40
7.9999999999989164
210
0.0
220
-0.0000000000000002
230
-1.0
 50
147.6124614669064954
 51
180.6076444553798979
  0
ARC
  5
222A
  8
0
 10
-189.2968555256111074
 20
-125.1595501713340042
 30
0.0
 40
7.999999999998912
210
0.0
220
-0.0000000000000002
230
-1.0
 50
359.3923555446201021
 51
32.3875385330935117
  0
LINE
  5
222B
  8
0
 10
181.2973054191290032
 20
-125.2443917523178953
 30
0.0000000000000278
 11
181.2973054191290032
 21
-141.2710158796984103
 31
0.0000000000000314
210
0.0
220
1.0
230
-0.0000000000000002
  0
LINE
  5
222C
  8
0
 10
78.2973054191287474
 20
-125.2443917523178953
 30
0.0000000000000278
 11
78.2973054191287474
 21
-141.2710158796984103
 31
0.0000000000000314
210
0.0
220
1.0
230
-0.0000000000000002
  0
ARC
  5
222D
  8
0
 10
-70.2973054191283637
 20
-141.2710158796982967
 30
0.0
 40
8.0000000000003695
210
0.0
220
-0.0000000000000002
230
-1.0
 50
180.0000000000009095
 51
223.2285302599647991
  0
ARC
  5
222E
  8
0
 10
-189.2973054191292022
 20
-141.2710158796982967
 30
0.0
 40
8.0000000000002611
210
0.0
220
-0.0000000000000002
230
-1.0
 50
316.7714697400350019
 51
359.9999999999993747
  0
LINE
  5
222F
  8
0
 10
183.4682840679128049
 20
-146.7502959498415009
 30
0.0000000000000326
 11
194.9902469224817025
 21
-159.0077032419360989
 31
0.0000000000000353
210
0.0
220
1.0
230
-0.0000000000000002
  0
LINE
  5
2230
  8
0
 10
76.1263267703448463
 20
-146.7502959498415009
 30
0.0000000000000326
 11
64.604363915775977
 21
-159.0077032419360989
 31
0.0000000000000353
210
0.0
220
1.0
230
-0.0000000000000002
  0
LINE
  5
2231
  8
0
 10
65.6973054191289663
 20
-160.0350682550879071
 30
0.0000000000000355
 11
64.6043639157759344
 21
-159.0077032419360137
 31
0.0000000000000353
210
0.0
220
1.0
230
-0.0000000000000002
  0
LINE
  5
2232
  8
0
 10
193.8973054191287133
 20
-160.0350682550879071
 30
0.0000000000000355
 11
194.9902469224817878
 21
-159.0077032419360137
 31
0.0000000000000353
210
0.0
220
1.0
230
-0.0000000000000002
  0
LINE
  5
2233
  8
0
 10
59.1473054191289904
 20
-260.0350682550879924
 30
0.0000000000000577
 11
200.4473054191286963
 21
-260.0350682550879924
 31
0.0000000000000577
210
0.0
220
1.0
230
-0.0000000000000002
  0
LINE
  5
2234
  8
0
 10
59.1473054191289904
 20
-160.0350682550879071
 30
0.0000000000000355
 11
200.4473054191286963
 21
-160.0350682550879071
 31
0.0000000000000355
210
0.0
220
1.0
230
-0.0000000000000002
  0
LINE
  5
2235
  8
0
 10
200.4473054191286963
 20
-160.0350682550879071
 30
0.0000000000000355
 11
200.4473054191286963
 21
-260.0350682550879924
 31
0.0000000000000577
210
0.0
220
1.0
230
-0.0000000000000002
  0
LINE
  5
2236
  8
0
 10
59.1473054191289904
 20
-160.0350682550879071
 30
0.0000000000000355
 11
59.1473054191289904
 21
-260.0350682550879924
 31
0.0000000000000577
210
0.0
220
1.0
230
-0.0000000000000002
  0
LINE
  5
2237
  8
0
  6
VERDECKT
 62
     1
 10
187.2968555256123011
 20
-62.6398197176589733
 30
0.0000000000000139
 11
187.2968555256123011
 21
-77.8020682550880025
 31
0.0000000000000173
210
0.0
220
1.0
230
-0.0000000000000002
  0
LINE
  5
2238
  8
0
  6
VERDECKT
 62
     1
 10
72.2977553126454495
 20
-62.6398197176589733
 30
0.0000000000000139
 11
72.2977553126454495
 21
-77.8020682550880025
 31
0.0000000000000173
210
0.0
220
1.0
230
-0.0000000000000002
  0
ARC
  5
2239
  8
0
  6
VERDECKT
 62
     1
 10
-95.2977553126447958
 20
-62.6398197176588027
 30
0.0
 40
22.9999999999993285
210
0.0
220
-0.0000000000000002
230
-1.0
 50
0.0
 51
25.0000000000010694
  0
ARC
  5
223A
  8
0
  6
VERDECKT
 62
     1
 10
-164.2968555256126137
 20
-62.6398197176589022
 30
0.0
 40
22.9999999999996305
210
0.0
220
-0.0000000000000002
230
-1.0
 50
154.9999999999994031
 51
180.0000000000001137
  0
LINE
  5
223B
  8
0
  6
VERDECKT
 62
     1
 10
183.7968555256121874
 20
-50.0350682550879
 30
0.0000000000000111
 11
185.1419346274551003
 21
-52.9195996976227718
 31
0.0000000000000118
210
0.0
220
1.0
230
-0.0000000000000002
  0
LINE
  5
223C
  8
0
  6
VERDECKT
 62
     1
 10
75.7977553126454637
 20
-50.0350682550879
 30
0.0000000000000111
 11
74.4526762108025792
 21
-52.9195996976227718
 31
0.0000000000000118
210
0.0
220
1.0
230
-0.0000000000000002
  0
LINE
  5
223D
  8
0
  6
VERDECKT
 62
     1
 10
182.3753425645599862
 20
-147.7776609629933944
 30
0.0000000000000328
 11
193.8973054191287133
 21
-160.0350682550879071
 31
0.0000000000000355
210
0.0
220
1.0
230
-0.0000000000000002
  0
LINE
  5
223E
  8
0
  6
VERDECKT
 62
     1
 10
77.2192682736976934
 20
-147.7776609629933944
 30
0.0000000000000328
 11
65.6973054191289521
 21
-160.0350682550879071
 31
0.0000000000000355
210
0.0
220
1.0
230
-0.0000000000000002
  0
ARC
  5
223F
  8
0
  6
VERDECKT
 62
     1
 10
-70.2973054191290601
 20
-141.2710158796984956
 30
0.0
 40
9.4999999999996874
210
0.0
220
-0.0000000000000002
230
-1.0
 50
179.9999999999994884
 51
223.2285302599674992
  0
ARC
  5
2240
  8
0
  6
VERDECKT
 62
     1
 10
-189.2973054191284916
 20
-141.2710158796984956
 30
0.0
 40
9.4999999999995932
210
0.0
220
-0.0000000000000002
230
-1.0
 50
316.7714697400322166
 51
0.000000000000687
  0
LINE
  5
2241
  8
0
  6
VERDECKT
 62
     1
 10
179.7973054191288043
 20
-125.2520043459927024
 30
0.0000000000000278
 11
179.7973054191288043
 21
-141.2710158796984103
 31
0.0000000000000314
210
0.0
220
1.0
230
-0.0000000000000002
  0
LINE
  5
2242
  8
0
  6
VERDECKT
 62
     1
 10
79.7973054191288611
 20
-125.2520043459927024
 30
0.0000000000000278
 11
79.7973054191288611
 21
-141.2710158796984103
 31
0.0000000000000314
210
0.0
220
1.0
230
-0.0000000000000002
  0
ARC
  5
2243
  8
0
  6
VERDECKT
 62
     1
 10
-70.2977553126449521
 20
-125.1595501713344021
 30
0.0
 40
9.5000000000005222
210
0.0
220
-0.0000000000000002
230
-1.0
 50
147.6124614669095934
 51
180.5576123819591885
  0
ARC
  5
2244
  8
0
  6
VERDECKT
 62
     1
 10
-189.296855525612898
 20
-125.1595501713345016
 30
0.0
 40
9.5000000000006644
210
0.0
220
-0.0000000000000002
230
-1.0
 50
359.442387618040982
 51
32.3875385330902716
  0
ARC
  5
2245
  8
0
  6
VERDECKT
 62
     1
 10
-89.2977553126465153
 20
-113.1075793781400023
 30
0.0
 40
13.0000000000010498
210
0.0
220
-0.0000000000000002
230
-1.0
 50
327.6124614669078028
 51
359.9999999999984084
  0
ARC
  5
2246
  8
0
  6
VERDECKT
 62
     1
 10
-170.2968555256111927
 20
-113.1075793781400023
 30
0.0
 40
13.0000000000010498
210
0.0
220
-0.0000000000000002
230
-1.0
 50
180.0000000000015064
 51
212.3875385330921972
  0
LINE
  5
2247
  8
0
  6
VERDECKT
 62
     1
 10
183.2968555256123011
 20
-94.5352687857694178
 30
0.000000000000021
 11
183.2968555256123011
 21
-113.1075793781403007
 31
0.0000000000000251
210
0.0
220
1.0
230
-0.0000000000000002
  0
LINE
  5
2248
  8
0
  6
VERDECKT
 62
     1
 10
76.2977553126454495
 20
-94.5352687857694178
 30
0.000000000000021
 11
76.2977553126454495
 21
-113.1075793781403007
 31
0.0000000000000251
210
0.0
220
1.0
230
-0.0000000000000002
  0
ARC
  5
2249
  8
0
  6
VERDECKT
 62
     1
 10
-62.2977553126454708
 20
-94.5352687857695742
 30
0.0
 40
13.9999999999999893
210
0.0
220
-0.0000000000000002
230
-1.0
 50
153.1119523822777069
 51
179.9999999999994031
  0
ARC
  5
224A
  8
0
  6
VERDECKT
 62
     1
 10
-197.2968555256123011
 20
-94.5352687857695742
 30
0.0
 40
14.0000000000000302
210
0.0
220
-0.0000000000000002
230
-1.0
 50
0.0000000000006997
 51
26.8880476177222292
  0
ARC
  5
224B
  8
0
  6
VERDECKT
 62
     1
 10
-95.2977553126438579
 20
-77.802068255088443
 30
0.0
 40
22.9999999999984013
210
0.0
220
-0.0000000000000002
230
-1.0
 50
333.1119523822740121
 51
0.0000000000010941
  0
ARC
  5
224C
  8
0
  6
VERDECKT
 62
     1
 10
-164.2968555256134096
 20
-77.8020682550883294
 30
0.0
 40
22.9999999999988916
210
0.0
220
-0.0000000000000002
230
-1.0
 50
179.9999999999992042
 51
206.8880476177257037
  0
LINE
  5
224D
  8
0
  6
VERDECKT
 62
     1
 10
193.8973054191287133
 20
-160.0350682550879071
 30
0.0000000000000355
 11
193.8973054191287133
 21
-260.0350682550879924
 31
0.0000000000000577
210
0.0
220
1.0
230
-0.0000000000000002
  0
LINE
  5
224E
  8
0
  6
VERDECKT
 62
     1
 10
65.6973054191289521
 20
-160.0350682550879071
 30
0.0000000000000355
 11
65.6973054191289521
 21
-260.0350682550879924
 31
0.0000000000000577
210
0.0
220
1.0
230
-0.0000000000000002
  0
ENDBLK
  5
2250
  8
0
  0
ENDSEC
  0
SECTION
  2
ENTITIES
  0
TEXT
  5
8F
  8
VOLL
 10
78.076754716981128
 20
31.025947764705851
 30
0.0
 40
1.8
  1

  7
GREEKS
  0
INSERT
  5
B3C
  8
ADSK_ASSOC_ENTITY_BACKUPS
  2
*S2
 10
0.0
 20
0.0
 30
0.0
  0
INSERT
  5
2216
  8
STEMPEL
  2
A$C9EDE0E28
 10
167.8425739646559975
 20
-360.1846768072651912
 30
-37.4622943768037899
  0
INSERT
  5
2251
  8
STEMPEL
  2
A$CA7701108
 10
167.8425739646559975
 20
97.077075393655889
 30
-37.4622943768038681
  0
VIEWPORT
  5
928
 67
     1
  8
0
 10
104.9325357368027056
 20
148.4488398705011889
 30
0.0
 40
533.9969448798291296
 41
299.1239570917758783
 68
     1
 69
     1
1001
ACAD
1000
MVIEW
1002
{
1070
    16
1010
0.0
1020
0.0
1030
0.0
1010
0.0
1020
0.0
1030
1.0
1040
0.0
1040
299.1239570917758783
1040
104.9325357368027056
1040
148.4488398705011889
1040
50.0
1040
0.0
1040
0.0
1070
     0
1070
  1500
1070
     1
1070
     1
1070
     0
1070
     0
1070
     0
1070
     0
1040
0.0
1040
0.0
1040
0.0
1040
10.0
1040
10.0
1040
10.0
1040
10.0
1070
     0
1002
{
1002
}
1002
}
  0
ENDSEC
  0
EOF
