  0
SECTION
  2
HEADER
  9
$ACADVER
  1
AC1009
  9
$INSBASE
 10
0.0
 20
0.0
 30
0.0
  9
$EXTMIN
 10
212.2555101224963039
 20
-303.4770859175893065
 30
-99.7374909963215117
  9
$EXTMAX
 10
339.8431970963774233
 20
71.509601093072547
 30
-99.7352021081948976
  9
$LIMMIN
 10
0.0
 20
0.0
  9
$LIMMAX
 10
210.0
 20
297.0
  9
$ORTHOMODE
 70
     1
  9
$REGENMODE
 70
     1
  9
$FILLMODE
 70
     1
  9
$QTEXTMODE
 70
     0
  9
$MIRRTEXT
 70
     1
  9
$DRAGMODE
 70
     2
  9
$LTSCALE
 40
10.0
  9
$OSMODE
 70
  2495
  9
$ATTMODE
 70
     1
  9
$TEXTSIZE
 40
3.5
  9
$TRACEWID
 40
0.5
  9
$TEXTSTYLE
  7
STANDARD
  9
$CLAYER
  8
STEMPEL
  9
$CELTYPE
  6
BYLAYER
  9
$CECOLOR
 62
   256
  9
$DIMSCALE
 40
1.0
  9
$DIMASZ
 40
3.5
  9
$DIMEXO
 40
1.0
  9
$DIMDLI
 40
7.0
  9
$DIMRND
 40
0.0
  9
$DIMDLE
 40
0.0
  9
$DIMEXE
 40
1.0
  9
$DIMTP
 40
0.0
  9
$DIMTM
 40
0.0
  9
$DIMTXT
 40
3.5
  9
$DIMCEN
 40
1.5
  9
$DIMTSZ
 40
0.0
  9
$DIMTOL
 70
     0
  9
$DIMLIM
 70
     0
  9
$DIMTIH
 70
     0
  9
$DIMTOH
 70
     0
  9
$DIMSE1
 70
     0
  9
$DIMSE2
 70
     0
  9
$DIMTAD
 70
     1
  9
$DIMZIN
 70
     8
  9
$DIMBLK
  1

  9
$DIMASO
 70
     1
  9
$DIMSHO
 70
     0
  9
$DIMPOST
  1

  9
$DIMAPOST
  1

  9
$DIMALT
 70
     0
  9
$DIMALTD
 70
     2
  9
$DIMALTF
 40
25.3999999999999986
  9
$DIMLFAC
 40
2.0
  9
$DIMTOFL
 70
     1
  9
$DIMTVP
 40
0.0
  9
$DIMTIX
 70
     0
  9
$DIMSOXD
 70
     0
  9
$DIMSAH
 70
     0
  9
$DIMBLK1
  1

  9
$DIMBLK2
  1

  9
$DIMSTYLE
  2
STANDARD
  9
$DIMCLRD
 70
     0
  9
$DIMCLRE
 70
     0
  9
$DIMCLRT
 70
     1
  9
$DIMTFAC
 40
0.5
  9
$DIMGAP
 40
1.5
  9
$LUNITS
 70
     2
  9
$LUPREC
 70
     2
  9
$SKETCHINC
 40
1.0
  9
$FILLETRAD
 40
15.0
  9
$AUNITS
 70
     0
  9
$AUPREC
 70
     0
  9
$MENU
  1
ACAD
  9
$ELEVATION
 40
0.0
  9
$PELEVATION
 40
0.0
  9
$THICKNESS
 40
0.0
  9
$LIMCHECK
 70
     0
  9
$BLIPMODE
 70
     0
  9
$CHAMFERA
 40
2.0
  9
$CHAMFERB
 40
2.0
  9
$SKPOLY
 70
     0
  9
$TDCREATE
 40
2455397.8646990740671754
  9
$TDUPDATE
 40
2459627.3564351848326623
  9
$TDINDWG
 40
0.1928281481
  9
$TDUSRTIMER
 40
0.1928281481
  9
$USRTIMER
 70
     1
  9
$ANGBASE
 50
0.0
  9
$ANGDIR
 70
     0
  9
$PDMODE
 70
     0
  9
$PDSIZE
 40
0.0
  9
$PLINEWID
 40
0.0
  9
$COORDS
 70
     1
  9
$SPLFRAME
 70
     0
  9
$SPLINETYPE
 70
     6
  9
$SPLINESEGS
 70
     8
  9
$ATTDIA
 70
     1
  9
$ATTREQ
 70
     1
  9
$HANDLING
 70
     1
  9
$HANDSEED
  5
1EEC
  9
$SURFTAB1
 70
     6
  9
$SURFTAB2
 70
     6
  9
$SURFTYPE
 70
     6
  9
$SURFU
 70
     6
  9
$SURFV
 70
     6
  9
$UCSNAME
  2

  9
$UCSORG
 10
0.0
 20
0.0
 30
0.0
  9
$UCSXDIR
 10
1.0
 20
0.0
 30
0.0
  9
$UCSYDIR
 10
0.0
 20
1.0
 30
0.0
  9
$PUCSNAME
  2

  9
$PUCSORG
 10
0.0
 20
0.0
 30
0.0
  9
$PUCSXDIR
 10
1.0
 20
0.0
 30
0.0
  9
$PUCSYDIR
 10
0.0
 20
1.0
 30
0.0
  9
$USERI1
 70
     0
  9
$USERI2
 70
     0
  9
$USERI3
 70
     0
  9
$USERI4
 70
     0
  9
$USERI5
 70
     0
  9
$USERR1
 40
0.0
  9
$USERR2
 40
0.0
  9
$USERR3
 40
0.0
  9
$USERR4
 40
0.0
  9
$USERR5
 40
0.0
  9
$WORLDVIEW
 70
     1
  9
$SHADEDGE
 70
     3
  9
$SHADEDIF
 70
    70
  9
$TILEMODE
 70
     1
  9
$MAXACTVP
 70
    16
  9
$PLIMCHECK
 70
     0
  9
$PEXTMIN
 10
-0.0706663596347426
 20
-69.9952068282343589
 30
-0.0000000000112498
  9
$PEXTMAX
 10
209.9357407670854911
 20
296.9544401031168945
 30
0.0000000000002956
  9
$PLIMMIN
 10
-0.0674642631973264
 20
-0.0511601294987543
  9
$PLIMMAX
 10
209.9325357368026914
 20
296.9488398705012742
  9
$UNITMODE
 70
     0
  9
$VISRETAIN
 70
     0
  9
$PLINEGEN
 70
     0
  9
$PSLTSCALE
 70
     0
  0
ENDSEC
  0
SECTION
  2
TABLES
  0
TABLE
  2
VPORT
 70
     1
  0
VPORT
  2
*ACTIVE
 70
     0
 10
0.0
 20
0.0
 11
1.0
 21
1.0
 12
-0.0035490751799898
 22
-151.4281712628011007
 13
0.0
 23
0.0
 14
1.0
 24
1.0
 15
10.0
 25
10.0
 16
-0.0000000000002274
 26
0.0
 36
924.4355608244807172
 17
276.0529026846168108
 27
35.4444288505427778
 37
-84.7358893955110091
 40
377.6683558093077977
 41
1.7852028639618129
 42
50.0
 43
0.0
 44
0.0
 50
0.0
 51
0.0
 71
     0
 72
  1500
 73
     1
 74
     0
 75
     0
 76
     0
 77
     0
 78
     0
  0
ENDTAB
  0
TABLE
  2
LTYPE
 70
     3
  0
LTYPE
  2
CONTINUOUS
 70
     0
  3
Solid line
 72
    65
 73
     0
 40
0.0
  0
LTYPE
  2
PHANTOM2
 70
     0
  3
Phantom (.5x) ___ _ _ ___ _ _ ___ _ _ ___ _ _
 72
    65
 73
     6
 40
1.25
 49
0.625
 49
-0.125
 49
0.125
 49
-0.125
 49
0.125
 49
-0.125
  0
LTYPE
  2
VERDECKT
 70
     0
  3
Verdeckt __ __ __ __ __ __ __ __ __ __ __ __ __
 72
    65
 73
     2
 40
0.375
 49
0.25
 49
-0.125
  0
ENDTAB
  0
TABLE
  2
LAYER
 70
     7
  0
LAYER
  2
0
 70
     0
 62
     7
  6
CONTINUOUS
  0
LAYER
  2
VOLL
 70
     0
 62
     1
  6
CONTINUOUS
  0
LAYER
  2
STEMPEL
 70
     0
 62
     3
  6
CONTINUOUS
  0
LAYER
  2
DEFPOINTS
 70
     0
 62
     7
  6
CONTINUOUS
  0
LAYER
  2
ADSK_ASSOC_ENTITY_BACKUPS
 70
     1
 62
    -7
  6
CONTINUOUS
  0
ENDTAB
  0
TABLE
  2
STYLE
 70
     3
  0
STYLE
  2
STANDARD
 70
     0
 40
0.0
 41
0.8
 50
0.0
 71
     0
 42
3.5
  3
simplex.shx
  4

  0
STYLE
  2
GREEKS
 70
     0
 40
0.0
 41
0.8
 50
0.0
 71
     0
 42
2.5
  3
SIMPLEX.shx
  4

  0
ENDTAB
  0
TABLE
  2
VIEW
 70
     0
  0
ENDTAB
  0
TABLE
  2
UCS
 70
     0
  0
ENDTAB
  0
TABLE
  2
APPID
 70
    23
  0
APPID
  2
ACAD
 70
     0
  0
APPID
  2
ACAD_NAV_VCDISPLAY
 70
     0
  0
APPID
  2
ACAD_MLEADERVER
 70
     0
  0
APPID
  2
ACAD_EXEMPT_FROM_CAD_STANDARDS
 70
     0
  0
APPID
  2
ACAD_PSEXT
 70
     0
  0
APPID
  2
ACAECLAYERSTANDARD
 70
     0
  0
APPID
  2
ACAUTHENVIRON
 70
     0
  0
APPID
  2
ACCMTRANSPARENCY
 70
     0
  0
APPID
  2
ACAD_STEPID
 70
     0
  0
APPID
  2
ACSYNERGY
 70
     0
  0
APPID
  2
SYNERGY_BODY_TBR_ID
 70
     0
  0
APPID
  2
ACAD_VIEW_EDGE_ID
 70
     0
  0
APPID
  2
ACSYNERGYSKETCH
 70
     0
  0
APPID
  2
ACAD_MODELDOC_XFORM
 70
     0
  0
APPID
  2
ACAD_DSTYLE_DIMJAG
 70
     0
  0
APPID
  2
ACAD_DSTYLE_DIMTALN
 70
     0
  0
APPID
  2
ACADANNOMONITORALERTICONDI
 70
     0
  0
APPID
  2
ACAD_DIMASSOC_CALC_DIMLFAC
 70
     0
  0
APPID
  2
ACAD_DIMASSOC_DIMLFAC
 70
     0
  0
APPID
  2
ACAD_DIMASSOC_OVERRIDDEN_D
 70
     0
  0
APPID
  2
ACAD_DSTYLE_DIMRADIAL_EXTENSION
 70
     0
  0
APPID
  2
GRADIENTCOLOR1ACI
 70
     0
  0
APPID
  2
GRADIENTCOLOR2ACI
 70
     0
  0
ENDTAB
  0
TABLE
  2
DIMSTYLE
 70
     1
  0
DIMSTYLE
  2
STANDARD
 70
     0
  3

  4

  5

  6

  7

 40
1.0
 41
0.18
 42
0.0625
 43
0.38
 44
0.18
 45
0.0
 46
0.0
 47
0.0
 48
0.0
140
0.18
141
0.09
142
0.0
143
25.3999999999999986
144
1.0
145
0.0
146
1.0
147
0.09
 71
     0
 72
     0
 73
     1
 74
     1
 75
     0
 76
     0
 77
     0
 78
     0
170
     0
171
     2
172
     0
173
     0
174
     0
175
     0
176
     0
177
     0
178
     0
  0
ENDTAB
  0
ENDSEC
  0
SECTION
  2
BLOCKS
  0
BLOCK
  8
0
  2
$MODEL_SPACE
 70
     0
 10
0.0
 20
0.0
 30
0.0
  3
$MODEL_SPACE
  1

  0
ENDBLK
  5
36
  8
0
  0
BLOCK
 67
     1
  8
0
  2
$PAPER_SPACE
 70
     0
 10
0.0
 20
0.0
 30
0.0
  3
$PAPER_SPACE
  1

  0
ENDBLK
  5
34
 67
     1
  8
0
  0
BLOCK
  8
0
  2
*S0
 70
     1
 10
0.0
 20
0.0
 30
0.0
  3
*S0
  1

  0
ENDBLK
  5
B3A
  8
0
  0
BLOCK
  8
0
  2
A$CEBB97CA8
 70
     0
 10
0.0
 20
0.0
 30
0.0
  3
A$CEBB97CA8
  1

  0
CIRCLE
  5
1E25
  8
0
 10
129.7973054191288043
 20
97.1939330370279606
 30
0.0000000000000284
 40
42.8999999999998565
  0
CIRCLE
  5
1E26
  8
0
 10
129.7973054191288043
 20
97.1939330370279606
 30
0.0000000000000284
 40
45.9999999999997726
  0
CIRCLE
  5
1E27
  8
0
 10
129.7973054191288043
 20
97.1939330370279606
 30
0.0000000000000284
 40
47.7654046703398834
  0
CIRCLE
  5
1E28
  8
0
 10
129.7973054191288043
 20
97.1939330370279606
 30
0.0000000000000284
 40
51.0999999999999091
  0
CIRCLE
  5
1E29
  8
0
 10
129.7973054191288043
 20
97.1939330370279606
 30
0.0000000000000284
 40
56.0269037636873009
  0
CIRCLE
  5
1E2A
  8
0
 10
129.7973054191288043
 20
97.1939330370279606
 30
0.0000000000000284
 40
63.4999999999998792
  0
CIRCLE
  5
1E2B
  8
0
  6
VERDECKT
 62
     1
 10
129.7973054191288043
 20
97.1939330370279606
 30
0.0000000000000284
 40
49.4999999999997726
  0
CIRCLE
  5
1E2C
  8
0
  6
VERDECKT
 62
     1
 10
129.7973054191288043
 20
97.1939330370279606
 30
0.0000000000000284
 40
47.5999999999999019
  0
CIRCLE
  5
1E2D
  8
0
  6
VERDECKT
 62
     1
 10
129.7973054191288043
 20
97.1939330370279606
 30
0.0000000000000284
 40
44.4999999999997726
  0
CIRCLE
  5
1E2E
  8
0
  6
VERDECKT
 62
     1
 10
129.7973054191288043
 20
97.1939330370279606
 30
0.0000000000000284
 40
54.699999999999811
  0
CIRCLE
  5
1E2F
  8
0
  6
VERDECKT
 62
     1
 10
129.7973054191288043
 20
97.1939330370279606
 30
0.0000000000000284
 40
54.699999999999811
  0
ENDBLK
  5
1E31
  8
0
  0
BLOCK
  8
0
  2
A$C344B8D91
 70
     0
 10
0.0
 20
0.0
 30
0.0
  3
A$C344B8D91
  1

  0
LINE
  5
1E35
  8
0
 10
82.0319007487889849
 20
-50.0350682550881203
 30
0.0000000000000111
 11
177.5627100894687089
 21
-50.0350682550881203
 31
0.0000000000000111
210
0.0
220
1.0
230
-0.0000000000000002
  0
LINE
  5
1E36
  8
0
 10
73.7704016554415603
 20
-159.141017696164198
 30
0.0000000000000353
 11
185.8242091828161051
 21
-159.141017696164198
 31
0.0000000000000353
210
0.0
220
1.0
230
-0.0000000000000002
  0
LINE
  5
1E37
  8
0
 10
177.5627100894687089
 20
-50.0350682550881274
 30
0.0000000000000111
 11
178.5924769802307139
 21
-52.2434104788393583
 31
0.0000000000000116
210
0.0
220
1.0
230
-0.0000000000000002
  0
LINE
  5
1E38
  8
0
 10
82.0319007487890133
 20
-50.0350682550881274
 30
0.0000000000000111
 11
81.0021338580269656
 21
-52.2434104788393583
 31
0.0000000000000116
210
0.0
220
1.0
230
-0.0000000000000002
  0
ARC
  5
1E39
  8
0
 10
-103.2973054191307938
 20
-62.639819717660032
 30
0.0
 40
24.6000000000018986
210
0.0
220
-0.0000000000000002
230
-1.0
 50
0.0
 51
24.9999999999947597
  0
ARC
  5
1E3A
  8
0
 10
-156.2973054191267863
 20
-62.6398197176600533
 30
0.0
 40
24.6000000000019803
210
0.0
220
-0.0000000000000002
230
-1.0
 50
155.0000000000034106
 51
179.9999999999980957
  0
LINE
  5
1E3B
  8
0
 10
180.8973054191287986
 20
-62.6398197176592504
 30
0.0000000000000139
 11
180.8973054191287986
 21
-69.7352032940692794
 31
0.0000000000000155
210
0.0
220
1.0
230
-0.0000000000000002
  0
LINE
  5
1E3C
  8
0
 10
78.6973054191289521
 20
-62.6398197176592504
 30
0.0000000000000139
 11
78.6973054191289521
 21
-69.7352032940692794
 31
0.0000000000000155
210
0.0
220
1.0
230
-0.0000000000000002
  0
ARC
  5
1E3D
  8
0
 10
-103.6953269900521946
 20
-69.6671458671318646
 30
0.0
 40
24.9981142143502808
210
0.0
220
-0.0000000000000002
230
-1.0
 50
334.8764766535921922
 51
359.8440119077907866
  0
ARC
  5
1E3E
  8
0
 10
-155.8992838482058119
 20
-69.6671458671319783
 30
0.0
 40
24.9981142143499788
210
0.0
220
-0.0000000000000002
230
-1.0
 50
180.1559880922089008
 51
205.1235233464078078
  0
ARC
  5
1E3F
  8
0
 10
-70.1973054191287389
 20
-85.3752013182831746
 30
0.0
 40
12.0000000000002096
210
0.0
220
-0.0000000000000002
230
-1.0
 50
154.8779398133686129
 51
180.0000000000009095
  0
ARC
  5
1E40
  8
0
 10
-189.3973054191291112
 20
-85.3752013182831888
 30
0.0
 40
12.0000000000003393
210
0.0
220
-0.0000000000000002
230
-1.0
 50
359.9999999999992042
 51
25.12206018663111
  0
LINE
  5
1E41
  8
0
 10
177.3973054191287133
 20
-85.3752013182833736
 30
0.000000000000019
 11
177.3973054191287133
 21
-104.6463418376708034
 31
0.0000000000000232
210
0.0
220
1.0
230
-0.0000000000000002
  0
LINE
  5
1E42
  8
0
 10
82.1973054191289521
 20
-85.3752013182833736
 30
0.000000000000019
 11
82.1973054191289521
 21
-104.6463418376708034
 31
0.0000000000000232
210
0.0
220
1.0
230
-0.0000000000000002
  0
ARC
  5
1E43
  8
0
 10
-94.1973054191305152
 20
-104.6463418376708034
 30
0.0
 40
12.0000000000016005
210
0.0
220
-0.0000000000000002
230
-1.0
 50
327.6719358778385072
 51
360.0
  0
ARC
  5
1E44
  8
0
 10
-165.3973054191268943
 20
-104.646341837670704
 30
0.0
 40
12.0000000000019007
210
0.0
220
-0.0000000000000002
230
-1.0
 50
180.0000000000003979
 51
212.3280641221610097
  0
ARC
  5
1E45
  8
0
 10
-77.2973054191309359
 20
-115.3416679196565013
 30
0.0
 40
7.9999999999981544
210
0.0
220
-0.0000000000000002
230
-1.0
 50
147.6719358778339029
 51
180.0000000000017906
  0
ARC
  5
1E46
  8
0
 10
-182.2973054191269
 20
-115.3416679196566008
 30
0.0
 40
7.9999999999983231
210
0.0
220
-0.0000000000000002
230
-1.0
 50
359.9999999999985789
 51
32.3280641221658982
  0
LINE
  5
1E47
  8
0
 10
174.2973054191286053
 20
-115.3416679196567998
 30
0.0000000000000256
 11
174.2973054191286053
 21
-139.5897051851137007
 31
0.000000000000031
210
0.0
220
1.0
230
-0.0000000000000002
  0
LINE
  5
1E48
  8
0
 10
85.2973054191290885
 20
-115.3416679196567998
 30
0.0000000000000256
 11
85.2973054191290885
 21
-139.5897051851137007
 31
0.000000000000031
210
0.0
220
1.0
230
-0.0000000000000002
  0
ARC
  5
1E49
  8
0
 10
-77.2973054191278095
 20
-139.5897051851131039
 30
0.0
 40
8.0000000000012932
210
0.0
220
-0.0000000000000002
230
-1.0
 50
180.0000000000040075
 51
213.9715790314859021
  0
ARC
  5
1E4A
  8
0
 10
-182.297305419129799
 20
-139.5897051851131891
 30
0.0
 40
8.0000000000011315
210
0.0
220
-0.0000000000000002
230
-1.0
 50
326.0284209685140127
 51
359.9999999999964757
  0
LINE
  5
1E4B
  8
0
 10
175.6627866006915042
 20
-144.0599579797332126
 30
0.000000000000032
 11
185.8242091828161051
 21
-159.1410176961643117
 31
0.0000000000000353
210
0.0
220
1.0
230
-0.0000000000000002
  0
LINE
  5
1E4C
  8
0
 10
83.9318242375661754
 20
-144.0599579797332126
 30
0.000000000000032
 11
73.7704016554415745
 21
-159.1410176961643117
 31
0.0000000000000353
210
0.0
220
1.0
230
-0.0000000000000002
  0
LINE
  5
1E4D
  8
0
 10
75.097305419129043
 20
-160.0350682550881061
 30
0.0000000000000355
 11
73.7704016554415603
 21
-159.141017696164198
 31
0.0000000000000353
210
0.0
220
1.0
230
-0.0000000000000002
  0
LINE
  5
1E4E
  8
0
 10
184.4973054191287076
 20
-160.0350682550881061
 30
0.0000000000000355
 11
185.8242091828161051
 21
-159.141017696164198
 31
0.0000000000000353
210
0.0
220
1.0
230
-0.0000000000000002
  0
LINE
  5
1E4F
  8
0
 10
193.2973054191288043
 20
-260.0350682550882198
 30
0.0000000000000577
 11
66.2973054191288611
 21
-260.0350682550882198
 31
0.0000000000000577
210
0.0
220
1.0
230
-0.0000000000000002
  0
LINE
  5
1E50
  8
0
 10
193.2973054191286906
 20
-160.0350682550881061
 30
0.0000000000000355
 11
66.2973054191289748
 21
-160.0350682550881061
 31
0.0000000000000355
210
0.0
220
1.0
230
-0.0000000000000002
  0
LINE
  5
1E51
  8
0
 10
66.2973054191288611
 20
-260.0350682550882198
 30
0.0000000000000577
 11
66.2973054191288611
 21
-160.0350682550881061
 31
0.0000000000000355
210
0.0
220
1.0
230
-0.0000000000000002
  0
LINE
  5
1E52
  8
0
 10
193.2973054191288043
 20
-260.0350682550882198
 30
0.0000000000000577
 11
193.2973054191288043
 21
-160.0350682550881061
 31
0.0000000000000355
210
0.0
220
1.0
230
-0.0000000000000002
  0
LINE
  5
1E53
  8
0
  6
VERDECKT
 62
     1
 10
172.6973054191286963
 20
-115.3416679196567998
 30
0.0000000000000256
 11
172.6973054191286963
 21
-139.5897051851137007
 31
0.000000000000031
210
0.0
220
1.0
230
-0.0000000000000002
  0
LINE
  5
1E54
  8
0
  6
VERDECKT
 62
     1
 10
86.8973054191289833
 20
-115.3416679196567998
 30
0.0000000000000256
 11
86.8973054191289833
 21
-139.5897051851137007
 31
0.000000000000031
210
0.0
220
1.0
230
-0.0000000000000002
  0
ARC
  5
1E55
  8
0
  6
VERDECKT
 62
     1
 10
-77.2973054191300406
 20
-115.3416679196565013
 30
0.0
 40
9.599999999998948
210
0.0
220
-0.0000000000000002
230
-1.0
 50
147.671935877836404
 51
180.0000000000019043
  0
ARC
  5
1E56
  8
0
  6
VERDECKT
 62
     1
 10
-182.2973054191274969
 20
-115.3416679196564019
 30
0.0
 40
9.5999999999987438
210
0.0
220
-0.0000000000000002
230
-1.0
 50
359.9999999999973852
 51
32.3280641221638234
  0
ARC
  5
1E57
  8
0
  6
VERDECKT
 62
     1
 10
-94.1973054191304158
 20
-104.6463418376704055
 30
0.0
 40
10.4000000000016701
210
0.0
220
-0.0000000000000002
230
-1.0
 50
327.6719358778377114
 51
359.9999999999957936
  0
ARC
  5
1E58
  8
0
  6
VERDECKT
 62
     1
 10
-165.3973054191274912
 20
-104.646341837670505
 30
0.0
 40
10.4000000000014499
210
0.0
220
-0.0000000000000002
230
-1.0
 50
180.0000000000036948
 51
212.3280641221624876
  0
LINE
  5
1E59
  8
0
  6
VERDECKT
 62
     1
 10
175.7973054191288043
 20
-85.3752013182833736
 30
0.000000000000019
 11
175.7973054191288043
 21
-104.6463418376712013
 31
0.0000000000000232
210
0.0
220
1.0
230
-0.0000000000000002
  0
LINE
  5
1E5A
  8
0
  6
VERDECKT
 62
     1
 10
83.7973054191288611
 20
-85.3752013182833736
 30
0.000000000000019
 11
83.7973054191288611
 21
-104.6463418376712013
 31
0.0000000000000232
210
0.0
220
1.0
230
-0.0000000000000002
  0
ARC
  5
1E5B
  8
0
  6
VERDECKT
 62
     1
 10
-70.1973054191274031
 20
-85.3752013182839846
 30
0.0
 40
13.6000000000016801
210
0.0
220
-0.0000000000000002
230
-1.0
 50
154.8779398133704888
 51
179.9999999999974136
  0
ARC
  5
1E5C
  8
0
  6
VERDECKT
 62
     1
 10
-189.397305419130987
 20
-85.3752013182841267
 30
0.0
 40
13.6000000000023498
210
0.0
220
-0.0000000000000002
230
-1.0
 50
0.0000000000031806
 51
25.1220601866289286
  0
ARC
  5
1E5D
  8
0
  6
VERDECKT
 62
     1
 10
-103.695455057500098
 20
-69.6671021118970657
 30
0.0
 40
23.3982487436692388
210
0.0
220
-0.0000000000000002
230
-1.0
 50
334.8764127392008163
 51
359.8332389799758744
  0
ARC
  5
1E5E
  8
0
  6
VERDECKT
 62
     1
 10
-155.89915578075761
 20
-69.6671021118970657
 30
0.0
 40
23.3982487436692388
210
0.0
220
-0.0000000000000002
230
-1.0
 50
180.1667610200240119
 51
205.1235872607992121
  0
LINE
  5
1E5F
  8
0
  6
VERDECKT
 62
     1
 10
179.2973054191286053
 20
-62.6398197176592504
 30
0.0000000000000139
 11
179.2973054191286053
 21
-69.7352032940689952
 31
0.0000000000000155
210
0.0
220
1.0
230
-0.0000000000000002
  0
LINE
  5
1E60
  8
0
  6
VERDECKT
 62
     1
 10
80.2973054191290885
 20
-62.6398197176592504
 30
0.0000000000000139
 11
80.2973054191290885
 21
-69.7352032940689952
 31
0.0000000000000155
210
0.0
220
1.0
230
-0.0000000000000002
  0
ARC
  5
1E61
  8
0
  6
VERDECKT
 62
     1
 10
-103.2973054191308933
 20
-62.6398197176594778
 30
0.0
 40
23.0000000000018794
210
0.0
220
-0.0000000000000002
230
-1.0
 50
0.0000000000005852
 51
24.999999999995989
  0
ARC
  5
1E62
  8
0
  6
VERDECKT
 62
     1
 10
-156.2973054191267011
 20
-62.6398197176594778
 30
0.0
 40
23.0000000000018794
210
0.0
220
-0.0000000000000002
230
-1.0
 50
155.0000000000040075
 51
179.9999999999994031
  0
LINE
  5
1E63
  8
0
  6
VERDECKT
 62
     1
 10
175.7973054191286906
 20
-50.035068255088099
 30
0.0000000000000111
 11
177.1423845209720866
 21
-52.9195996976240366
 31
0.0000000000000118
210
0.0
220
1.0
230
-0.0000000000000002
  0
LINE
  5
1E64
  8
0
  6
VERDECKT
 62
     1
 10
83.7973054191290458
 20
-50.035068255088099
 30
0.0000000000000111
 11
82.4522263172855929
 21
-52.9195996976240366
 31
0.0000000000000118
210
0.0
220
1.0
230
-0.0000000000000002
  0
LINE
  5
1E65
  8
0
  6
VERDECKT
 62
     1
 10
174.3358828370039078
 20
-144.9540085386570922
 30
0.0000000000000322
 11
184.4973054191287076
 21
-160.0350682550881061
 31
0.0000000000000355
210
0.0
220
1.0
230
-0.0000000000000002
  0
LINE
  5
1E66
  8
0
  6
VERDECKT
 62
     1
 10
85.2587280012537434
 20
-144.9540085386570922
 30
0.0000000000000322
 11
75.097305419129043
 21
-160.0350682550881061
 31
0.0000000000000355
210
0.0
220
1.0
230
-0.0000000000000002
  0
ARC
  5
1E67
  8
0
  6
VERDECKT
 62
     1
 10
-77.2973054191295006
 20
-139.5897051851138997
 30
0.0
 40
9.5999999999996106
210
0.0
220
-0.0000000000000002
230
-1.0
 50
179.9999999999986073
 51
213.9715790314874937
  0
ARC
  5
1E68
  8
0
  6
VERDECKT
 62
     1
 10
-182.2973054191282074
 20
-139.5897051851138997
 30
0.0
 40
9.5999999999995982
210
0.0
220
-0.0000000000000002
230
-1.0
 50
326.028420968512421
 51
0.0000000000013613
  0
LINE
  5
1E69
  8
0
  6
VERDECKT
 62
     1
 10
75.097305419129043
 20
-260.0350682550882198
 30
0.0000000000000577
 11
75.097305419129043
 21
-160.0350682550881061
 31
0.0000000000000355
210
0.0
220
1.0
230
-0.0000000000000002
  0
LINE
  5
1E6A
  8
0
  6
VERDECKT
 62
     1
 10
184.4973054191287076
 20
-260.0350682550882198
 30
0.0000000000000577
 11
184.4973054191287076
 21
-160.0350682550881061
 31
0.0000000000000355
210
0.0
220
1.0
230
-0.0000000000000002
  0
ENDBLK
  5
1E6C
  8
0
  0
ENDSEC
  0
SECTION
  2
ENTITIES
  0
TEXT
  5
8F
  8
VOLL
 10
78.076754716981128
 20
31.025947764705851
 30
0.0
 40
1.8
  1

  7
GREEKS
  0
INSERT
  5
B3C
  8
ADSK_ASSOC_ENTITY_BACKUPS
  2
*S0
 10
0.0
 20
0.0
 30
0.0
  0
INSERT
  5
1E32
  8
STEMPEL
  2
A$CEBB97CA8
 10
145.9756808658439979
 20
-337.1517408605346873
 30
-99.7365754969527671
  0
INSERT
  5
1E6D
  8
STEMPEL
  2
A$C344B8D91
 10
146.53552001120201
 20
121.5375044672563973
 30
-99.7365754969527814
  0
VIEWPORT
  5
928
 67
     1
  8
0
 10
28.5122443955857001
 20
86.5217231571473917
 30
0.0
 40
820.8527208275191924
 41
459.8092112656826203
 68
     1
 69
     1
1001
ACAD
1000
MVIEW
1002
{
1070
    16
1010
0.0
1020
0.0
1030
0.0
1010
0.0
1020
0.0
1030
1.0
1040
0.0
1040
459.8092112656826203
1040
28.5122443955857001
1040
86.5217231571473917
1040
50.0
1040
0.0
1040
0.0
1070
     0
1070
  1500
1070
     1
1070
     1
1070
     0
1070
     0
1070
     0
1070
     0
1040
0.0
1040
0.0
1040
0.0
1040
10.0
1040
10.0
1040
10.0
1040
10.0
1070
     0
1002
{
1002
}
1002
}
  0
ENDSEC
  0
EOF
