  0
SECTION
  2
HEADER
  9
$ACADVER
  1
AC1009
  9
$INSBASE
 10
0.0
 20
0.0
 30
0.0
  9
$EXTMIN
 10
208.6569742048029923
 20
-310.2977321386460972
 30
-29.0624624859291814
  9
$EXTMAX
 10
322.956974204802691
 20
49.3215793055898075
 30
-29.0624624859291316
  9
$LIMMIN
 10
0.0
 20
0.0
  9
$LIMMAX
 10
210.0
 20
297.0
  9
$ORTHOMODE
 70
     1
  9
$REGENMODE
 70
     1
  9
$FILLMODE
 70
     1
  9
$QTEXTMODE
 70
     0
  9
$MIRRTEXT
 70
     1
  9
$DRAGMODE
 70
     2
  9
$LTSCALE
 40
10.0
  9
$OSMODE
 70
  2495
  9
$ATTMODE
 70
     1
  9
$TEXTSIZE
 40
3.5
  9
$TRACEWID
 40
0.5
  9
$TEXTSTYLE
  7
STANDARD
  9
$CLAYER
  8
STEMPEL
  9
$CELTYPE
  6
BYLAYER
  9
$CECOLOR
 62
   256
  9
$DIMSCALE
 40
1.0
  9
$DIMASZ
 40
3.5
  9
$DIMEXO
 40
1.0
  9
$DIMDLI
 40
7.0
  9
$DIMRND
 40
0.0
  9
$DIMDLE
 40
0.0
  9
$DIMEXE
 40
1.0
  9
$DIMTP
 40
0.0
  9
$DIMTM
 40
0.0
  9
$DIMTXT
 40
3.5
  9
$DIMCEN
 40
1.5
  9
$DIMTSZ
 40
0.0
  9
$DIMTOL
 70
     0
  9
$DIMLIM
 70
     0
  9
$DIMTIH
 70
     0
  9
$DIMTOH
 70
     0
  9
$DIMSE1
 70
     0
  9
$DIMSE2
 70
     0
  9
$DIMTAD
 70
     1
  9
$DIMZIN
 70
     8
  9
$DIMBLK
  1

  9
$DIMASO
 70
     1
  9
$DIMSHO
 70
     0
  9
$DIMPOST
  1

  9
$DIMAPOST
  1

  9
$DIMALT
 70
     0
  9
$DIMALTD
 70
     2
  9
$DIMALTF
 40
25.3999999999999986
  9
$DIMLFAC
 40
2.0
  9
$DIMTOFL
 70
     1
  9
$DIMTVP
 40
0.0
  9
$DIMTIX
 70
     0
  9
$DIMSOXD
 70
     0
  9
$DIMSAH
 70
     0
  9
$DIMBLK1
  1

  9
$DIMBLK2
  1

  9
$DIMSTYLE
  2
STANDARD
  9
$DIMCLRD
 70
     0
  9
$DIMCLRE
 70
     0
  9
$DIMCLRT
 70
     1
  9
$DIMTFAC
 40
0.5
  9
$DIMGAP
 40
1.5
  9
$LUNITS
 70
     2
  9
$LUPREC
 70
     2
  9
$SKETCHINC
 40
1.0
  9
$FILLETRAD
 40
15.0
  9
$AUNITS
 70
     0
  9
$AUPREC
 70
     0
  9
$MENU
  1
ACAD
  9
$ELEVATION
 40
0.0
  9
$PELEVATION
 40
0.0
  9
$THICKNESS
 40
0.0
  9
$LIMCHECK
 70
     0
  9
$BLIPMODE
 70
     0
  9
$CHAMFERA
 40
2.0
  9
$CHAMFERB
 40
2.0
  9
$SKPOLY
 70
     0
  9
$TDCREATE
 40
2455397.8646990740671754
  9
$TDUPDATE
 40
2459627.343738425988704
  9
$TDINDWG
 40
0.2195063889
  9
$TDUSRTIMER
 40
0.2195063889
  9
$USRTIMER
 70
     1
  9
$ANGBASE
 50
0.0
  9
$ANGDIR
 70
     0
  9
$PDMODE
 70
     0
  9
$PDSIZE
 40
0.0
  9
$PLINEWID
 40
0.0
  9
$COORDS
 70
     1
  9
$SPLFRAME
 70
     0
  9
$SPLINETYPE
 70
     6
  9
$SPLINESEGS
 70
     8
  9
$ATTDIA
 70
     1
  9
$ATTREQ
 70
     1
  9
$HANDLING
 70
     1
  9
$HANDSEED
  5
207E
  9
$SURFTAB1
 70
     6
  9
$SURFTAB2
 70
     6
  9
$SURFTYPE
 70
     6
  9
$SURFU
 70
     6
  9
$SURFV
 70
     6
  9
$UCSNAME
  2

  9
$UCSORG
 10
0.0
 20
0.0
 30
0.0
  9
$UCSXDIR
 10
1.0
 20
0.0
 30
0.0
  9
$UCSYDIR
 10
0.0
 20
1.0
 30
0.0
  9
$PUCSNAME
  2

  9
$PUCSORG
 10
0.0
 20
0.0
 30
0.0
  9
$PUCSXDIR
 10
1.0
 20
0.0
 30
0.0
  9
$PUCSYDIR
 10
0.0
 20
1.0
 30
0.0
  9
$USERI1
 70
     0
  9
$USERI2
 70
     0
  9
$USERI3
 70
     0
  9
$USERI4
 70
     0
  9
$USERI5
 70
     0
  9
$USERR1
 40
0.0
  9
$USERR2
 40
0.0
  9
$USERR3
 40
0.0
  9
$USERR4
 40
0.0
  9
$USERR5
 40
0.0
  9
$WORLDVIEW
 70
     1
  9
$SHADEDGE
 70
     3
  9
$SHADEDIF
 70
    70
  9
$TILEMODE
 70
     1
  9
$MAXACTVP
 70
    16
  9
$PLIMCHECK
 70
     0
  9
$PEXTMIN
 10
1.0000000000000000E+20
 20
1.0000000000000000E+20
 30
1.0000000000000000E+20
  9
$PEXTMAX
 10
-1.0000000000000000E+20
 20
-1.0000000000000000E+20
 30
-1.0000000000000000E+20
  9
$PLIMMIN
 10
-0.0674642631973264
 20
-0.0511601294987543
  9
$PLIMMAX
 10
209.9325357368026914
 20
296.9488398705012742
  9
$UNITMODE
 70
     0
  9
$VISRETAIN
 70
     0
  9
$PLINEGEN
 70
     0
  9
$PSLTSCALE
 70
     0
  0
ENDSEC
  0
SECTION
  2
TABLES
  0
TABLE
  2
VPORT
 70
     1
  0
VPORT
  2
*ACTIVE
 70
     0
 10
0.0
 20
0.0
 11
1.0
 21
1.0
 12
1.3573653975425941
 22
-129.4835484747077885
 13
0.0
 23
0.0
 14
1.0
 24
1.0
 15
10.0
 25
10.0
 16
-0.0000000000001705
 26
0.0
 36
848.850268541736682
 17
264.4496088072601765
 27
-1.004527941820299
 37
-14.5312312429645694
 40
362.1910824438371037
 41
1.7852028639618129
 42
50.0
 43
0.0
 44
0.0
 50
0.0
 51
0.0
 71
     0
 72
  1500
 73
     1
 74
     0
 75
     0
 76
     0
 77
     0
 78
     0
  0
ENDTAB
  0
TABLE
  2
LTYPE
 70
     6
  0
LTYPE
  2
CONTINUOUS
 70
     0
  3
Solid line
 72
    65
 73
     0
 40
0.0
  0
LTYPE
  2
PHANTOM2
 70
     0
  3
Phantom (.5x) ___ _ _ ___ _ _ ___ _ _ ___ _ _
 72
    65
 73
     6
 40
1.25
 49
0.625
 49
-0.125
 49
0.125
 49
-0.125
 49
0.125
 49
-0.125
  0
LTYPE
  2
VERDECKT
 70
     0
  3
Verdeckt __ __ __ __ __ __ __ __ __ __ __ __ __
 72
    65
 73
     2
 40
0.375
 49
0.25
 49
-0.125
  0
ENDTAB
  0
TABLE
  2
LAYER
 70
    15
  0
LAYER
  2
0
 70
     0
 62
     7
  6
CONTINUOUS
  0
LAYER
  2
VOLL
 70
     0
 62
     1
  6
CONTINUOUS
  0
LAYER
  2
STEMPEL
 70
     0
 62
     3
  6
CONTINUOUS
  0
LAYER
  2
DEFPOINTS
 70
     0
 62
     7
  6
CONTINUOUS
  0
LAYER
  2
ADSK_ASSOC_ENTITY_BACKUPS
 70
     1
 62
    -7
  6
CONTINUOUS
  0
ENDTAB
  0
TABLE
  2
STYLE
 70
     4
  0
STYLE
  2
STANDARD
 70
     0
 40
0.0
 41
0.8
 50
0.0
 71
     0
 42
3.5
  3
simplex.shx
  4

  0
STYLE
  2
GREEKS
 70
     0
 40
0.0
 41
0.8
 50
0.0
 71
     0
 42
2.5
  3
SIMPLEX.shx
  4

  0
ENDTAB
  0
TABLE
  2
VIEW
 70
     1
  0
ENDTAB
  0
TABLE
  2
UCS
 70
     0
  0
ENDTAB
  0
TABLE
  2
APPID
 70
    24
  0
APPID
  2
ACAD
 70
     0
  0
APPID
  2
ACAD_NAV_VCDISPLAY
 70
     0
  0
APPID
  2
ACAD_MLEADERVER
 70
     0
  0
APPID
  2
ACAD_EXEMPT_FROM_CAD_STANDARDS
 70
     0
  0
APPID
  2
ACAD_PSEXT
 70
     0
  0
APPID
  2
ACAECLAYERSTANDARD
 70
     0
  0
APPID
  2
ACAUTHENVIRON
 70
     0
  0
APPID
  2
ACCMTRANSPARENCY
 70
     0
  0
APPID
  2
ACAD_STEPID
 70
     0
  0
APPID
  2
ACSYNERGY
 70
     0
  0
APPID
  2
SYNERGY_BODY_TBR_ID
 70
     0
  0
APPID
  2
ACAD_VIEW_EDGE_ID
 70
     0
  0
APPID
  2
ACSYNERGYSKETCH
 70
     0
  0
APPID
  2
ACAD_MODELDOC_XFORM
 70
     0
  0
APPID
  2
ACAD_DSTYLE_DIMJAG
 70
     0
  0
APPID
  2
ACAD_DSTYLE_DIMTALN
 70
     0
  0
APPID
  2
ACADANNOMONITORALERTICONDI
 70
     0
  0
APPID
  2
ACAD_DIMASSOC_CALC_DIMLFAC
 70
     0
  0
APPID
  2
ACAD_DIMASSOC_DIMLFAC
 70
     0
  0
APPID
  2
ACAD_DIMASSOC_OVERRIDDEN_D
 70
     0
  0
APPID
  2
ACAD_DSTYLE_DIMRADIAL_EXTENSION
 70
     0
  0
APPID
  2
GRADIENTCOLOR1ACI
 70
     0
  0
APPID
  2
GRADIENTCOLOR2ACI
 70
     0
  0
APPID
  2
AcDbAttr
 70
     0
  0
ENDTAB
  0
TABLE
  2
DIMSTYLE
 70
     2
  0
DIMSTYLE
  2
STANDARD
 70
     0
  3

  4

  5

  6

  7

 40
1.0
 41
0.18
 42
0.0625
 43
0.38
 44
0.18
 45
0.0
 46
0.0
 47
0.0
 48
0.0
140
0.18
141
0.09
142
0.0
143
25.3999999999999986
144
1.0
145
0.0
146
1.0
147
0.09
 71
     0
 72
     0
 73
     1
 74
     1
 75
     0
 76
     0
 77
     0
 78
     0
170
     0
171
     2
172
     0
173
     0
174
     0
175
     0
176
     0
177
     0
178
     0
  0
ENDTAB
  0
ENDSEC
  0
SECTION
  2
BLOCKS
  0
BLOCK
  8
0
  2
$MODEL_SPACE
 70
     0
 10
0.0
 20
0.0
 30
0.0
  3
$MODEL_SPACE
  1

  0
ENDBLK
  5
36
  8
0
  0
BLOCK
 67
     1
  8
0
  2
$PAPER_SPACE
 70
     0
 10
0.0
 20
0.0
 30
0.0
  3
$PAPER_SPACE
  1

  0
ENDBLK
  5
34
 67
     1
  8
0
  0
BLOCK
  8
0
  2
*S2
 70
     1
 10
0.0
 20
0.0
 30
0.0
  3
*S2
  1

  0
ENDBLK
  5
B3A
  8
0
  0
BLOCK
  8
0
  2
A$C72209E97
 70
     0
 10
0.0
 20
0.0
 30
0.0
  3
A$C72209E97
  1

  0
CIRCLE
  5
1FDE
  8
0
 10
129.7973054191288043
 20
97.1939330370280317
 30
0.0000000000000284
 40
46.0
  0
CIRCLE
  5
1FDF
  8
0
 10
129.7973054191288043
 20
97.1939330370280317
 30
0.0000000000000284
 40
51.0000000000000071
  0
CIRCLE
  5
1FE0
  8
0
 10
129.7973054191288043
 20
97.1939330370280317
 30
0.0000000000000284
 40
43.0000000000000213
  0
CIRCLE
  5
1FE1
  8
0
 10
129.7973054191288043
 20
97.1939330370280317
 30
0.0000000000000284
 40
47.6550668784437903
  0
CIRCLE
  5
1FE2
  8
0
 10
129.7973054191288043
 20
97.1939330370280317
 30
0.0000000000000284
 40
51.0006890719363426
  0
CIRCLE
  5
1FE3
  8
0
 10
129.7973054191286053
 20
97.1939330370280459
 30
0.0000000000000284
 40
57.1499999999998565
  0
CIRCLE
  5
1FE4
  8
0
  6
VERDECKT
 62
     1
 10
129.7973054191288043
 20
97.1939330370280317
 30
0.0000000000000284
 40
47.5000000000001279
  0
CIRCLE
  5
1FE5
  8
0
  6
VERDECKT
 62
     1
 10
129.7973054191288043
 20
97.1939330370280317
 30
0.0000000000000284
 40
44.4999999999999076
  0
CIRCLE
  5
1FE6
  8
0
  6
VERDECKT
 62
     1
 10
129.7973054191288043
 20
97.1939330370280317
 30
0.0000000000000284
 40
49.5000059675378523
  0
CIRCLE
  5
1FE7
  8
0
  6
VERDECKT
 62
     1
 10
129.7973054191288043
 20
97.1939330370280317
 30
0.0000000000000284
 40
49.5000000000000071
  0
CIRCLE
  5
1FE8
  8
0
  6
VERDECKT
 62
     1
 10
129.7973054191286053
 20
97.1939330370280459
 30
0.0000000000000284
 40
49.8993168184099432
  0
CIRCLE
  5
1FE9
  8
0
  6
VERDECKT
 62
     1
 10
129.7973054191286053
 20
97.1939330370280459
 30
0.0000000000000284
 40
48.589999999999911
  0
CIRCLE
  5
1FEA
  8
0
  6
VERDECKT
 62
     1
 10
129.7973054191288043
 20
97.1939330370280317
 30
0.0000000000000284
 40
49.5006314725692533
  0
CIRCLE
  5
1FEB
  8
0
  6
VERDECKT
 62
     1
 10
129.7973054191286053
 20
97.1939330370280459
 30
0.0000000000000284
 40
48.589999999999911
  0
ENDBLK
  5
1FED
  8
0
  0
BLOCK
  8
0
  2
A$CDFC29C9A
 70
     0
 10
0.0
 20
0.0
 30
0.0
  3
A$CDFC29C9A
  1

  0
LINE
  5
1FF1
  8
0
 10
82.1422385406850708
 20
-50.0350682550879498
 30
0.0000000000000111
 11
177.4523722975725946
 21
-50.0350682550879498
 31
0.0000000000000111
210
0.0
220
1.0
230
-0.0000000000000002
  0
LINE
  5
1FF2
  8
0
 10
79.8979886007186906
 20
-159.3031601535965933
 30
0.0000000000000354
 11
179.6966222375384916
 21
-159.3031601535965933
 31
0.0000000000000354
210
0.0
220
1.0
230
-0.0000000000000002
  0
ARC
  5
1FF3
  8
0
 10
-103.2973054191370039
 20
-62.6398197176608917
 30
0.0
 40
24.5000000000082316
210
0.0
220
-0.0000000000000002
230
-1.0
 50
0.0000030707535245
 51
24.9999999999961595
  0
ARC
  5
1FF4
  8
0
 10
-156.2973054191207041
 20
-62.6398197176608988
 30
0.0
 40
24.500000000008221
210
0.0
220
-0.0000000000000002
230
-1.0
 50
155.0000000000038085
 51
179.9999969292464073
  0
LINE
  5
1FF5
  8
0
 10
180.7973056056144117
 20
-62.6398184045892918
 30
0.0000000000000139
 11
180.7973056056144117
 21
-69.5989163168703868
 31
0.0000000000000155
210
0.0
220
1.0
230
-0.0000000000000002
  0
LINE
  5
1FF6
  8
0
 10
78.797305232643339
 20
-62.6398184045892776
 30
0.0000000000000139
 11
78.797305232643339
 21
-69.5989163168703726
 31
0.0000000000000155
210
0.0
220
1.0
230
-0.0000000000000002
  0
ARC
  5
1FF7
  8
0
 10
-103.1748317580330934
 20
-69.7821594044502689
 30
0.0
 40
24.3782154108405393
210
0.0
220
-0.0000000000000002
230
-1.0
 50
334.6934158549909739
 51
0.4306777274555154
  0
ARC
  5
1FF8
  8
0
 10
-156.4197790802246004
 20
-69.7821594044502831
 30
0.0
 40
24.3782154108405287
210
0.0
220
-0.0000000000000002
230
-1.0
 50
179.5693222725444116
 51
205.3065841450089124
  0
ARC
  5
1FF9
  8
0
 10
-70.1973054191307142
 20
-85.3752013182829046
 30
0.0
 40
12.0999999999980208
210
0.0
220
-0.0000000000000002
230
-1.0
 50
154.6934158549908886
 51
180.0000000000005969
  0
ARC
  5
1FFA
  8
0
 10
-189.3973054191276049
 20
-85.3752013182830751
 30
0.0
 40
12.0999999999986798
210
0.0
220
-0.0000000000000002
230
-1.0
 50
360.0
 51
25.3065841450083902
  0
LINE
  5
1FFB
  8
0
 10
177.2973054191290032
 20
-85.3752013182830751
 30
0.000000000000019
 11
177.2973054191290032
 21
-104.6463418376712013
 31
0.0000000000000232
210
0.0
220
1.0
230
-0.0000000000000002
  0
LINE
  5
1FFC
  8
0
 10
82.2973054191287474
 20
-85.3752013182830751
 30
0.000000000000019
 11
82.2973054191287474
 21
-104.6463418376712013
 31
0.0000000000000232
210
0.0
220
1.0
230
-0.0000000000000002
  0
ARC
  5
1FFD
  8
0
 10
-94.1973054191260246
 20
-104.6463418376717982
 30
0.0
 40
11.8999999999973092
210
0.0
220
-0.0000000000000002
230
-1.0
 50
328.1297797402251035
 51
0.0000000000030152
  0
ARC
  5
1FFE
  8
0
 10
-165.3973054191316123
 20
-104.6463418376717982
 30
0.0
 40
11.8999999999973909
210
0.0
220
-0.0000000000000002
230
-1.0
 50
179.9999999999969873
 51
211.8702202597748112
  0
ARC
  5
1FFF
  8
0
 10
-77.2973054191280653
 20
-115.1534822669223956
 30
0.0
 40
8.0000000000007727
210
0.0
220
-0.0000000000000002
230
-1.0
 50
148.1297797402278036
 51
179.9999999999978968
  0
ARC
  5
2000
  8
0
 10
-182.2973054191297138
 20
-115.1534822669224951
 30
0.0
 40
8.0000000000008242
210
0.0
220
-0.0000000000000002
230
-1.0
 50
0.0000000000021373
 51
31.8702202597718411
  0
LINE
  5
2001
  8
0
 10
177.4523722975725946
 20
-50.0350682550879498
 30
0.0000000000000111
 11
178.5018462015266891
 21
-52.2856723050117722
 31
0.0000000000000116
210
0.0
220
1.0
230
-0.0000000000000002
  0
LINE
  5
2002
  8
0
 10
82.1422385406850708
 20
-50.0350682550879284
 30
0.0000000000000111
 11
81.0927646367309762
 21
-52.285672305011758
 31
0.0000000000000116
210
0.0
220
1.0
230
-0.0000000000000002
  0
LINE
  5
2003
  8
0
 10
81.2073054191287014
 20
-160.0350682550879071
 30
0.0000000000000355
 11
79.8979886007186764
 21
-159.3031601535965933
 31
0.0000000000000354
210
0.0
220
1.0
230
-0.0000000000000002
  0
LINE
  5
2004
  8
0
 10
178.387305419128495
 20
-160.0350682550879071
 30
0.0000000000000355
 11
179.6966222375384916
 21
-159.3031601535965933
 31
0.0000000000000354
210
0.0
220
1.0
230
-0.0000000000000002
  0
LINE
  5
2005
  8
0
 10
174.2973054191286053
 20
-115.1534822669220972
 30
0.0000000000000256
 11
174.2973054191286053
 21
-147.5600441073657976
 31
0.0000000000000328
210
0.0
220
1.0
230
-0.0000000000000002
  0
LINE
  5
2006
  8
0
 10
85.2973054191286337
 20
-115.1534822669220972
 30
0.0000000000000256
 11
85.2973054191286337
 21
-147.5600441073657976
 31
0.0000000000000328
210
0.0
220
1.0
230
-0.0000000000000002
  0
ARC
  5
2007
  8
0
 10
-77.2973054191271984
 20
-147.5600441073653997
 30
0.0
 40
8.0000000000014495
210
0.0
220
-0.0000000000000002
230
-1.0
 50
180.0000000000030127
 51
209.2051903708189116
  0
ARC
  5
2008
  8
0
 10
-182.2973054191301969
 20
-147.5600441073653997
 30
0.0
 40
8.0000000000016165
210
0.0
220
-0.0000000000000002
230
-1.0
 50
330.7948096291817137
 51
359.9999999999968736
  0
LINE
  5
2009
  8
0
 10
175.3142823876081877
 20
-151.4635539819855978
 30
0.0000000000000336
 11
179.6966222375386053
 21
-159.3031601535965933
 31
0.0000000000000354
210
0.0
220
1.0
230
-0.0000000000000002
  0
LINE
  5
200A
  8
0
 10
84.2803284506490655
 20
-151.4635539819855978
 30
0.0000000000000336
 11
79.8979886007186337
 21
-159.3031601535965933
 31
0.0000000000000354
210
0.0
220
1.0
230
-0.0000000000000002
  0
LINE
  5
200B
  8
0
 10
186.9473054191284973
 20
-260.0350682550878787
 30
0.0000000000000577
 11
72.6473054191287702
 21
-260.0350682550878787
 31
0.0000000000000577
210
0.0
220
1.0
230
-0.0000000000000002
  0
LINE
  5
200C
  8
0
 10
186.9473054191284973
 20
-160.0350682550877934
 30
0.0000000000000355
 11
72.6473054191287702
 21
-160.0350682550877934
 31
0.0000000000000355
210
0.0
220
1.0
230
-0.0000000000000002
  0
LINE
  5
200D
  8
0
 10
72.6473054191287702
 20
-260.0350682550878787
 30
0.0000000000000577
 11
72.6473054191287702
 21
-160.0350682550877934
 31
0.0000000000000355
210
0.0
220
1.0
230
-0.0000000000000002
  0
LINE
  5
200E
  8
0
 10
186.9473054191284973
 20
-260.0350682550878787
 30
0.0000000000000577
 11
186.9473054191284973
 21
-160.0350682550877934
 31
0.0000000000000355
210
0.0
220
1.0
230
-0.0000000000000002
  0
ARC
  5
200F
  8
0
  6
VERDECKT
 62
     1
 10
-74.176945751723153
 20
-47.0039803081698295
 30
0.0
 40
9.9999999999727116
210
0.0
220
-0.0000000000000002
230
-1.0
 50
204.9999999999998863
 51
207.870127047886001
  0
ARC
  5
2010
  8
0
  6
VERDECKT
 62
     1
 10
-185.4176650865306044
 20
-47.0039803081718688
 30
0.0
 40
9.9999999999682725
210
0.0
220
-0.0000000000000002
230
-1.0
 50
332.1298729521136011
 51
335.0000000000010232
  0
LINE
  5
2011
  8
0
  6
VERDECKT
 62
     1
 10
175.7973054191288043
 20
-50.0350682550879498
 30
0.0000000000000111
 11
176.3545872161928116
 21
-51.2301629255653026
 31
0.0000000000000114
210
0.0
220
1.0
230
-0.0000000000000002
  0
LINE
  5
2012
  8
0
  6
VERDECKT
 62
     1
 10
83.7973054191288611
 20
-50.0350682550879284
 30
0.0000000000000111
 11
83.240023622064939
 21
-51.2301629255652884
 31
0.0000000000000114
210
0.0
220
1.0
230
-0.0000000000000002
  0
ARC
  5
2013
  8
0
  6
VERDECKT
 62
     1
 10
-77.2973054191292164
 20
-115.1534822669219977
 30
0.0
 40
9.4999999999996181
210
0.0
220
-0.0000000000000002
230
-1.0
 50
148.1297797402282868
 51
180.0000000000007105
  0
ARC
  5
2014
  8
0
  6
VERDECKT
 62
     1
 10
-182.2973054191286053
 20
-115.1534822669220972
 30
0.0
 40
9.4999999999997158
210
0.0
220
-0.0000000000000002
230
-1.0
 50
0.0
 51
31.8702202597720294
  0
ARC
  5
2015
  8
0
  6
VERDECKT
 62
     1
 10
-94.1973054191308847
 20
-104.6463418376704055
 30
0.0
 40
10.4000000000021693
210
0.0
220
-0.0000000000000002
230
-1.0
 50
328.12977974023039
 51
359.9999999999964189
  0
ARC
  5
2016
  8
0
  6
VERDECKT
 62
     1
 10
-165.3973054191270933
 20
-104.646341837670505
 30
0.0
 40
10.4000000000019099
210
0.0
220
-0.0000000000000002
230
-1.0
 50
180.000000000003098
 51
211.8702202597698943
  0
LINE
  5
2017
  8
0
  6
VERDECKT
 62
     1
 10
175.7973054191288895
 20
-85.3752013182830751
 30
0.000000000000019
 11
175.7973054191288895
 21
-104.6463418376711019
 31
0.0000000000000232
210
0.0
220
1.0
230
-0.0000000000000002
  0
LINE
  5
2018
  8
0
  6
VERDECKT
 62
     1
 10
83.7973054191287474
 20
-85.3752013182830751
 30
0.000000000000019
 11
83.7973054191287474
 21
-104.6463418376710024
 31
0.0000000000000232
210
0.0
220
1.0
230
-0.0000000000000002
  0
ARC
  5
2019
  8
0
  6
VERDECKT
 62
     1
 10
-70.1973054191271757
 20
-85.375201318283473
 30
0.0
 40
13.6000000000015504
210
0.0
220
-0.0000000000000002
230
-1.0
 50
154.7092129457172973
 51
179.9999999999982947
  0
ARC
  5
201A
  8
0
  6
VERDECKT
 62
     1
 10
-189.3973054191309018
 20
-85.3752013182836009
 30
0.0
 40
13.6000000000019803
210
0.0
220
-0.0000000000000002
230
-1.0
 50
0.0000000000021628
 51
25.2907870542822906
  0
ARC
  5
201B
  8
0
  6
VERDECKT
 62
     1
 10
-103.2191291039387977
 20
-69.7723524998111344
 30
0.0
 40
22.9224551573791508
210
0.0
220
-0.0000000000000002
230
-1.0
 50
334.7092129457149099
 51
0.4232758160045825
  0
ARC
  5
201C
  8
0
  6
VERDECKT
 62
     1
 10
-156.3754817343194929
 20
-69.7723524998112765
 30
0.0
 40
22.9224551573786215
210
0.0
220
-0.0000000000000002
230
-1.0
 50
179.5767241839951112
 51
205.2907870542854027
  0
LINE
  5
201D
  8
0
  6
VERDECKT
 62
     1
 10
179.2973084028978121
 20
-62.6398197176589733
 30
0.0000000000000139
 11
179.2973084028978121
 21
-69.603013104481434
 31
0.0000000000000155
210
0.0
220
1.0
230
-0.0000000000000002
  0
LINE
  5
201E
  8
0
  6
VERDECKT
 62
     1
 10
80.2973024353599243
 20
-62.639819717658952
 30
0.0000000000000139
 11
80.2973024353599243
 21
-69.6030131044814198
 31
0.0000000000000155
210
0.0
220
1.0
230
-0.0000000000000002
  0
ARC
  5
201F
  8
0
  6
VERDECKT
 62
     1
 10
-103.7452141568710999
 20
-62.6398398127898091
 30
0.0
 40
23.4479087377508506
210
0.0
220
-0.0000000000000002
230
-1.0
 50
0.000049103150302
 51
27.8701270478823311
  0
ARC
  5
2020
  8
0
  6
VERDECKT
 62
     1
 10
-155.8493966813865939
 20
-62.6398398127898304
 30
0.0
 40
23.447908737750879
210
0.0
220
-0.0000000000000002
230
-1.0
 50
152.1298729521176085
 51
179.9999508968496968
  0
LINE
  5
2021
  8
0
  6
VERDECKT
 62
     1
 10
174.0049655691979922
 20
-152.1954620834769116
 30
0.0000000000000338
 11
178.387305419128495
 21
-160.0350682550877934
 31
0.0000000000000355
210
0.0
220
1.0
230
-0.0000000000000002
  0
LINE
  5
2022
  8
0
  6
VERDECKT
 62
     1
 10
85.5896452690592469
 20
-152.1954620834769116
 30
0.0000000000000338
 11
81.2073054191287156
 21
-160.0350682550877934
 31
0.0000000000000355
210
0.0
220
1.0
230
-0.0000000000000002
  0
ARC
  5
2023
  8
0
  6
VERDECKT
 62
     1
 10
-77.2973054191292732
 20
-147.5600441073661102
 30
0.0
 40
9.4999999999993605
210
0.0
220
-0.0000000000000002
230
-1.0
 50
179.9999999999984084
 51
209.2051903708218106
  0
ARC
  5
2024
  8
0
  6
VERDECKT
 62
     1
 10
-182.2973054191276105
 20
-147.5600441073661955
 30
0.0
 40
9.4999999999989431
210
0.0
220
-0.0000000000000002
230
-1.0
 50
330.794809629177621
 51
0.0000000000022264
  0
LINE
  5
2025
  8
0
  6
VERDECKT
 62
     1
 10
172.7973054191286053
 20
-115.1534822669220972
 30
0.0000000000000256
 11
172.7973054191286053
 21
-147.5600441073657976
 31
0.0000000000000328
210
0.0
220
1.0
230
-0.0000000000000002
  0
LINE
  5
2026
  8
0
  6
VERDECKT
 62
     1
 10
86.7973054191286337
 20
-115.1534822669220972
 30
0.0000000000000256
 11
86.7973054191286337
 21
-147.5600441073657976
 31
0.0000000000000328
210
0.0
220
1.0
230
-0.0000000000000002
  0
LINE
  5
2027
  8
0
  6
VERDECKT
 62
     1
 10
81.2073054191287156
 20
-260.0350682550878787
 30
0.0000000000000577
 11
81.2073054191287156
 21
-160.0350682550877934
 31
0.0000000000000355
210
0.0
220
1.0
230
-0.0000000000000002
  0
LINE
  5
2028
  8
0
  6
VERDECKT
 62
     1
 10
178.387305419128495
 20
-260.0350682550878787
 30
0.0000000000000577
 11
178.387305419128495
 21
-160.0350682550877934
 31
0.0000000000000355
210
0.0
220
1.0
230
-0.0000000000000002
  0
ENDBLK
  5
202A
  8
0
  0
ENDSEC
  0
SECTION
  2
ENTITIES
  0
TEXT
  5
8F
  8
VOLL
 10
78.076754716981128
 20
31.025947764705851
 30
0.0
 40
1.8
  1

  7
GREEKS
  0
INSERT
  5
B3C
  8
ADSK_ASSOC_ENTITY_BACKUPS
  2
*S2
 10
0.0
 20
0.0
 30
0.0
  0
INSERT
  5
1FEE
  8
STEMPEL
  2
A$C72209E97
 10
136.0096687856741937
 20
-350.3416651756742795
 30
-29.06246248592916
  0
INSERT
  5
202B
  8
STEMPEL
  2
A$CDFC29C9A
 10
136.0096687856741937
 20
99.3566475606777431
 30
-29.0624624859291885
  0
VIEWPORT
  5
928
 67
     1
  8
0
 10
104.9325357368027056
 20
148.4488398705011889
 30
0.0
 40
533.9969448798291296
 41
299.1239570917758783
 68
     1
 69
     1
1001
ACAD
1000
MVIEW
1002
{
1070
    16
1010
0.0
1020
0.0
1030
0.0
1010
0.0
1020
0.0
1030
1.0
1040
0.0
1040
299.1239570917758783
1040
104.9325357368027056
1040
148.4488398705011889
1040
50.0
1040
0.0
1040
0.0
1070
     0
1070
  1500
1070
     1
1070
     1
1070
     0
1070
     0
1070
     0
1070
     0
1040
0.0
1040
0.0
1040
0.0
1040
10.0
1040
10.0
1040
10.0
1040
10.0
1070
     0
1002
{
1002
}
1002
}
  0
ENDSEC
  0
EOF
