  0
SECTION
  2
HEADER
  9
$ACADVER
  1
AC1009
  9
$INSBASE
 10
0.0
 20
0.0
 30
0.0
  9
$EXTMIN
 10
-88.8999999999999773
 20
-277.8000000000000114
 30
-0.0000000000000608
  9
$EXTMAX
 10
88.9000000000000341
 20
262.0
 30
0.0
  9
$LIMMIN
 10
0.0
 20
0.0
  9
$LIMMAX
 10
419.9999999999998863
 20
594.0
  9
$ORTHOMODE
 70
     1
  9
$REGENMODE
 70
     1
  9
$FILLMODE
 70
     1
  9
$QTEXTMODE
 70
     0
  9
$MIRRTEXT
 70
     1
  9
$DRAGMODE
 70
     2
  9
$LTSCALE
 40
20.0
  9
$OSMODE
 70
  2559
  9
$ATTMODE
 70
     1
  9
$TEXTSIZE
 40
3.5
  9
$TRACEWID
 40
0.5
  9
$TEXTSTYLE
  7
STANDARD
  9
$CLAYER
  8
STEMPEL
  9
$CELTYPE
  6
BYLAYER
  9
$CECOLOR
 62
   256
  9
$DIMSCALE
 40
1.0
  9
$DIMASZ
 40
3.5
  9
$DIMEXO
 40
1.0
  9
$DIMDLI
 40
7.0
  9
$DIMRND
 40
0.0
  9
$DIMDLE
 40
0.0
  9
$DIMEXE
 40
1.0
  9
$DIMTP
 40
0.0
  9
$DIMTM
 40
0.0
  9
$DIMTXT
 40
3.5
  9
$DIMCEN
 40
1.5
  9
$DIMTSZ
 40
0.0
  9
$DIMTOL
 70
     0
  9
$DIMLIM
 70
     0
  9
$DIMTIH
 70
     0
  9
$DIMTOH
 70
     0
  9
$DIMSE1
 70
     0
  9
$DIMSE2
 70
     0
  9
$DIMTAD
 70
     1
  9
$DIMZIN
 70
     8
  9
$DIMBLK
  1

  9
$DIMASO
 70
     1
  9
$DIMSHO
 70
     0
  9
$DIMPOST
  1

  9
$DIMAPOST
  1

  9
$DIMALT
 70
     0
  9
$DIMALTD
 70
     2
  9
$DIMALTF
 40
25.3999999999999986
  9
$DIMLFAC
 40
1.0
  9
$DIMTOFL
 70
     1
  9
$DIMTVP
 40
0.0
  9
$DIMTIX
 70
     0
  9
$DIMSOXD
 70
     0
  9
$DIMSAH
 70
     0
  9
$DIMBLK1
  1

  9
$DIMBLK2
  1

  9
$DIMSTYLE
  2
STANDARD
  9
$DIMCLRD
 70
     0
  9
$DIMCLRE
 70
     0
  9
$DIMCLRT
 70
     1
  9
$DIMTFAC
 40
0.5142857142857143
  9
$DIMGAP
 40
1.5
  9
$LUNITS
 70
     2
  9
$LUPREC
 70
     2
  9
$SKETCHINC
 40
1.0
  9
$FILLETRAD
 40
10.0
  9
$AUNITS
 70
     0
  9
$AUPREC
 70
     0
  9
$MENU
  1
ACAD
  9
$ELEVATION
 40
0.0
  9
$PELEVATION
 40
0.0
  9
$THICKNESS
 40
0.0
  9
$LIMCHECK
 70
     0
  9
$BLIPMODE
 70
     0
  9
$CHAMFERA
 40
0.0
  9
$CHAMFERB
 40
0.0
  9
$SKPOLY
 70
     0
  9
$TDCREATE
 40
2455397.8646990740671754
  9
$TDUPDATE
 40
2458382.5887384261004627
  9
$TDINDWG
 40
0.55755875
  9
$TDUSRTIMER
 40
0.55755875
  9
$USRTIMER
 70
     1
  9
$ANGBASE
 50
0.0
  9
$ANGDIR
 70
     0
  9
$PDMODE
 70
     0
  9
$PDSIZE
 40
0.0
  9
$PLINEWID
 40
0.0
  9
$COORDS
 70
     1
  9
$SPLFRAME
 70
     0
  9
$SPLINETYPE
 70
     6
  9
$SPLINESEGS
 70
     8
  9
$ATTDIA
 70
     1
  9
$ATTREQ
 70
     1
  9
$HANDLING
 70
     1
  9
$HANDSEED
  5
3A86
  9
$SURFTAB1
 70
     6
  9
$SURFTAB2
 70
     6
  9
$SURFTYPE
 70
     6
  9
$SURFU
 70
     6
  9
$SURFV
 70
     6
  9
$UCSNAME
  2

  9
$UCSORG
 10
0.0
 20
0.0
 30
0.0
  9
$UCSXDIR
 10
1.0
 20
0.0
 30
0.0
  9
$UCSYDIR
 10
0.0
 20
1.0
 30
0.0
  9
$PUCSNAME
  2

  9
$PUCSORG
 10
0.0
 20
0.0
 30
0.0
  9
$PUCSXDIR
 10
1.0
 20
0.0
 30
0.0
  9
$PUCSYDIR
 10
0.0
 20
1.0
 30
0.0
  9
$USERI1
 70
     0
  9
$USERI2
 70
     0
  9
$USERI3
 70
     0
  9
$USERI4
 70
     0
  9
$USERI5
 70
     0
  9
$USERR1
 40
0.0
  9
$USERR2
 40
0.0
  9
$USERR3
 40
0.0
  9
$USERR4
 40
0.0
  9
$USERR5
 40
0.0
  9
$WORLDVIEW
 70
     1
  9
$SHADEDGE
 70
     3
  9
$SHADEDIF
 70
    70
  9
$TILEMODE
 70
     1
  9
$MAXACTVP
 70
    16
  9
$PLIMCHECK
 70
     0
  9
$PEXTMIN
 10
1.0000000000000000E+20
 20
1.0000000000000000E+20
 30
1.0000000000000000E+20
  9
$PEXTMAX
 10
-1.0000000000000000E+20
 20
-1.0000000000000000E+20
 30
-1.0000000000000000E+20
  9
$PLIMMIN
 10
-5.027082920074462
 20
-6.4382776093749987
  9
$PLIMMAX
 10
204.9462447166442871
 20
290.4877172636719251
  9
$UNITMODE
 70
     0
  9
$VISRETAIN
 70
     0
  9
$PLINEGEN
 70
     0
  9
$PSLTSCALE
 70
     0
  0
ENDSEC
  0
SECTION
  2
TABLES
  0
TABLE
  2
VPORT
 70
     1
  0
VPORT
  2
*ACTIVE
 70
     0
 10
0.0
 20
0.0
 11
1.0
 21
1.0
 12
0.0000000000000568
 22
-94.4531005859374204
 13
0.0
 23
0.0
 14
1.0
 24
1.0
 15
10.0
 25
10.0
 16
-0.000000000000233
 26
0.0
 36
1049.168506859459967
 17
0.0
 27
86.5531005859375
 37
-0.0000000000000291
 40
542.5517417162277525
 41
1.868197278911564
 42
50.0
 43
0.0
 44
0.0
 50
0.0
 51
0.0
 71
     0
 72
  1500
 73
     1
 74
     0
 75
     0
 76
     0
 77
     0
 78
     0
  0
ENDTAB
  0
TABLE
  2
LTYPE
 70
     7
  0
LTYPE
  2
CONTINUOUS
 70
     0
  3
Solid line
 72
    65
 73
     0
 40
0.0
  0
LTYPE
  2
PHANTOM2
 70
     0
  3
Phantom (.5x) ___ _ _ ___ _ _ ___ _ _ ___ _ _
 72
    65
 73
     6
 40
1.25
 49
0.625
 49
-0.125
 49
0.125
 49
-0.125
 49
0.125
 49
-0.125
  0
LTYPE
  2
AUSGEZOGEN
 70
     0
  3
Ausgezogene Linie
 72
    65
 73
     0
 40
0.0
  0
LTYPE
  2
VERDECKT
 70
     0
  3
_ _ _ _ _ _ _ _ _ _ _ _ _ _ _ _ _ _ _ _ _ _ _
 72
    65
 73
     2
 40
0.375
 49
0.25
 49
-0.125
  0
ENDTAB
  0
TABLE
  2
LAYER
 70
    17
  0
LAYER
  2
0
 70
     0
 62
     7
  6
CONTINUOUS
  0
LAYER
  2
VOLL
 70
     0
 62
     1
  6
CONTINUOUS
  0
LAYER
  2
STEMPEL
 70
     0
 62
     3
  6
CONTINUOUS
  0
LAYER
  2
DEFPOINTS
 70
     0
 62
     7
  6
CONTINUOUS
  0
LAYER
  2
ADSK_ASSOC_ENTITY_BACKUPS
 70
     1
 62
    -7
  6
CONTINUOUS
  0
ENDTAB
  0
TABLE
  2
STYLE
 70
     2
  0
STYLE
  2
STANDARD
 70
     0
 40
0.0
 41
0.8
 50
0.0
 71
     0
 42
3.5
  3
simplex.shx
  4

  0
STYLE
  2
GREEKS
 70
     0
 40
0.0
 41
0.8
 50
0.0
 71
     0
 42
2.5
  3
SIMPLEX.shx
  4

  0
ENDTAB
  0
TABLE
  2
VIEW
 70
     2
  0
ENDTAB
  0
TABLE
  2
UCS
 70
     0
  0
ENDTAB
  0
TABLE
  2
APPID
 70
    34
  0
APPID
  2
ACAD
 70
     0
  0
APPID
  2
ACAD_EXEMPT_FROM_CAD_STANDARDS
 70
     0
  0
APPID
  2
ACAD_NAV_VCDISPLAY
 70
     0
  0
APPID
  2
ACAECLAYERSTANDARD
 70
     0
  0
APPID
  2
ACCMTRANSPARENCY
 70
     0
  0
APPID
  2
ACAD_PSEXT
 70
     0
  0
APPID
  2
GRADIENTCOLOR1ACI
 70
     0
  0
APPID
  2
GRADIENTCOLOR2ACI
 70
     0
  0
APPID
  2
ACAD_MLEADERVER
 70
     0
  0
APPID
  2
ACAD_OBJECT_CHANGE_GUID
 70
     0
  0
APPID
  2
MCAD_NO_VIS
 70
     0
  0
APPID
  2
ACAD_TEMP_GRAPHIC
 70
     0
  0
APPID
  2
ACATTRIBSERVICES
 70
     0
  0
APPID
  2
DESIGNERASSEMBLIES
 70
     0
  0
APPID
  2
ACAD_DSTYLE_DIMJAG
 70
     0
  0
APPID
  2
ACAD_DSTYLE_DIMBREAK
 70
     0
  0
APPID
  2
GENIUS_GENSCREG_15
 70
     0
  0
APPID
  2
GENIUS_GENOBJ-N-SDF_13
 70
     0
  0
APPID
  2
GENIUS_GENODEF_13
 70
     0
  0
APPID
  2
RAK
 70
     0
  0
APPID
  2
ACAUTHENVIRON
 70
     0
  0
APPID
  2
ACDBDYNAMICBLOCKTRUENAME
 70
     0
  0
APPID
  2
ACDBDYNAMICBLOCKGUID
 70
     0
  0
APPID
  2
ACSYNERGY
 70
     0
  0
APPID
  2
SYNERGY_BODY_TBR_ID
 70
     0
  0
APPID
  2
ACAD_VIEW_EDGE_ID
 70
     0
  0
APPID
  2
ACSYNERGYSKETCH
 70
     0
  0
APPID
  2
ACAD_STEPID
 70
     0
  0
APPID
  2
ACAD_MODELDOC_XFORM
 70
     0
  0
APPID
  2
GENIUS_GENDTOL_13
 70
     0
  0
APPID
  2
ACAD_DSTYLE_DIMINSPECT
 70
     0
  0
APPID
  2
ACADANNOMONITORALERTICONDI
 70
     0
  0
APPID
  2
GENIUS_GENDIMSH_14
 70
     0
  0
APPID
  2
ACDBATTR
 70
     0
  0
ENDTAB
  0
TABLE
  2
DIMSTYLE
 70
     2
  0
DIMSTYLE
  2
STANDARD
 70
     0
  3

  4

  5

  6

  7

 40
1.0
 41
0.18
 42
0.0625
 43
0.38
 44
0.18
 45
0.0
 46
0.0
 47
0.0
 48
0.0
140
0.18
141
0.09
142
0.0
143
25.3999999999999986
144
1.0
145
0.0
146
1.0
147
0.09
 71
     0
 72
     0
 73
     1
 74
     1
 75
     0
 76
     0
 77
     0
 78
     0
170
     0
171
     2
172
     0
173
     0
174
     0
175
     0
176
     0
177
     0
178
     0
  0
ENDTAB
  0
ENDSEC
  0
SECTION
  2
BLOCKS
  0
BLOCK
  8
0
  2
$MODEL_SPACE
 70
     0
 10
0.0
 20
0.0
 30
0.0
  3
$MODEL_SPACE
  1

  0
ENDBLK
  5
36
  8
0
  0
BLOCK
 67
     1
  8
0
  2
$PAPER_SPACE
 70
     0
 10
0.0
 20
0.0
 30
0.0
  3
$PAPER_SPACE
  1

  0
ENDBLK
  5
34
 67
     1
  8
0
  0
BLOCK
  8
0
  2
*S0
 70
     1
 10
0.0
 20
0.0
 30
0.0
  3
*S0
  1

  0
ENDBLK
  5
FA2
  8
0
  0
BLOCK
  8
0
  2
A$C5F592AD0
 70
     0
 10
0.0
 20
0.0
 30
0.0
  3
A$C5F592AD0
  1

  0
CIRCLE
  5
39E7
  8
0
  6
CONTINUOUS
 62
     3
 10
0.0000000000000533
 20
0.0
 30
0.0
 40
88.8999999999999773
  0
CIRCLE
  5
39E8
  8
0
  6
CONTINUOUS
 62
     3
 10
0.0000000000000533
 20
0.0
 30
0.0
 40
76.3999999999999631
  0
CIRCLE
  5
39E9
  8
0
  6
CONTINUOUS
 62
     3
 10
0.0
 20
0.0
 30
0.0
 40
62.687670047111169
  0
CIRCLE
  5
39EA
  8
0
  6
CONTINUOUS
 62
     3
 10
0.0000000000000552
 20
0.0
 30
0.0
 40
76.0
  0
CIRCLE
  5
39EB
  8
0
  6
CONTINUOUS
 62
     3
 10
0.0000000000000582
 20
0.0
 30
0.0
 40
72.7584447974063551
  0
CIRCLE
  5
39EC
  8
0
  6
CONTINUOUS
 62
     3
 10
0.0000000000000582
 20
0.0
 30
0.0
 40
70.0
  0
CIRCLE
  5
39ED
  8
0
  6
CONTINUOUS
 62
     3
 10
0.0000000000000486
 20
0.0
 30
0.0
 40
69.0
  0
CIRCLE
  5
39EE
  8
0
  6
CONTINUOUS
 62
     3
 10
0.0000000000000399
 20
0.0
 30
0.0
 40
64.0
  0
CIRCLE
  5
39EF
  8
0
  6
VERDECKT
 62
     1
 10
0.0
 20
0.0
 30
0.0
 40
65.1972196409694789
  0
CIRCLE
  5
39F0
  8
0
  6
VERDECKT
 62
     1
 10
0.0000000000000552
 20
0.0
 30
0.0
 40
73.5
  0
CIRCLE
  5
39F1
  8
0
  6
VERDECKT
 62
     1
 10
0.0000000000000399
 20
0.0
 30
0.0
 40
66.5
  0
CIRCLE
  5
39F2
  8
0
  6
VERDECKT
 62
     1
 10
0.0000000000000486
 20
0.0
 30
0.0
 40
71.5
  0
CIRCLE
  5
39F3
  8
0
  6
VERDECKT
 62
     1
 10
0.0000000000000531
 20
0.0
 30
0.0
 40
75.9997362596920993
  0
ENDBLK
  5
39F5
  8
0
  0
BLOCK
  8
0
  2
A$C5F1545AE
 70
     0
 10
0.0
 20
0.0
 30
0.0
  3
A$C5F1545AE
  1

  0
LINE
  5
39F9
  8
0
  6
CONTINUOUS
 62
     3
 10
-88.8999999999999773
 20
140.0000000000001137
 30
-0.0000000000000311
 11
88.8999999999999773
 21
140.0000000000001137
 31
-0.0000000000000311
210
0.0
220
1.0
230
-0.0000000000000002
  0
LINE
  5
39FA
  8
0
  6
CONTINUOUS
 62
     3
 10
-88.8999999999999773
 20
240.0000000000001137
 30
-0.0000000000000533
 11
88.8999999999999773
 21
240.0000000000001137
 31
-0.0000000000000533
210
0.0
220
1.0
230
-0.0000000000000002
  0
LINE
  5
39FB
  8
0
  6
CONTINUOUS
 62
     3
 10
88.8999999999999773
 20
240.0000000000001137
 30
-0.0000000000000533
 11
88.8999999999999773
 21
140.0000000000001137
 31
-0.0000000000000311
210
0.0
220
1.0
230
-0.0000000000000002
  0
LINE
  5
39FC
  8
0
  6
CONTINUOUS
 62
     3
 10
-88.8999999999999773
 20
240.0000000000001137
 30
-0.0000000000000533
 11
-88.8999999999999773
 21
140.0000000000001137
 31
-0.0000000000000311
210
0.0
220
1.0
230
-0.0000000000000002
  0
LINE
  5
39FD
  8
0
  6
CONTINUOUS
 62
     3
 10
-65.1972196409694646
 20
0.0
 30
0.0
 11
65.1972196409694646
 21
0.0
 31
0.0
210
0.0
220
1.0
230
-0.0000000000000002
  0
LINE
  5
39FE
  8
0
  6
CONTINUOUS
 62
     3
 10
-72.7584447974063551
 20
262.0
 30
-0.0000000000000582
 11
72.7584447974063551
 21
262.0
 31
-0.0000000000000582
210
0.0
220
1.0
230
-0.0000000000000002
  0
LINE
  5
39FF
  8
0
  6
CONTINUOUS
 62
     3
 10
-65.1972196409694789
 20
-0.0000000000000009
 30
0.0
 11
-66.5000000000002274
 21
14.89084764273003
 31
-0.0000000000000033
210
0.0
220
1.0
230
-0.0000000000000002
  0
LINE
  5
3A00
  8
0
  6
CONTINUOUS
 62
     3
 10
65.1972196409694789
 20
-0.0000000000000009
 30
0.0
 11
66.5000000000002274
 21
14.89084764273003
 31
-0.0000000000000033
210
0.0
220
1.0
230
-0.0000000000000002
  0
LINE
  5
3A01
  8
0
  6
CONTINUOUS
 62
     3
 10
76.0
 20
248.3976225555358042
 30
-0.0000000000000552
 11
76.0
 21
240.0000000000001137
 31
-0.0000000000000533
210
0.0
220
1.0
230
-0.0000000000000002
  0
LINE
  5
3A02
  8
0
  6
CONTINUOUS
 62
     3
 10
-76.0
 20
248.3976225555358042
 30
-0.0000000000000552
 11
-76.0
 21
240.0000000000001137
 31
-0.0000000000000533
210
0.0
220
1.0
230
-0.0000000000000002
  0
ARC
  5
3A03
  8
0
  6
CONTINUOUS
 62
     3
 10
45.9999999999972005
 20
248.3976225555352926
 30
0.0
 40
30.0000000000027889
210
0.0
220
-0.0000000000000002
230
-1.0
 50
0.0000000000008778
 51
25.0000000000027391
  0
ARC
  5
3A04
  8
0
  6
CONTINUOUS
 62
     3
 10
-45.9999999999972076
 20
248.3976225555352926
 30
0.0
 40
30.0000000000027889
210
0.0
220
-0.0000000000000002
230
-1.0
 50
154.9999999999971863
 51
179.9999999999990905
  0
LINE
  5
3A05
  8
0
  6
CONTINUOUS
 62
     3
 10
72.7584447974063551
 20
262.0
 30
-0.0000000000000582
 11
73.1892336110986435
 21
261.0761704077586955
 31
-0.000000000000058
210
0.0
220
1.0
230
-0.0000000000000002
  0
LINE
  5
3A06
  8
0
  6
CONTINUOUS
 62
     3
 10
-72.7584447974063551
 20
262.0
 30
-0.0000000000000582
 11
-73.1892336110986435
 21
261.0761704077586955
 31
-0.000000000000058
210
0.0
220
1.0
230
-0.0000000000000002
  0
LINE
  5
3A07
  8
0
  6
CONTINUOUS
 62
     3
 10
66.5000000000001137
 20
140.0000000000001137
 30
-0.0000000000000311
 11
66.5000000000001137
 21
14.89084764273003
 31
-0.0000000000000033
210
0.0
220
1.0
230
-0.0000000000000002
  0
LINE
  5
3A08
  8
0
  6
CONTINUOUS
 62
     3
 10
-66.5000000000001137
 20
140.0000000000001137
 30
-0.0000000000000311
 11
-66.5000000000001137
 21
14.89084764273003
 31
-0.0000000000000033
210
0.0
220
1.0
230
-0.0000000000000002
  0
LINE
  5
3A09
  8
0
  6
VERDECKT
 62
     1
 10
76.3999999999999631
 20
240.0000000000001137
 30
-0.0000000000000533
 11
76.3999999999999631
 21
140.0000000000001137
 31
-0.0000000000000311
210
0.0
220
1.0
230
-0.0000000000000002
  0
LINE
  5
3A0A
  8
0
  6
VERDECKT
 62
     1
 10
-76.3999999999999631
 20
240.0000000000001137
 30
-0.0000000000000533
 11
-76.3999999999999631
 21
140.0000000000001137
 31
-0.0000000000000311
210
0.0
220
1.0
230
-0.0000000000000002
  0
LINE
  5
3A0B
  8
0
  6
VERDECKT
 62
     1
 10
-76.0
 20
239.2909999999999968
 30
-0.0000000000000531
 11
76.0
 21
239.2909999999999968
 31
-0.0000000000000531
210
0.0
220
1.0
230
-0.0000000000000002
  0
LINE
  5
3A0C
  8
0
  6
VERDECKT
 62
     1
 10
-62.687670047111169
 20
0.0
 30
0.0
 11
-63.9619469809174603
 21
14.5650520016082492
 31
-0.0000000000000032
210
0.0
220
1.0
230
-0.0000000000000002
  0
LINE
  5
3A0D
  8
0
  6
VERDECKT
 62
     1
 10
62.687670047111169
 20
0.0
 30
0.0
 11
63.9619469809174603
 21
14.5650520016082492
 31
-0.0000000000000032
210
0.0
220
1.0
230
-0.0000000000000002
  0
ARC
  5
3A0E
  8
0
  6
VERDECKT
 62
     1
 10
54.00000000000162
 20
15.4366094290846991
 30
0.0
 40
9.9999999999983729
210
0.0
220
-0.0000000000000002
230
-1.0
 50
354.9999999999998863
 51
0.0000000000005471
  0
ARC
  5
3A0F
  8
0
  6
VERDECKT
 62
     1
 10
-53.9999999999941167
 20
15.4366094290850295
 30
0.0
 40
10.0000000000058709
210
0.0
220
-0.0000000000000002
230
-1.0
 50
180.0000000000013074
 51
184.9999999999980957
  0
LINE
  5
3A10
  8
0
  6
VERDECKT
 62
     1
 10
76.0
 20
240.0000000000001137
 30
-0.0000000000000533
 11
76.0
 21
239.2909999999999968
 31
-0.0000000000000531
210
0.0
220
1.0
230
-0.0000000000000002
  0
LINE
  5
3A11
  8
0
  6
VERDECKT
 62
     1
 10
-76.0
 20
240.0000000000001137
 30
-0.0000000000000533
 11
-76.0
 21
239.2909999999999968
 31
-0.0000000000000531
210
0.0
220
1.0
230
-0.0000000000000002
  0
LINE
  5
3A12
  8
0
  6
VERDECKT
 62
     1
 10
69.9999999999999858
 20
262.0
 30
-0.0000000000000582
 11
70.9234641435079851
 21
260.0196247534045142
 31
-0.0000000000000577
210
0.0
220
1.0
230
-0.0000000000000002
  0
LINE
  5
3A13
  8
0
  6
VERDECKT
 62
     1
 10
-70.0000000000000142
 20
262.0
 30
-0.0000000000000582
 11
-70.9234641435079851
 21
260.0196247534045142
 31
-0.0000000000000577
210
0.0
220
1.0
230
-0.0000000000000002
  0
ARC
  5
3A14
  8
0
  6
VERDECKT
 62
     1
 10
45.9999999999978968
 20
248.3976225555350936
 30
0.0
 40
27.500000000002089
210
0.0
220
-0.0000000000000002
230
-1.0
 50
0.0000000000013613
 51
24.9999999999982805
  0
ARC
  5
3A15
  8
0
  6
VERDECKT
 62
     1
 10
-45.9999999999978968
 20
248.3976225555350936
 30
0.0
 40
27.5000000000020783
210
0.0
220
-0.0000000000000002
230
-1.0
 50
155.0000000000017053
 51
179.9999999999986073
  0
LINE
  5
3A16
  8
0
  6
VERDECKT
 62
     1
 10
73.5
 20
248.3976225555358042
 30
-0.0000000000000552
 11
73.5
 21
239.2909999999999968
 31
-0.0000000000000531
210
0.0
220
1.0
230
-0.0000000000000002
  0
LINE
  5
3A17
  8
0
  6
VERDECKT
 62
     1
 10
-73.5
 20
248.3976225555358042
 30
-0.0000000000000552
 11
-73.5
 21
239.2909999999999968
 31
-0.0000000000000531
210
0.0
220
1.0
230
-0.0000000000000002
  0
ARC
  5
3A18
  8
0
  6
VERDECKT
 62
     1
 10
45.9999999999975131
 20
239.2910000000005937
 30
0.0
 40
27.5000000000024691
210
0.0
220
-0.0000000000000002
230
-1.0
 50
334.8288522569367274
 51
359.9999999999988063
  0
ARC
  5
3A19
  8
0
  6
VERDECKT
 62
     1
 10
-45.9999999999975202
 20
239.2910000000005937
 30
0.0
 40
27.5000000000024585
210
0.0
220
-0.0000000000000002
230
-1.0
 50
180.0000000000011084
 51
205.171147743063301
  0
ARC
  5
3A1A
  8
0
  6
VERDECKT
 62
     1
 10
89.4999999999996732
 20
219.0000000000001137
 30
0.0
 40
20.4999999999996696
210
0.0
220
-0.0000000000000002
230
-1.0
 50
155.2128276928106914
 51
180.0000000000005116
  0
ARC
  5
3A1B
  8
0
  6
VERDECKT
 62
     1
 10
-89.5000000000000853
 20
219.0000000000001137
 30
0.0
 40
20.5000000000000888
210
0.0
220
-0.0000000000000002
230
-1.0
 50
359.9999999999996021
 51
24.7871723071889605
  0
LINE
  5
3A1C
  8
0
  6
VERDECKT
 62
     1
 10
69.0
 20
218.9999999999998863
 30
-0.0000000000000486
 11
69.0
 21
195.4687194226711995
 31
-0.0000000000000434
210
0.0
220
1.0
230
-0.0000000000000002
  0
LINE
  5
3A1D
  8
0
  6
VERDECKT
 62
     1
 10
-69.0
 20
218.9999999999998863
 30
-0.0000000000000486
 11
-69.0
 21
195.4687194226711995
 31
-0.0000000000000434
210
0.0
220
1.0
230
-0.0000000000000002
  0
ARC
  5
3A1E
  8
0
  6
VERDECKT
 62
     1
 10
53.5000000000011866
 20
195.4687194226708016
 30
0.0
 40
15.4999999999988098
210
0.0
220
-0.0000000000000002
230
-1.0
 50
325.2280559680488068
 51
0.0000000000012595
  0
ARC
  5
3A1F
  8
0
  6
VERDECKT
 62
     1
 10
-53.5000000000011866
 20
195.4687194226708016
 30
0.0
 40
15.4999999999987992
210
0.0
220
-0.0000000000000002
230
-1.0
 50
179.9999999999986926
 51
214.7719440319511932
  0
ARC
  5
3A20
  8
0
  6
VERDECKT
 62
     1
 10
76.4999999999986215
 20
179.5000000000003126
 30
0.0
 40
12.4999999999986198
210
0.0
220
-0.0000000000000002
230
-1.0
 50
145.22805596805091
 51
180.0000000000015064
  0
ARC
  5
3A21
  8
0
  6
VERDECKT
 62
     1
 10
-76.4999999999986215
 20
179.5000000000003126
 30
0.0
 40
12.4999999999986198
210
0.0
220
-0.0000000000000002
230
-1.0
 50
359.9999999999984084
 51
34.7719440319490332
  0
ARC
  5
3A22
  8
0
  6
VERDECKT
 62
     1
 10
76.5000000000008242
 20
179.4999999999996021
 30
0.0
 40
10.00000000000081
210
0.0
220
-0.0000000000000002
230
-1.0
 50
145.2280559680513079
 51
179.9999999999982094
  0
ARC
  5
3A23
  8
0
  6
VERDECKT
 62
     1
 10
-76.5000000000008242
 20
179.4999999999996021
 30
0.0
 40
10.00000000000081
210
0.0
220
-0.0000000000000002
230
-1.0
 50
0.0000000000017938
 51
34.771944031948621
  0
ARC
  5
3A24
  8
0
  6
VERDECKT
 62
     1
 10
53.50000000000135
 20
195.4687194226708016
 30
0.0
 40
17.99999999999865
210
0.0
220
-0.0000000000000002
230
-1.0
 50
325.2280559680510237
 51
0.0000000000010941
  0
ARC
  5
3A25
  8
0
  6
VERDECKT
 62
     1
 10
-53.50000000000135
 20
195.4687194226708016
 30
0.0
 40
17.99999999999865
210
0.0
220
-0.0000000000000002
230
-1.0
 50
179.9999999999988916
 51
214.7719440319490047
  0
LINE
  5
3A26
  8
0
  6
VERDECKT
 62
     1
 10
71.5
 20
218.9999999999998863
 30
-0.0000000000000486
 11
71.5
 21
195.4687194226710858
 31
-0.0000000000000434
210
0.0
220
1.0
230
-0.0000000000000002
  0
LINE
  5
3A27
  8
0
  6
VERDECKT
 62
     1
 10
-71.5
 20
218.9999999999998863
 30
-0.0000000000000486
 11
-71.5
 21
195.4687194226710858
 31
-0.0000000000000434
210
0.0
220
1.0
230
-0.0000000000000002
  0
ARC
  5
3A28
  8
0
  6
VERDECKT
 62
     1
 10
89.4999999999953246
 20
219.0000000000009095
 30
0.0
 40
17.9999999999953495
210
0.0
220
-0.0000000000000002
230
-1.0
 50
154.992841663447706
 51
180.0000000000030127
  0
ARC
  5
3A29
  8
0
  6
VERDECKT
 62
     1
 10
-89.4999999999953246
 20
219.0000000000009095
 30
0.0
 40
17.9999999999953495
210
0.0
220
-0.0000000000000002
230
-1.0
 50
359.9999999999968736
 51
25.0071583365522585
  0
ARC
  5
3A2A
  8
0
  6
VERDECKT
 62
     1
 10
45.9999999999978968
 20
239.2910000000003947
 30
0.0
 40
29.999736259694199
210
0.0
220
-0.0000000000000002
230
-1.0
 50
334.9928416634463133
 51
359.9999999999992042
  0
ARC
  5
3A2B
  8
0
  6
VERDECKT
 62
     1
 10
-45.9999999999976197
 20
239.2910000000003947
 30
0.0
 40
29.999736259694469
210
0.0
220
-0.0000000000000002
230
-1.0
 50
180.0000000000007958
 51
205.0071583365534877
  0
LINE
  5
3A2C
  8
0
  6
VERDECKT
 62
     1
 10
66.5000000000001137
 20
179.4999999999998863
 30
-0.0000000000000399
 11
66.5000000000001137
 21
140.0000000000001137
 31
-0.0000000000000311
210
0.0
220
1.0
230
-0.0000000000000002
  0
LINE
  5
3A2D
  8
0
  6
VERDECKT
 62
     1
 10
-66.5000000000001137
 20
179.4999999999998863
 30
-0.0000000000000399
 11
-66.5000000000001137
 21
140.0000000000001137
 31
-0.0000000000000311
210
0.0
220
1.0
230
-0.0000000000000002
  0
LINE
  5
3A2E
  8
0
  6
VERDECKT
 62
     1
 10
64.0
 20
179.4999999999998863
 30
-0.0000000000000399
 11
64.0
 21
15.4366094290848004
 31
-0.0000000000000034
210
0.0
220
1.0
230
-0.0000000000000002
  0
LINE
  5
3A2F
  8
0
  6
VERDECKT
 62
     1
 10
-64.0
 20
179.4999999999998863
 30
-0.0000000000000399
 11
-64.0
 21
15.4366094290848004
 31
-0.0000000000000034
210
0.0
220
1.0
230
-0.0000000000000002
  0
ENDBLK
  5
3A31
  8
0
  0
ENDSEC
  0
SECTION
  2
ENTITIES
  0
TEXT
  5
8F
  8
VOLL
 10
78.076754716981128
 20
31.025947764705851
 30
0.0
 40
1.8
  1

  7
GREEKS
  0
INSERT
  5
FA4
  8
ADSK_ASSOC_ENTITY_BACKUPS
  2
*S0
 10
0.0
 20
0.0
 30
0.0
  0
INSERT
  5
39F6
  8
STEMPEL
  2
A$C5F592AD0
 10
0.0
 20
-188.9000000000000057
 30
0.0
  0
INSERT
  5
3A32
  8
STEMPEL
  2
A$C5F1545AE
 10
0.0
 20
0.0
 30
0.0
  0
VIEWPORT
  5
702
 67
     1
  8
0
 10
99.9595808982848837
 20
142.0247198271484024
 30
0.0
 40
557.5441164704363928
 41
298.4396363082536254
 68
     1
 69
     1
1001
ACAD
1000
MVIEW
1002
{
1070
    16
1010
0.0
1020
0.0
1030
0.0
1010
0.0
1020
0.0
1030
1.0
1040
0.0
1040
298.4396363082536254
1040
99.9595808982848837
1040
142.0247198271484024
1040
50.0
1040
0.0
1040
0.0
1070
     0
1070
  1500
1070
     1
1070
     1
1070
     0
1070
     0
1070
     0
1070
     0
1040
0.0
1040
0.0
1040
0.0
1040
10.0
1040
10.0
1040
10.0
1040
10.0
1070
     0
1002
{
1002
}
1002
}
1001
GENIUS_GENOBJ-N-SDF_13
1002
{
1000
OWNER
1000
GEN
1002
}
1001
GENIUS_GENODEF_13
1002
{
1000
HIER
1070
     0
1002
}
1002
{
1000
MANEDIT
1070
     0
1002
}
1002
{
1000
NOSEL
1070
     0
1002
}
1002
{
1000
BEHIND
1070
     0
1002
}
1002
{
1000
OTHER
1070
     0
1002
}
1002
{
1000
REACTOR
1002
}
1001
GENIUS_GENSCREG_15
1000
PF
1040
1.0
1000
DF
1040
1.0
1000
MIN
1011
-181.7698851050805899
1021
0.0
1031
0.0
1021
8.0949260949412292
1031
0.0
1000
MAX
1011
482.5085962845413974
1021
0.0
1031
0.0
1021
300.3619735594895133
1031
0.0
1000
FLAGS
1070
     4
  0
ENDSEC
  0
EOF
