  0
SECTION
  2
HEADER
  9
$ACADVER
  1
AC1009
  9
$INSBASE
 10
0.0
 20
0.0
 30
0.0
  9
$EXTMIN
 10
-41.25
 20
-41.25
 30
0.0
  9
$EXTMAX
 10
41.25
 20
41.25
 30
200.0
  9
$LIMMIN
 10
0.0
 20
0.0
  9
$LIMMAX
 10
419.9999999999998863
 20
594.0
  9
$ORTHOMODE
 70
     1
  9
$REGENMODE
 70
     1
  9
$FILLMODE
 70
     1
  9
$QTEXTMODE
 70
     0
  9
$MIRRTEXT
 70
     1
  9
$DRAGMODE
 70
     2
  9
$LTSCALE
 40
20.0
  9
$OSMODE
 70
  2559
  9
$ATTMODE
 70
     1
  9
$TEXTSIZE
 40
3.5
  9
$TRACEWID
 40
0.5
  9
$TEXTSTYLE
  7
STANDARD
  9
$CLAYER
  8
STEMPEL
  9
$CELTYPE
  6
BYLAYER
  9
$CECOLOR
 62
   256
  9
$DIMSCALE
 40
1.0
  9
$DIMASZ
 40
3.5
  9
$DIMEXO
 40
1.0
  9
$DIMDLI
 40
7.0
  9
$DIMRND
 40
0.0
  9
$DIMDLE
 40
0.0
  9
$DIMEXE
 40
1.0
  9
$DIMTP
 40
0.0
  9
$DIMTM
 40
0.0
  9
$DIMTXT
 40
3.5
  9
$DIMCEN
 40
1.5
  9
$DIMTSZ
 40
0.0
  9
$DIMTOL
 70
     0
  9
$DIMLIM
 70
     0
  9
$DIMTIH
 70
     0
  9
$DIMTOH
 70
     0
  9
$DIMSE1
 70
     0
  9
$DIMSE2
 70
     0
  9
$DIMTAD
 70
     1
  9
$DIMZIN
 70
     8
  9
$DIMBLK
  1

  9
$DIMASO
 70
     1
  9
$DIMSHO
 70
     0
  9
$DIMPOST
  1

  9
$DIMAPOST
  1

  9
$DIMALT
 70
     0
  9
$DIMALTD
 70
     2
  9
$DIMALTF
 40
25.3999999999999986
  9
$DIMLFAC
 40
1.0
  9
$DIMTOFL
 70
     1
  9
$DIMTVP
 40
0.0
  9
$DIMTIX
 70
     0
  9
$DIMSOXD
 70
     0
  9
$DIMSAH
 70
     0
  9
$DIMBLK1
  1

  9
$DIMBLK2
  1

  9
$DIMSTYLE
  2
STANDARD
  9
$DIMCLRD
 70
     0
  9
$DIMCLRE
 70
     0
  9
$DIMCLRT
 70
     1
  9
$DIMTFAC
 40
0.5142857142857143
  9
$DIMGAP
 40
1.5
  9
$LUNITS
 70
     2
  9
$LUPREC
 70
     2
  9
$SKETCHINC
 40
1.0
  9
$FILLETRAD
 40
10.0
  9
$AUNITS
 70
     0
  9
$AUPREC
 70
     0
  9
$MENU
  1
ACAD
  9
$ELEVATION
 40
0.0
  9
$PELEVATION
 40
0.0
  9
$THICKNESS
 40
0.0
  9
$LIMCHECK
 70
     0
  9
$BLIPMODE
 70
     0
  9
$CHAMFERA
 40
0.0
  9
$CHAMFERB
 40
0.0
  9
$SKPOLY
 70
     0
  9
$TDCREATE
 40
2455397.8646990740671754
  9
$TDUPDATE
 40
2458381.6039467588998377
  9
$TDINDWG
 40
0.3544845255
  9
$TDUSRTIMER
 40
0.3544845255
  9
$USRTIMER
 70
     1
  9
$ANGBASE
 50
0.0
  9
$ANGDIR
 70
     0
  9
$PDMODE
 70
     0
  9
$PDSIZE
 40
0.0
  9
$PLINEWID
 40
0.0
  9
$COORDS
 70
     1
  9
$SPLFRAME
 70
     0
  9
$SPLINETYPE
 70
     6
  9
$SPLINESEGS
 70
     8
  9
$ATTDIA
 70
     1
  9
$ATTREQ
 70
     1
  9
$HANDLING
 70
     1
  9
$HANDSEED
  5
3172
  9
$SURFTAB1
 70
     6
  9
$SURFTAB2
 70
     6
  9
$SURFTYPE
 70
     6
  9
$SURFU
 70
     6
  9
$SURFV
 70
     6
  9
$UCSNAME
  2

  9
$UCSORG
 10
0.0
 20
0.0
 30
0.0
  9
$UCSXDIR
 10
1.0
 20
0.0
 30
0.0
  9
$UCSYDIR
 10
0.0
 20
1.0
 30
0.0
  9
$PUCSNAME
  2

  9
$PUCSORG
 10
0.0
 20
0.0
 30
0.0
  9
$PUCSXDIR
 10
1.0
 20
0.0
 30
0.0
  9
$PUCSYDIR
 10
0.0
 20
1.0
 30
0.0
  9
$USERI1
 70
     0
  9
$USERI2
 70
     0
  9
$USERI3
 70
     0
  9
$USERI4
 70
     0
  9
$USERI5
 70
     0
  9
$USERR1
 40
0.0
  9
$USERR2
 40
0.0
  9
$USERR3
 40
0.0
  9
$USERR4
 40
0.0
  9
$USERR5
 40
0.0
  9
$WORLDVIEW
 70
     1
  9
$SHADEDGE
 70
     3
  9
$SHADEDIF
 70
    70
  9
$TILEMODE
 70
     1
  9
$MAXACTVP
 70
    16
  9
$PLIMCHECK
 70
     0
  9
$PEXTMIN
 10
1.0000000000000000E+20
 20
1.0000000000000000E+20
 30
1.0000000000000000E+20
  9
$PEXTMAX
 10
-1.0000000000000000E+20
 20
-1.0000000000000000E+20
 30
-1.0000000000000000E+20
  9
$PLIMMIN
 10
-5.027082920074462
 20
-6.4382776093749987
  9
$PLIMMAX
 10
204.9462447166442871
 20
290.4877172636719251
  9
$UNITMODE
 70
     0
  9
$VISRETAIN
 70
     0
  9
$PLINEGEN
 70
     0
  9
$PSLTSCALE
 70
     0
  0
ENDSEC
  0
SECTION
  2
TABLES
  0
TABLE
  2
VPORT
 70
     1
  0
VPORT
  2
*ACTIVE
 70
     0
 10
0.0
 20
0.0
 11
1.0
 21
1.0
 12
0.0
 22
0.0
 13
0.0
 23
0.0
 14
1.0
 24
1.0
 15
10.0
 25
10.0
 16
-337.2279390947749107
 26
-337.2291690815682728
 36
337.2279390947749107
 17
0.0
 27
0.0
 37
100.0
 40
231.5437323703667118
 41
1.868197278911564
 42
50.0
 43
0.0
 44
0.0
 50
0.0
 51
0.0000000000000078
 71
     0
 72
  1500
 73
     1
 74
     0
 75
     0
 76
     0
 77
     0
 78
     0
  0
ENDTAB
  0
TABLE
  2
LTYPE
 70
     7
  0
LTYPE
  2
CONTINUOUS
 70
     0
  3
Solid line
 72
    65
 73
     0
 40
0.0
  0
LTYPE
  2
PHANTOM2
 70
     0
  3
Phantom (.5x) ___ _ _ ___ _ _ ___ _ _ ___ _ _
 72
    65
 73
     6
 40
1.25
 49
0.625
 49
-0.125
 49
0.125
 49
-0.125
 49
0.125
 49
-0.125
  0
LTYPE
  2
AUSGEZOGEN
 70
     0
  3
Ausgezogene Linie
 72
    65
 73
     0
 40
0.0
  0
ENDTAB
  0
TABLE
  2
LAYER
 70
    17
  0
LAYER
  2
0
 70
     0
 62
     7
  6
CONTINUOUS
  0
LAYER
  2
VOLL
 70
     0
 62
     1
  6
CONTINUOUS
  0
LAYER
  2
STEMPEL
 70
     0
 62
     3
  6
CONTINUOUS
  0
LAYER
  2
DEFPOINTS
 70
     0
 62
     7
  6
CONTINUOUS
  0
LAYER
  2
ROHR
 70
     0
 62
   254
  6
CONTINUOUS
  0
LAYER
  2
ADSK_ASSOC_ENTITY_BACKUPS
 70
     0
 62
     7
  6
CONTINUOUS
  0
LAYER
  2
HÜLSE
 70
     0
 62
     9
  6
CONTINUOUS
  0
ENDTAB
  0
TABLE
  2
STYLE
 70
     2
  0
STYLE
  2
STANDARD
 70
     0
 40
0.0
 41
0.8
 50
0.0
 71
     0
 42
3.5
  3
simplex.shx
  4

  0
STYLE
  2
GREEKS
 70
     0
 40
0.0
 41
0.8
 50
0.0
 71
     0
 42
2.5
  3
SIMPLEX.shx
  4

  0
ENDTAB
  0
TABLE
  2
VIEW
 70
     2
  0
ENDTAB
  0
TABLE
  2
UCS
 70
     0
  0
ENDTAB
  0
TABLE
  2
APPID
 70
    34
  0
APPID
  2
ACAD
 70
     0
  0
APPID
  2
ACAD_EXEMPT_FROM_CAD_STANDARDS
 70
     0
  0
APPID
  2
ACAD_NAV_VCDISPLAY
 70
     0
  0
APPID
  2
ACAECLAYERSTANDARD
 70
     0
  0
APPID
  2
ACCMTRANSPARENCY
 70
     0
  0
APPID
  2
ACAD_PSEXT
 70
     0
  0
APPID
  2
GRADIENTCOLOR1ACI
 70
     0
  0
APPID
  2
GRADIENTCOLOR2ACI
 70
     0
  0
APPID
  2
ACAD_MLEADERVER
 70
     0
  0
APPID
  2
ACAD_OBJECT_CHANGE_GUID
 70
     0
  0
APPID
  2
MCAD_NO_VIS
 70
     0
  0
APPID
  2
ACAD_TEMP_GRAPHIC
 70
     0
  0
APPID
  2
ACATTRIBSERVICES
 70
     0
  0
APPID
  2
DESIGNERASSEMBLIES
 70
     0
  0
APPID
  2
ACAD_DSTYLE_DIMJAG
 70
     0
  0
APPID
  2
ACAD_DSTYLE_DIMBREAK
 70
     0
  0
APPID
  2
GENIUS_GENSCREG_15
 70
     0
  0
APPID
  2
GENIUS_GENOBJ-N-SDF_13
 70
     0
  0
APPID
  2
GENIUS_GENODEF_13
 70
     0
  0
APPID
  2
RAK
 70
     0
  0
APPID
  2
ACAUTHENVIRON
 70
     0
  0
APPID
  2
ACDBDYNAMICBLOCKTRUENAME
 70
     0
  0
APPID
  2
ACDBDYNAMICBLOCKGUID
 70
     0
  0
APPID
  2
ACSYNERGY
 70
     0
  0
APPID
  2
SYNERGY_BODY_TBR_ID
 70
     0
  0
APPID
  2
ACAD_VIEW_EDGE_ID
 70
     0
  0
APPID
  2
ACSYNERGYSKETCH
 70
     0
  0
APPID
  2
ACAD_STEPID
 70
     0
  0
APPID
  2
ACAD_MODELDOC_XFORM
 70
     0
  0
APPID
  2
GENIUS_GENDTOL_13
 70
     0
  0
APPID
  2
ACAD_DSTYLE_DIMINSPECT
 70
     0
  0
APPID
  2
ACADANNOMONITORALERTICONDI
 70
     0
  0
APPID
  2
GENIUS_GENDIMSH_14
 70
     0
  0
APPID
  2
ACDBATTR
 70
     0
  0
ENDTAB
  0
TABLE
  2
DIMSTYLE
 70
     2
  0
DIMSTYLE
  2
STANDARD
 70
     0
  3

  4

  5

  6

  7

 40
1.0
 41
0.18
 42
0.0625
 43
0.38
 44
0.18
 45
0.0
 46
0.0
 47
0.0
 48
0.0
140
0.18
141
0.09
142
0.0
143
25.3999999999999986
144
1.0
145
0.0
146
1.0
147
0.09
 71
     0
 72
     0
 73
     1
 74
     1
 75
     0
 76
     0
 77
     0
 78
     0
170
     0
171
     2
172
     0
173
     0
174
     0
175
     0
176
     0
177
     0
178
     0
  0
ENDTAB
  0
ENDSEC
  0
SECTION
  2
BLOCKS
  0
BLOCK
  8
0
  2
$MODEL_SPACE
 70
     0
 10
0.0
 20
0.0
 30
0.0
  3
$MODEL_SPACE
  1

  0
ENDBLK
  5
36
  8
0
  0
BLOCK
 67
     1
  8
0
  2
$PAPER_SPACE
 70
     0
 10
0.0
 20
0.0
 30
0.0
  3
$PAPER_SPACE
  1

  0
ENDBLK
  5
34
 67
     1
  8
0
  0
BLOCK
  8
0
  2
*S0
 70
     1
 10
0.0
 20
0.0
 30
0.0
  3
*S0
  1

  0
ENDBLK
  5
FA2
  8
0
  0
BLOCK
  8
0
  2
*U18
 70
     1
 10
0.0
 20
0.0
 30
0.0
  3
*U18
  1

  0
CIRCLE
  5
3131
  8
ROHR
 10
0.0
 20
0.0000000000000031
 30
-7.5650520016083638
 40
24.9619469809174497
210
0.0
220
0.0
230
-1.0
  0
CIRCLE
  5
3132
  8
ROHR
 10
0.0
 20
0.0
 30
8.4366094290847968
 40
25.0
  0
CIRCLE
  5
3133
  8
ROHR
 10
0.0
 20
0.0
 30
0.0
 40
24.3000906917927715
210
0.0
220
0.0
230
-1.0
  0
CIRCLE
  5
3134
  8
ROHR
 10
0.0
 20
0.0000000000000031
 30
-7.5650520016083638
 40
24.9619469809174497
210
0.0
220
0.0
230
-1.0
  0
CIRCLE
  5
3135
  8
ROHR
 10
0.0
 20
0.0
 30
0.0
 40
25.8058204481076316
210
0.0
220
0.0
230
-1.0
  0
CIRCLE
  5
3136
  8
ROHR
 10
0.0
 20
0.0
 30
0.0
 40
24.3000906917927715
210
0.0
220
0.0
230
-1.0
  0
CIRCLE
  5
3137
  8
ROHR
 10
0.0
 20
0.0
 30
-7.9345085856373307
 40
26.5
210
0.0
220
0.0
230
-1.0
  0
CIRCLE
  5
3138
  8
ROHR
 10
0.0
 20
0.0
 30
0.0
 40
25.8058204481076316
210
0.0
220
0.0
230
-1.0
  0
CIRCLE
  5
3139
  8
ROHR
 10
0.0
 20
0.0
 30
-191.4853443781643989
 40
29.8000000000001783
210
0.0
220
0.0
230
-1.0
  0
CIRCLE
  5
313A
  8
ROHR
 10
0.0
 20
0.0
 30
191.8043996372992126
 40
29.7949088911116213
  0
CIRCLE
  5
313B
  8
ROHR
 10
0.0
 20
0.0
 30
-187.1231839459246089
 40
29.8000000000001783
210
0.0
220
0.0
230
-1.0
  0
CIRCLE
  5
313C
  8
ROHR
 10
0.0
 20
0.0
 30
-191.4853443781643989
 40
29.8000000000001783
210
0.0
220
0.0
230
-1.0
  0
CIRCLE
  5
313D
  8
ROHR
 10
0.0
 20
0.0
 30
-199.6123136843357884
 40
27.9327590687037208
210
0.0
220
0.0
230
-1.0
  0
CIRCLE
  5
313E
  8
ROHR
 10
0.0
 20
0.0
 30
191.8043996372992126
 40
29.7949088911116213
  0
CIRCLE
  5
313F
  8
ROHR
 10
0.0
 20
0.0
 30
-157.2024462554578008
 40
25.0
210
0.0
220
0.0
230
-1.0
  0
CIRCLE
  5
3140
  8
ROHR
 10
0.0
 20
0.0
 30
-162.0502395678834091
 40
26.3300000000002683
210
0.0
220
0.0
230
-1.0
  0
CIRCLE
  5
3141
  8
ROHR
 10
0.0
 20
0.0
 30
-162.0502395678834091
 40
26.3300000000002683
210
0.0
220
0.0
230
-1.0
  0
CIRCLE
  5
3142
  8
ROHR
 10
0.0
 20
0.0
 30
-167.4083269131959071
 40
27.8000000000001783
210
0.0
220
0.0
230
-1.0
  0
CIRCLE
  5
3143
  8
ROHR
 10
0.0
 20
0.0
 30
-167.4083269131959071
 40
27.8000000000001783
210
0.0
220
0.0
230
-1.0
  0
CIRCLE
  5
3144
  8
ROHR
 10
0.0
 20
0.0
 30
-175.5
 40
27.7999999999999616
210
0.0
220
0.0
230
-1.0
  0
CIRCLE
  5
3145
  8
ROHR
 10
0.0
 20
0.0
 30
-175.5
 40
27.7999999999999616
210
0.0
220
0.0
230
-1.0
  0
CIRCLE
  5
3146
  8
ROHR
 10
0.0
 20
0.0
 30
-179.3317964903887969
 40
28.4571527883011903
210
0.0
220
0.0
230
-1.0
  0
CIRCLE
  5
3147
  8
ROHR
 10
0.0
 20
0.0
 30
-179.3317964903887969
 40
28.4571527883011903
210
0.0
220
0.0
230
-1.0
  0
CIRCLE
  5
3148
  8
ROHR
 10
0.0
 20
0.0
 30
-187.1231839459246089
 40
29.8000000000001783
210
0.0
220
0.0
230
-1.0
  0
CIRCLE
  5
3149
  8
ROHR
 10
0.0
 20
0.0
 30
-199.6123136843357884
 40
27.9327590687037208
210
0.0
220
0.0
230
-1.0
  0
CIRCLE
  5
314A
  8
ROHR
 10
0.0
 20
0.0
 30
-200.0
 40
27.75197797074782
210
0.0
220
0.0
230
-1.0
  0
CIRCLE
  5
314B
  8
ROHR
 10
0.0
 20
0.0
 30
200.0
 40
27.75197797074782
  0
CIRCLE
  5
314C
  8
ROHR
 10
0.0
 20
0.0
 30
200.0
 40
29.4070448491913794
  0
CIRCLE
  5
314D
  8
ROHR
 10
0.0
 20
0.0
 30
-200.0
 40
29.4070448491913794
210
0.0
220
0.0
230
-1.0
  0
CIRCLE
  5
314E
  8
ROHR
 10
0.0
 20
0.0
 30
-199.8585547612827895
 40
29.4730018472148387
210
0.0
220
0.0
230
-1.0
  0
CIRCLE
  5
314F
  8
ROHR
 10
0.0
 20
0.0
 30
-199.8585547612827895
 40
29.4730018472148387
210
0.0
220
0.0
230
-1.0
  0
CIRCLE
  5
3150
  8
ROHR
 10
0.0
 20
0.0
 30
-191.6174986573377055
 40
31.3000000000001783
210
0.0
220
0.0
230
-1.0
  0
CIRCLE
  5
3151
  8
ROHR
 10
0.0
 20
0.0
 30
-191.6174986573377055
 40
31.3000000000001783
210
0.0
220
0.0
230
-1.0
  0
CIRCLE
  5
3152
  8
ROHR
 10
0.0
 20
0.0
 30
-187.12196429793741
 40
31.3000000000001783
210
0.0
220
0.0
230
-1.0
  0
CIRCLE
  5
3153
  8
ROHR
 10
0.0
 20
0.0
 30
-187.12196429793741
 40
31.3000000000001783
210
0.0
220
0.0
230
-1.0
  0
CIRCLE
  5
3154
  8
ROHR
 10
0.0
 20
0.0
 30
-178.8319969481642033
 40
29.8714372072183814
210
0.0
220
0.0
230
-1.0
  0
CIRCLE
  5
3155
  8
ROHR
 10
0.0
 20
0.0
 30
-178.8319969481642033
 40
29.8714372072183814
210
0.0
220
0.0
230
-1.0
  0
CIRCLE
  5
3156
  8
ROHR
 10
0.0
 20
0.0
 30
-175.5
 40
29.2999999999999616
210
0.0
220
0.0
230
-1.0
  0
CIRCLE
  5
3157
  8
ROHR
 10
0.0
 20
0.0
 30
-175.5
 40
29.2999999999999616
210
0.0
220
0.0
230
-1.0
  0
CIRCLE
  5
3158
  8
ROHR
 10
0.0
 20
0.0
 30
-167.4083269131959071
 40
29.3000000000001783
210
0.0
220
0.0
230
-1.0
  0
CIRCLE
  5
3159
  8
ROHR
 10
0.0
 20
0.0
 30
-167.4083269131959071
 40
29.3000000000001783
210
0.0
220
0.0
230
-1.0
  0
CIRCLE
  5
315A
  8
ROHR
 10
0.0
 20
0.0
 30
-161.2847985185528898
 40
27.6200000000002284
210
0.0
220
0.0
230
-1.0
  0
CIRCLE
  5
315B
  8
ROHR
 10
0.0
 20
0.0
 30
-161.2847985185528898
 40
27.6200000000002284
210
0.0
220
0.0
230
-1.0
  0
CIRCLE
  5
315C
  8
ROHR
 10
0.0
 20
0.0
 30
-157.2024462554578008
 40
26.5
210
0.0
220
0.0
230
-1.0
  0
CIRCLE
  5
315D
  8
ROHR
 10
0.0
 20
0.0
 30
8.4366094290847968
 40
25.0
  0
CIRCLE
  5
315E
  8
ROHR
 10
0.0
 20
0.0
 30
-157.2024462554578008
 40
25.0
210
0.0
220
0.0
230
-1.0
  0
CIRCLE
  5
315F
  8
ROHR
 10
0.0
 20
0.0
 30
-7.9345085856373307
 40
26.5
210
0.0
220
0.0
230
-1.0
  0
CIRCLE
  5
3160
  8
ROHR
 10
0.0
 20
0.0
 30
-157.2024462554578008
 40
26.5
210
0.0
220
0.0
230
-1.0
  0
ENDBLK
  5
3162
  8
0
  0
BLOCK
  8
0
  2
*U19
 70
     1
 10
0.0
 20
0.0
 30
0.0
  3
*U19
  1

  0
CIRCLE
  5
3168
  8
HÜLSE
 10
0.0000000000000349
 20
0.0
 30
-189.999999999999801
 40
32.4499999999999886
210
-0.0000000000000002
220
0.0
230
-1.0
  0
CIRCLE
  5
3169
  8
HÜLSE
 10
0.0000000000000165
 20
0.0
 30
-89.999999999999801
 40
32.4499999999999886
210
-0.0000000000000002
220
0.0
230
-1.0
  0
CIRCLE
  5
316A
  8
HÜLSE
 10
0.0
 20
0.0
 30
189.999999999999801
 40
41.25
  0
CIRCLE
  5
316B
  8
HÜLSE
 10
0.0
 20
0.0
 30
189.999999999999801
 40
32.4499999999999886
  0
CIRCLE
  5
316C
  8
HÜLSE
 10
0.0000000000000165
 20
0.0
 30
-89.9999999999998437
 40
41.2499999999999432
210
-0.0000000000000002
220
0.0
230
-1.0
  0
CIRCLE
  5
316D
  8
HÜLSE
 10
0.0000000000000349
 20
0.0
 30
-189.999999999999801
 40
41.25
210
-0.0000000000000002
220
0.0
230
-1.0
  0
CIRCLE
  5
316E
  8
HÜLSE
 10
0.0000000000000165
 20
0.0
 30
-89.999999999999801
 40
32.4499999999999886
210
-0.0000000000000002
220
0.0
230
-1.0
  0
CIRCLE
  5
316F
  8
HÜLSE
 10
0.0000000000000165
 20
0.0
 30
-89.9999999999998437
 40
41.2499999999999432
210
-0.0000000000000002
220
0.0
230
-1.0
  0
ENDBLK
  5
3171
  8
0
  0
ENDSEC
  0
SECTION
  2
ENTITIES
  0
TEXT
  5
8F
  8
VOLL
 10
78.076754716981128
 20
31.025947764705851
 30
0.0
 40
1.8
  1

  7
GREEKS
  0
INSERT
  5
FA4
  8
ADSK_ASSOC_ENTITY_BACKUPS
  2
*S0
 10
0.0
 20
0.0
 30
0.0
  0
INSERT
  5
250C
  8
STEMPEL
  2
*U18
 10
0.0
 20
0.0
 30
0.0
  0
INSERT
  5
2BFC
  8
STEMPEL
  2
*U19
 10
0.0
 20
0.0
 30
0.0
  0
VIEWPORT
  5
702
 67
     1
  8
0
 10
99.9595808982848837
 20
142.0247198271484024
 30
0.0
 40
557.5441164704363928
 41
298.4396363082536254
 68
     1
 69
     1
1001
ACAD
1000
MVIEW
1002
{
1070
    16
1010
0.0
1020
0.0
1030
0.0
1010
0.0
1020
0.0
1030
1.0
1040
0.0
1040
298.4396363082536254
1040
99.9595808982848837
1040
142.0247198271484024
1040
50.0
1040
0.0
1040
0.0
1070
     0
1070
  1500
1070
     1
1070
     1
1070
     0
1070
     0
1070
     0
1070
     0
1040
0.0
1040
0.0
1040
0.0
1040
10.0
1040
10.0
1040
10.0
1040
10.0
1070
     0
1002
{
1002
}
1002
}
1001
GENIUS_GENOBJ-N-SDF_13
1002
{
1000
OWNER
1000
GEN
1002
}
1001
GENIUS_GENODEF_13
1002
{
1000
HIER
1070
     0
1002
}
1002
{
1000
MANEDIT
1070
     0
1002
}
1002
{
1000
NOSEL
1070
     0
1002
}
1002
{
1000
BEHIND
1070
     0
1002
}
1002
{
1000
OTHER
1070
     0
1002
}
1002
{
1000
REACTOR
1002
}
1001
GENIUS_GENSCREG_15
1000
PF
1040
1.0
1000
DF
1040
1.0
1000
MIN
1011
-162.2501794226577942
1021
0.0
1031
0.0
1021
17.8680732231678085
1031
0.0
1000
MAX
1011
482.2425078004135912
1021
0.0
1031
0.0
1021
301.4298324617569733
1031
0.0
1000
FLAGS
1070
     4
  0
ENDSEC
  0
EOF
