  0
SECTION
  2
HEADER
  9
$ACADVER
  1
AC1009
  9
$INSBASE
 10
0.0
 20
0.0
 30
0.0
  9
$EXTMIN
 10
-109.5668521919913019
 20
-319.1290774349736239
 30
-0.0000000349181948
  9
$EXTMAX
 10
109.5709463554270968
 20
360.0440887540714812
 30
0.0000000814935746
  9
$LIMMIN
 10
0.0
 20
0.0
  9
$LIMMAX
 10
419.9999999999998863
 20
594.0
  9
$ORTHOMODE
 70
     1
  9
$REGENMODE
 70
     1
  9
$FILLMODE
 70
     1
  9
$QTEXTMODE
 70
     0
  9
$MIRRTEXT
 70
     1
  9
$DRAGMODE
 70
     2
  9
$LTSCALE
 40
20.0
  9
$OSMODE
 70
  2559
  9
$ATTMODE
 70
     1
  9
$TEXTSIZE
 40
3.5
  9
$TRACEWID
 40
0.5
  9
$TEXTSTYLE
  7
STANDARD
  9
$CLAYER
  8
ROHR
  9
$CELTYPE
  6
BYLAYER
  9
$CECOLOR
 62
   256
  9
$DIMSCALE
 40
1.0
  9
$DIMASZ
 40
3.5
  9
$DIMEXO
 40
1.0
  9
$DIMDLI
 40
7.0
  9
$DIMRND
 40
0.0
  9
$DIMDLE
 40
0.0
  9
$DIMEXE
 40
1.0
  9
$DIMTP
 40
0.0
  9
$DIMTM
 40
0.0
  9
$DIMTXT
 40
3.5
  9
$DIMCEN
 40
1.5
  9
$DIMTSZ
 40
0.0
  9
$DIMTOL
 70
     0
  9
$DIMLIM
 70
     0
  9
$DIMTIH
 70
     0
  9
$DIMTOH
 70
     0
  9
$DIMSE1
 70
     0
  9
$DIMSE2
 70
     0
  9
$DIMTAD
 70
     1
  9
$DIMZIN
 70
     8
  9
$DIMBLK
  1

  9
$DIMASO
 70
     1
  9
$DIMSHO
 70
     0
  9
$DIMPOST
  1

  9
$DIMAPOST
  1

  9
$DIMALT
 70
     0
  9
$DIMALTD
 70
     2
  9
$DIMALTF
 40
25.3999999999999986
  9
$DIMLFAC
 40
1.0
  9
$DIMTOFL
 70
     1
  9
$DIMTVP
 40
0.0
  9
$DIMTIX
 70
     0
  9
$DIMSOXD
 70
     0
  9
$DIMSAH
 70
     0
  9
$DIMBLK1
  1

  9
$DIMBLK2
  1

  9
$DIMSTYLE
  2
STANDARD
  9
$DIMCLRD
 70
     0
  9
$DIMCLRE
 70
     0
  9
$DIMCLRT
 70
     1
  9
$DIMTFAC
 40
0.5142857142857143
  9
$DIMGAP
 40
1.5
  9
$LUNITS
 70
     2
  9
$LUPREC
 70
     2
  9
$SKETCHINC
 40
1.0
  9
$FILLETRAD
 40
10.0
  9
$AUNITS
 70
     0
  9
$AUPREC
 70
     0
  9
$MENU
  1
ACAD
  9
$ELEVATION
 40
0.0
  9
$PELEVATION
 40
0.0
  9
$THICKNESS
 40
0.0
  9
$LIMCHECK
 70
     0
  9
$BLIPMODE
 70
     0
  9
$CHAMFERA
 40
0.0
  9
$CHAMFERB
 40
0.0
  9
$SKPOLY
 70
     0
  9
$TDCREATE
 40
2455397.8646990740671754
  9
$TDUPDATE
 40
2458380.6316550928167999
  9
$TDINDWG
 40
0.5894864005
  9
$TDUSRTIMER
 40
0.5894864005
  9
$USRTIMER
 70
     1
  9
$ANGBASE
 50
0.0
  9
$ANGDIR
 70
     0
  9
$PDMODE
 70
     0
  9
$PDSIZE
 40
0.0
  9
$PLINEWID
 40
0.0
  9
$COORDS
 70
     1
  9
$SPLFRAME
 70
     0
  9
$SPLINETYPE
 70
     6
  9
$SPLINESEGS
 70
     3
  9
$ATTDIA
 70
     1
  9
$ATTREQ
 70
     1
  9
$HANDLING
 70
     1
  9
$HANDSEED
  5
3E11
  9
$SURFTAB1
 70
     6
  9
$SURFTAB2
 70
     6
  9
$SURFTYPE
 70
     6
  9
$SURFU
 70
     6
  9
$SURFV
 70
     6
  9
$UCSNAME
  2

  9
$UCSORG
 10
0.0
 20
0.0
 30
0.0
  9
$UCSXDIR
 10
1.0
 20
0.0
 30
0.0
  9
$UCSYDIR
 10
0.0
 20
1.0
 30
0.0
  9
$PUCSNAME
  2

  9
$PUCSORG
 10
0.0
 20
0.0
 30
0.0
  9
$PUCSXDIR
 10
1.0
 20
0.0
 30
0.0
  9
$PUCSYDIR
 10
0.0
 20
1.0
 30
0.0
  9
$USERI1
 70
     0
  9
$USERI2
 70
     0
  9
$USERI3
 70
     0
  9
$USERI4
 70
     0
  9
$USERI5
 70
     0
  9
$USERR1
 40
0.0
  9
$USERR2
 40
0.0
  9
$USERR3
 40
0.0
  9
$USERR4
 40
0.0
  9
$USERR5
 40
0.0
  9
$WORLDVIEW
 70
     1
  9
$SHADEDGE
 70
     3
  9
$SHADEDIF
 70
    70
  9
$TILEMODE
 70
     1
  9
$MAXACTVP
 70
    16
  9
$PLIMCHECK
 70
     0
  9
$PEXTMIN
 10
1.0000000000000000E+20
 20
1.0000000000000000E+20
 30
1.0000000000000000E+20
  9
$PEXTMAX
 10
-1.0000000000000000E+20
 20
-1.0000000000000000E+20
 30
-1.0000000000000000E+20
  9
$PLIMMIN
 10
-5.027082920074462
 20
-6.4382776093749987
  9
$PLIMMAX
 10
204.9462447166442871
 20
290.4877172636719251
  9
$UNITMODE
 70
     0
  9
$VISRETAIN
 70
     0
  9
$PLINEGEN
 70
     0
  9
$PSLTSCALE
 70
     0
  0
ENDSEC
  0
SECTION
  2
TABLES
  0
TABLE
  2
VPORT
 70
     1
  0
VPORT
  2
*ACTIVE
 70
     0
 10
0.0
 20
0.0
 11
1.0
 21
1.0
 12
-701.5092139046103057
 22
6.3537916702911161
 13
0.0
 23
0.0
 14
1.0
 24
1.0
 15
10.0
 25
10.0
 16
-0.0000000000003411
 26
0.0
 36
1406.107232894983099
 17
701.511260986328125
 27
14.1037139892578107
 37
0.0000000000000573
 40
682.6353913352934342
 41
1.868197278911564
 42
50.0
 43
0.0
 44
0.0
 50
0.0
 51
0.0
 71
     0
 72
  1500
 73
     1
 74
     0
 75
     0
 76
     0
 77
     0
 78
     0
  0
ENDTAB
  0
TABLE
  2
LTYPE
 70
     7
  0
LTYPE
  2
CONTINUOUS
 70
     0
  3
Solid line
 72
    65
 73
     0
 40
0.0
  0
LTYPE
  2
PHANTOM2
 70
     0
  3
Phantom (.5x) ___ _ _ ___ _ _ ___ _ _ ___ _ _
 72
    65
 73
     6
 40
1.25
 49
0.625
 49
-0.125
 49
0.125
 49
-0.125
 49
0.125
 49
-0.125
  0
LTYPE
  2
AUSGEZOGEN
 70
     0
  3
Ausgezogene Linie
 72
    65
 73
     0
 40
0.0
  0
LTYPE
  2
VERDECKT
 70
     0
  3
_ _ _ _ _ _ _ _ _ _ _ _ _ _ _ _ _ _ _ _ _ _ _
 72
    65
 73
     2
 40
0.375
 49
0.25
 49
-0.125
  0
ENDTAB
  0
TABLE
  2
LAYER
 70
    17
  0
LAYER
  2
0
 70
     0
 62
     7
  6
CONTINUOUS
  0
LAYER
  2
VOLL
 70
     0
 62
     1
  6
CONTINUOUS
  0
LAYER
  2
DEFPOINTS
 70
     0
 62
     7
  6
CONTINUOUS
  0
LAYER
  2
ROHR
 70
     0
 62
   254
  6
CONTINUOUS
  0
LAYER
  2
ADSK_ASSOC_ENTITY_BACKUPS
 70
     0
 62
     7
  6
CONTINUOUS
  0
ENDTAB
  0
TABLE
  2
STYLE
 70
     2
  0
STYLE
  2
STANDARD
 70
     0
 40
0.0
 41
0.8
 50
0.0
 71
     0
 42
3.5
  3
simplex.shx
  4

  0
STYLE
  2
GREEKS
 70
     0
 40
0.0
 41
0.8
 50
0.0
 71
     0
 42
2.5
  3
SIMPLEX.shx
  4

  0
ENDTAB
  0
TABLE
  2
VIEW
 70
     2
  0
ENDTAB
  0
TABLE
  2
UCS
 70
     0
  0
ENDTAB
  0
TABLE
  2
APPID
 70
    34
  0
APPID
  2
ACAD
 70
     0
  0
APPID
  2
ACAD_EXEMPT_FROM_CAD_STANDARDS
 70
     0
  0
APPID
  2
ACAD_NAV_VCDISPLAY
 70
     0
  0
APPID
  2
ACAECLAYERSTANDARD
 70
     0
  0
APPID
  2
ACCMTRANSPARENCY
 70
     0
  0
APPID
  2
ACAD_PSEXT
 70
     0
  0
APPID
  2
GRADIENTCOLOR1ACI
 70
     0
  0
APPID
  2
GRADIENTCOLOR2ACI
 70
     0
  0
APPID
  2
ACAD_MLEADERVER
 70
     0
  0
APPID
  2
ACAD_OBJECT_CHANGE_GUID
 70
     0
  0
APPID
  2
MCAD_NO_VIS
 70
     0
  0
APPID
  2
ACAD_TEMP_GRAPHIC
 70
     0
  0
APPID
  2
ACATTRIBSERVICES
 70
     0
  0
APPID
  2
DESIGNERASSEMBLIES
 70
     0
  0
APPID
  2
ACAD_DSTYLE_DIMJAG
 70
     0
  0
APPID
  2
ACAD_DSTYLE_DIMBREAK
 70
     0
  0
APPID
  2
GENIUS_GENSCREG_15
 70
     0
  0
APPID
  2
GENIUS_GENOBJ-N-SDF_13
 70
     0
  0
APPID
  2
GENIUS_GENODEF_13
 70
     0
  0
APPID
  2
RAK
 70
     0
  0
APPID
  2
ACAUTHENVIRON
 70
     0
  0
APPID
  2
ACDBDYNAMICBLOCKTRUENAME
 70
     0
  0
APPID
  2
ACDBDYNAMICBLOCKGUID
 70
     0
  0
APPID
  2
ACSYNERGY
 70
     0
  0
APPID
  2
SYNERGY_BODY_TBR_ID
 70
     0
  0
APPID
  2
ACAD_VIEW_EDGE_ID
 70
     0
  0
APPID
  2
ACSYNERGYSKETCH
 70
     0
  0
APPID
  2
ACAD_STEPID
 70
     0
  0
APPID
  2
ACAD_MODELDOC_XFORM
 70
     0
  0
APPID
  2
GENIUS_GENDTOL_13
 70
     0
  0
APPID
  2
ACAD_DSTYLE_DIMINSPECT
 70
     0
  0
APPID
  2
ACADANNOMONITORALERTICONDI
 70
     0
  0
APPID
  2
GENIUS_GENDIMSH_14
 70
     0
  0
APPID
  2
ACDBATTR
 70
     0
  0
ENDTAB
  0
TABLE
  2
DIMSTYLE
 70
     2
  0
DIMSTYLE
  2
STANDARD
 70
     0
  3

  4

  5

  6

  7

 40
1.0
 41
0.18
 42
0.0625
 43
0.38
 44
0.18
 45
0.0
 46
0.0
 47
0.0
 48
0.0
140
0.18
141
0.09
142
0.0
143
25.3999999999999986
144
1.0
145
0.0
146
1.0
147
0.09
 71
     0
 72
     0
 73
     1
 74
     1
 75
     0
 76
     0
 77
     0
 78
     0
170
     0
171
     2
172
     0
173
     0
174
     0
175
     0
176
     0
177
     0
178
     0
  0
ENDTAB
  0
ENDSEC
  0
SECTION
  2
BLOCKS
  0
BLOCK
  8
0
  2
$MODEL_SPACE
 70
     0
 10
0.0
 20
0.0
 30
0.0
  3
$MODEL_SPACE
  1

  0
ENDBLK
  5
36
  8
0
  0
BLOCK
 67
     1
  8
0
  2
$PAPER_SPACE
 70
     0
 10
0.0
 20
0.0
 30
0.0
  3
$PAPER_SPACE
  1

  0
ENDBLK
  5
34
 67
     1
  8
0
  0
BLOCK
  8
0
  2
*S0
 70
     1
 10
0.0
 20
0.0
 30
0.0
  3
*S0
  1

  0
ENDBLK
  5
FA2
  8
0
  0
BLOCK
  8
0
  2
A$C5AA8101B
 70
     0
 10
0.0
 20
0.0
 30
0.0
  3
A$C5AA8101B
  1

  0
LINE
  5
3D63
  8
0
  6
CONTINUOUS
 62
     3
 10
78.0222423139175589
 20
0.0
 30
0.0
 11
-78.0222423139175589
 21
0.0
 31
0.0
210
0.0
220
1.0
230
-0.0000000000000002
  0
LINE
  5
3D64
  8
0
  6
CONTINUOUS
 62
     3
 10
86.7584447974061277
 20
360.0000000000001137
 30
-0.0000000000000799
 11
-86.7584447974061277
 21
360.0000000000001137
 31
-0.0000000000000799
210
0.0
220
1.0
230
-0.0000000000000002
  0
LINE
  5
3D65
  8
0
  6
CONTINUOUS
 62
     3
 10
-78.0222423139175589
 20
0.0
 30
0.0
 11
-79.5
 21
16.8908476427295717
 31
-0.0000000000000038
210
0.0
220
1.0
230
-0.0000000000000002
  0
LINE
  5
3D66
  8
0
  6
CONTINUOUS
 62
     3
 10
78.0222423139175589
 20
0.0
 30
0.0
 11
79.5
 21
16.8908476427295717
 31
-0.0000000000000038
210
0.0
220
1.0
230
-0.0000000000000002
  0
LINE
  5
3D67
  8
0
  6
CONTINUOUS
 62
     3
 10
-79.5
 20
16.8908476427295717
 30
-0.0000000000000038
 11
-79.5
 21
150.0
 31
-0.0000000000000333
210
0.0
220
1.0
230
-0.0000000000000002
  0
LINE
  5
3D68
  8
0
  6
CONTINUOUS
 62
     3
 10
-79.5
 20
254.000000000000199
 30
-0.0000000000000564
 11
-79.5
 21
272.472252085395894
 31
-0.0000000000000605
210
0.0
220
1.0
230
-0.0000000000000002
  0
LINE
  5
3D69
  8
0
  6
CONTINUOUS
 62
     3
 10
79.5
 20
16.8908476427295717
 30
-0.0000000000000038
 11
79.5
 21
150.0
 31
-0.0000000000000333
210
0.0
220
1.0
230
-0.0000000000000002
  0
LINE
  5
3D6A
  8
0
  6
CONTINUOUS
 62
     3
 10
79.5
 20
254.000000000000199
 30
-0.0000000000000564
 11
79.5
 21
272.472252085395894
 31
-0.0000000000000605
210
0.0
220
1.0
230
-0.0000000000000002
  0
ARC
  5
3D6B
  8
0
  6
CONTINUOUS
 62
     3
 10
-89.4999999999987352
 20
272.4722520853962919
 30
0.0
 40
9.9999999999987494
210
0.0
220
-0.0000000000000002
230
-1.0
 50
0.0
 51
34.771944031950369
  0
ARC
  5
3D6C
  8
0
  6
CONTINUOUS
 62
     3
 10
89.4999999999987352
 20
272.4722520853962919
 30
0.0
 40
9.9999999999987441
210
0.0
220
-0.0000000000000002
230
-1.0
 50
145.22805596805091
 51
180.0000000000015916
  0
ARC
  5
3D6D
  8
0
  6
CONTINUOUS
 62
     3
 10
-66.4999999999985221
 20
288.4409715080677188
 30
0.0
 40
18.0000000000014815
210
0.0
220
-0.0000000000000002
230
-1.0
 50
180.0000000000015916
 51
214.77194403194909
  0
ARC
  5
3D6E
  8
0
  6
CONTINUOUS
 62
     3
 10
66.4999999999985221
 20
288.4409715080677188
 30
0.0
 40
18.0000000000014815
210
0.0
220
-0.0000000000000002
230
-1.0
 50
325.2280559680510237
 51
359.9999999999984084
  0
LINE
  5
3D6F
  8
0
  6
CONTINUOUS
 62
     3
 10
-84.5000000000000142
 20
288.4409715080672072
 30
-0.000000000000064
 11
-84.5000000000000142
 21
303.5000000000002274
 31
-0.0000000000000674
210
0.0
220
1.0
230
-0.0000000000000002
  0
LINE
  5
3D70
  8
0
  6
CONTINUOUS
 62
     3
 10
84.5000000000000142
 20
288.4409715080672072
 30
-0.000000000000064
 11
84.5000000000000142
 21
303.5000000000002274
 31
-0.0000000000000674
210
0.0
220
1.0
230
-0.0000000000000002
  0
ARC
  5
3D71
  8
0
  6
CONTINUOUS
 62
     3
 10
-102.3798612710396014
 20
303.5294279677087275
 30
0.0
 40
17.8798854883611398
210
0.0
220
-0.0000000000000002
230
-1.0
 50
359.9056985509391211
 51
27.6214850696081911
  0
ARC
  5
3D72
  8
0
  6
CONTINUOUS
 62
     3
 10
102.3798612710396014
 20
303.5294279677087275
 30
0.0
 40
17.8798854883611398
210
0.0
220
-0.0000000000000002
230
-1.0
 50
152.3785149303917876
 51
180.0943014490607936
  0
ARC
  5
3D73
  8
0
  6
CONTINUOUS
 62
     3
 10
-55.7343380251569371
 20
327.9373944708465842
 30
0.0
 40
34.7656619748430629
210
0.0
220
-0.0000000000000002
230
-1.0
 50
180.0
 51
207.6214850696067913
  0
ARC
  5
3D74
  8
0
  6
CONTINUOUS
 62
     3
 10
55.7343380251569371
 20
327.9373944708465842
 30
0.0
 40
34.7656619748430629
210
0.0
220
-0.0000000000000002
230
-1.0
 50
332.378514930393294
 51
0.0
  0
LINE
  5
3D75
  8
0
  6
CONTINUOUS
 62
     3
 10
-90.5
 20
327.9373944708464137
 30
-0.0000000000000728
 11
-90.5
 21
344.2168957820665014
 31
-0.0000000000000764
210
0.0
220
1.0
230
-0.0000000000000002
  0
LINE
  5
3D76
  8
0
  6
CONTINUOUS
 62
     3
 10
90.5
 20
327.9373944708464137
 30
-0.0000000000000728
 11
90.5
 21
344.2168957820665014
 31
-0.0000000000000764
210
0.0
220
1.0
230
-0.0000000000000002
  0
ARC
  5
3D77
  8
0
  6
CONTINUOUS
 62
     3
 10
-55.5000000000488924
 20
344.2168957820774153
 30
0.0
 40
34.9999999999511076
210
0.0
220
-0.0000000000000002
230
-1.0
 50
154.9999999999890008
 51
180.0000000000179057
  0
ARC
  5
3D78
  8
0
  6
CONTINUOUS
 62
     3
 10
55.5000000000488924
 20
344.2168957820774153
 30
0.0
 40
34.9999999999511076
210
0.0
220
-0.0000000000000002
230
-1.0
 50
359.9999999999820943
 51
25.0000000000109601
  0
LINE
  5
3D79
  8
0
  6
CONTINUOUS
 62
     3
 10
86.7584447974061277
 20
360.0000000000001137
 30
-0.0000000000000799
 11
87.2207725462847066
 21
359.0085349429868984
 31
-0.0000000000000797
210
0.0
220
1.0
230
-0.0000000000000002
  0
LINE
  5
3D7A
  8
0
  6
CONTINUOUS
 62
     3
 10
-86.7584447974061277
 20
360.0000000000001137
 30
-0.0000000000000799
 11
-87.2207725462847066
 21
359.0085349429868984
 31
-0.0000000000000797
210
0.0
220
1.0
230
-0.0000000000000002
  0
LINE
  5
3D7B
  8
0
  6
CONTINUOUS
 62
     3
 10
-105.9999999999994031
 20
254.000000000000199
 30
-0.0000000000000564
 11
105.9999999999996021
 21
254.000000000000199
 31
-0.0000000000000564
210
0.0
220
1.0
230
-0.0000000000000002
  0
LINE
  5
3D7C
  8
0
  6
CONTINUOUS
 62
     3
 10
105.9999999999999005
 20
254.000000000000199
 30
-0.0000000000000564
 11
105.9999999999999005
 21
250.0
 31
-0.0000000000000555
210
0.0
220
1.0
230
-0.0000000000000002
  0
LINE
  5
3D7D
  8
0
  6
CONTINUOUS
 62
     3
 10
-105.9999999999996021
 20
254.000000000000199
 30
-0.0000000000000564
 11
-105.9999999999996021
 21
250.0
 31
-0.0000000000000555
210
0.0
220
1.0
230
-0.0000000000000002
  0
LINE
  5
3D7E
  8
0
  6
CONTINUOUS
 62
     3
 10
-109.5499999999997982
 20
150.0
 30
-0.0000000000000333
 11
109.5500000000000966
 21
150.0
 31
-0.0000000000000333
210
0.0
220
1.0
230
-0.0000000000000002
  0
LINE
  5
3D7F
  8
0
  6
CONTINUOUS
 62
     3
 10
-109.5499999999997982
 20
250.000000000000199
 30
-0.0000000000000555
 11
109.5500000000000966
 21
250.000000000000199
 31
-0.0000000000000555
210
0.0
220
1.0
230
-0.0000000000000002
  0
LINE
  5
3D80
  8
0
  6
CONTINUOUS
 62
     3
 10
109.5500000000000966
 20
250.000000000000199
 30
-0.0000000000000555
 11
109.5500000000000966
 21
150.0
 31
-0.0000000000000333
210
0.0
220
1.0
230
-0.0000000000000002
  0
LINE
  5
3D81
  8
0
  6
CONTINUOUS
 62
     3
 10
-109.5499999999997982
 20
250.000000000000199
 30
-0.0000000000000555
 11
-109.5499999999997982
 21
150.0
 31
-0.0000000000000333
210
0.0
220
1.0
230
-0.0000000000000002
  0
LINE
  5
3D82
  8
0
  6
VERDECKT
 62
     1
 10
75.5317555686879132
 20
0.2178893568691365
 30
0.0
 11
-75.5317555686879132
 21
0.2178893568691365
 31
0.0
210
0.0
220
1.0
230
-0.0000000000000002
  0
LINE
  5
3D83
  8
0
  6
VERDECKT
 62
     1
 10
84.477501539345667
 20
358.9759946443195986
 30
-0.0000000000000797
 11
-84.477501539345667
 21
358.9759946443195986
 31
-0.0000000000000797
210
0.0
220
1.0
230
-0.0000000000000002
  0
ARC
  5
3D84
  8
0
  6
VERDECKT
 62
     1
 10
-67.0000000000089813
 20
17.4366094290846014
 30
0.0
 40
9.9999999999910187
210
0.0
220
-0.0000000000000002
230
-1.0
 50
179.9999999999967031
 51
185.0000000000032969
  0
ARC
  5
3D85
  8
0
  6
VERDECKT
 62
     1
 10
67.0000000000089813
 20
17.4366094290846014
 30
0.0
 40
9.9999999999910152
210
0.0
220
-0.0000000000000002
230
-1.0
 50
354.9999999999968168
 51
0.0000000000032569
  0
LINE
  5
3D86
  8
0
  6
VERDECKT
 62
     1
 10
-77.0
 20
17.4366094290851414
 30
-0.0000000000000039
 11
-77.0
 21
272.472252085395894
 31
-0.0000000000000605
210
0.0
220
1.0
230
-0.0000000000000002
  0
LINE
  5
3D87
  8
0
  6
VERDECKT
 62
     1
 10
77.0
 20
17.4366094290851414
 30
-0.0000000000000039
 11
77.0
 21
272.472252085395894
 31
-0.0000000000000605
210
0.0
220
1.0
230
-0.0000000000000002
  0
LINE
  5
3D88
  8
0
  6
VERDECKT
 62
     1
 10
-75.5317555686879132
 20
0.2178893568691365
 30
0.0
 11
-76.9619469809174461
 21
16.5650520016083114
 31
-0.0000000000000037
210
0.0
220
1.0
230
-0.0000000000000002
  0
LINE
  5
3D89
  8
0
  6
VERDECKT
 62
     1
 10
75.5317555686879132
 20
0.2178893568691365
 30
0.0
 11
76.9619469809174461
 21
16.5650520016083114
 31
-0.0000000000000037
210
0.0
220
1.0
230
-0.0000000000000002
  0
LINE
  5
3D8A
  8
0
  6
VERDECKT
 62
     1
 10
84.4775015393455391
 20
358.9759946443194849
 30
-0.0000000000000797
 11
84.9550030786928119
 21
357.951989288635275
 31
-0.0000000000000795
210
0.0
220
1.0
230
-0.0000000000000002
  0
LINE
  5
3D8B
  8
0
  6
VERDECKT
 62
     1
 10
-84.4775015393455391
 20
358.9759946443194849
 30
-0.0000000000000797
 11
-84.9550030786928119
 21
357.951989288635275
 31
-0.0000000000000795
210
0.0
220
1.0
230
-0.0000000000000002
  0
ARC
  5
3D8C
  8
0
  6
VERDECKT
 62
     1
 10
-55.482163737790529
 20
344.2129415779331794
 30
0.0
 40
32.5178365026272189
210
0.0
220
-0.0000000000000002
230
-1.0
 50
155.0069672288603897
 51
179.9930327711469999
  0
ARC
  5
3D8D
  8
0
  6
VERDECKT
 62
     1
 10
55.482163737790529
 20
344.2129415779331794
 30
0.0
 40
32.5178365026272331
210
0.0
220
-0.0000000000000002
230
-1.0
 50
0.0069672288529312
 51
24.9930327711396316
  0
LINE
  5
3D8E
  8
0
  6
VERDECKT
 62
     1
 10
88.0000000000001137
 20
344.2168957820665014
 30
-0.0000000000000764
 11
88.0019723202420749
 21
327.9973015192823027
 31
-0.0000000000000728
210
0.0
220
1.0
230
-0.0000000000000002
  0
LINE
  5
3D8F
  8
0
  6
VERDECKT
 62
     1
 10
-88.0000000000001137
 20
344.2168957820665014
 30
-0.0000000000000764
 11
-88.0019723202420749
 21
327.9973015192823027
 31
-0.0000000000000728
210
0.0
220
1.0
230
-0.0000000000000002
  0
ARC
  5
3D90
  8
0
  6
VERDECKT
 62
     1
 10
-56.7961453169104971
 20
327.6829271971615754
 30
0.0
 40
31.2074105009733387
210
0.0
220
-0.0000000000000002
230
-1.0
 50
179.4228093194302005
 51
207.884313687372611
  0
ARC
  5
3D91
  8
0
  6
VERDECKT
 62
     1
 10
56.7961453169104971
 20
327.6829271971615754
 30
0.0
 40
31.2074105009733387
210
0.0
220
-0.0000000000000002
230
-1.0
 50
332.1156863126274743
 51
0.5771906805698058
  0
ARC
  5
3D92
  8
0
  6
VERDECKT
 62
     1
 10
-102.4999999999976978
 20
303.5000000000009095
 30
0.0
 40
20.4999999999977192
210
0.0
220
-0.0000000000000002
230
-1.0
 50
359.9999999999984084
 51
27.8843136873725506
  0
ARC
  5
3D93
  8
0
  6
VERDECKT
 62
     1
 10
102.4999999999976978
 20
303.5000000000007958
 30
0.0
 40
20.4999999999977298
210
0.0
220
-0.0000000000000002
230
-1.0
 50
152.115686312627389
 51
180.0000000000015916
  0
LINE
  5
3D94
  8
0
  6
VERDECKT
 62
     1
 10
-82.0
 20
288.4409715080672072
 30
-0.000000000000064
 11
-82.0
 21
303.5000000000002274
 31
-0.0000000000000674
210
0.0
220
1.0
230
-0.0000000000000002
  0
LINE
  5
3D95
  8
0
  6
VERDECKT
 62
     1
 10
82.0
 20
288.4409715080672072
 30
-0.000000000000064
 11
82.0
 21
303.5000000000002274
 31
-0.0000000000000674
210
0.0
220
1.0
230
-0.0000000000000002
  0
ARC
  5
3D96
  8
0
  6
VERDECKT
 62
     1
 10
-66.5000000000050022
 20
288.4409715080661272
 30
0.0
 40
15.4999999999952198
210
0.0
220
-0.0000000000000002
230
-1.0
 50
179.9999999999951115
 51
214.7719440319517048
  0
ARC
  5
3D97
  8
0
  6
VERDECKT
 62
     1
 10
66.5000000000050022
 20
288.4409715080661272
 30
0.0
 40
15.4999999999952092
210
0.0
220
-0.0000000000000002
230
-1.0
 50
325.2280559680482952
 51
0.0000000000048853
  0
ARC
  5
3D98
  8
0
  6
VERDECKT
 62
     1
 10
-89.5000000000024869
 20
272.4722520853950982
 30
0.0
 40
12.5000000000024993
210
0.0
220
-0.0000000000000002
230
-1.0
 50
0.0000000000032569
 51
34.7719440319490403
  0
ARC
  5
3D99
  8
0
  6
VERDECKT
 62
     1
 10
89.5000000000024869
 20
272.4722520853952119
 30
0.0
 40
12.5000000000024993
210
0.0
220
-0.0000000000000002
230
-1.0
 50
145.22805596805091
 51
179.9999999999967031
  0
LINE
  5
3D9A
  8
0
  6
VERDECKT
 62
     1
 10
75.5317555686879132
 20
0.2178893568691365
 30
0.0
 11
78.0222423139175589
 21
0.0
 31
0.0
210
0.0
220
1.0
230
-0.0000000000000002
  0
LINE
  5
3D9B
  8
0
  6
VERDECKT
 62
     1
 10
-75.5317555686879132
 20
0.2178893568691365
 30
0.0
 11
-78.0222423139175589
 21
0.0
 31
0.0
210
0.0
220
1.0
230
-0.0000000000000002
  0
LINE
  5
3D9C
  8
0
  6
VERDECKT
 62
     1
 10
-79.5
 20
150.0
 30
-0.0000000000000333
 11
-79.5
 21
254.000000000000199
 31
-0.0000000000000564
210
0.0
220
1.0
230
-0.0000000000000002
  0
LINE
  5
3D9D
  8
0
  6
VERDECKT
 62
     1
 10
79.5
 20
150.0
 30
-0.0000000000000333
 11
79.5
 21
254.000000000000199
 31
-0.0000000000000564
210
0.0
220
1.0
230
-0.0000000000000002
  0
LINE
  5
3D9E
  8
0
  6
VERDECKT
 62
     1
 10
-84.477501539345667
 20
358.9759946443195986
 30
-0.0000000000000797
 11
-86.7584447974061277
 21
360.0000000000001137
 31
-0.0000000000000799
210
0.0
220
1.0
230
-0.0000000000000002
  0
LINE
  5
3D9F
  8
0
  6
VERDECKT
 62
     1
 10
84.477501539345667
 20
358.9759946443195986
 30
-0.0000000000000797
 11
86.7584447974061277
 21
360.0000000000001137
 31
-0.0000000000000799
210
0.0
220
1.0
230
-0.0000000000000002
  0
LINE
  5
3DA0
  8
0
  6
VERDECKT
 62
     1
 10
80.5000000000001137
 20
254.0
 30
-0.0000000000000564
 11
80.5000000000001137
 21
250.0
 31
-0.0000000000000555
210
0.0
220
1.0
230
-0.0000000000000002
  0
LINE
  5
3DA1
  8
0
  6
VERDECKT
 62
     1
 10
-80.4999999999998863
 20
254.0
 30
-0.0000000000000564
 11
-80.4999999999998863
 21
250.0
 31
-0.0000000000000555
210
0.0
220
1.0
230
-0.0000000000000002
  0
LINE
  5
3DA2
  8
0
  6
VERDECKT
 62
     1
 10
100.7500000000000995
 20
250.0
 30
-0.0000000000000555
 11
100.7500000000000995
 21
150.0
 31
-0.0000000000000333
210
0.0
220
1.0
230
-0.0000000000000002
  0
LINE
  5
3DA3
  8
0
  6
VERDECKT
 62
     1
 10
-100.7499999999999005
 20
250.0
 30
-0.0000000000000555
 11
-100.7499999999999005
 21
150.0
 31
-0.0000000000000333
210
0.0
220
1.0
230
-0.0000000000000002
  0
ENDBLK
  5
3D4A
  8
0
  0
BLOCK
  8
0
  2
A$C2ACF5D17
 70
     0
 10
0.0
 20
0.0
 30
0.0
  3
A$C2ACF5D17
  1

  0
CIRCLE
  5
3DAB
  8
0
  6
CONTINUOUS
 62
     3
 10
0.0
 20
0.0
 30
0.0
 40
77.0
  0
CIRCLE
  5
3DAC
  8
0
  6
CONTINUOUS
 62
     3
 10
0.0
 20
0.0
 30
0.0
 40
75.5317555686879132
  0
CIRCLE
  5
3DAD
  8
0
  6
CONTINUOUS
 62
     3
 10
0.0
 20
0.0000000000000284
 30
0.0
 40
84.477501539345667
  0
CIRCLE
  5
3DAE
  8
0
  6
CONTINUOUS
 62
     3
 10
0.0
 20
0.0
 30
0.0
 40
82.0
  0
CIRCLE
  5
3DAF
  8
0
  6
CONTINUOUS
 62
     3
 10
0.0
 20
0.0000000000000284
 30
0.0
 40
90.5
  0
CIRCLE
  5
3DB0
  8
0
  6
CONTINUOUS
 62
     3
 10
0.0
 20
0.0000000000000284
 30
0.0
 40
86.7584447974061277
  0
CIRCLE
  5
3DB1
  8
0
  6
CONTINUOUS
 62
     3
 10
0.0000000000001137
 20
0.0
 30
0.0
 40
105.9999999999995026
  0
CIRCLE
  5
3DB2
  8
0
  6
CONTINUOUS
 62
     3
 10
0.0000000000001137
 20
0.0
 30
0.0
 40
109.5499999999998977
  0
CIRCLE
  5
3DB3
  8
0
  6
VERDECKT
 62
     1
 10
0.0
 20
0.0
 30
0.0
 40
78.0222423139175589
  0
CIRCLE
  5
3DB4
  8
0
  6
VERDECKT
 62
     1
 10
0.0
 20
0.0
 30
0.0
 40
79.5
  0
CIRCLE
  5
3DB5
  8
0
  6
VERDECKT
 62
     1
 10
0.0
 20
0.0
 30
0.0
 40
84.5000000000000142
  0
CIRCLE
  5
3DB6
  8
0
  6
VERDECKT
 62
     1
 10
0.0
 20
0.0
 30
0.0
 40
88.0035558178838215
  0
CIRCLE
  5
3DB7
  8
0
  6
VERDECKT
 62
     1
 10
0.0
 20
0.0
 30
0.0
 40
84.4999757826785185
  0
CIRCLE
  5
3DB8
  8
0
  6
VERDECKT
 62
     1
 10
0.0000000000001137
 20
0.0
 30
0.0
 40
80.5
  0
CIRCLE
  5
3DB9
  8
0
  6
VERDECKT
 62
     1
 10
0.0000000000001137
 20
0.0
 30
0.0
 40
100.75
  0
ENDBLK
  5
3D5E
  8
0
  0
ENDSEC
  0
SECTION
  2
ENTITIES
  0
TEXT
  5
8F
  8
VOLL
 10
78.076754716981128
 20
31.025947764705851
 30
0.0
 40
1.8
  1

  7
GREEKS
  0
INSERT
  5
FA4
  8
ADSK_ASSOC_ENTITY_BACKUPS
  2
*S0
 10
0.0
 20
0.0
 30
0.0
  0
INSERT
  5
3D4B
  8
ROHR
  2
A$C5AA8101B
 10
0.0
 20
0.0
 30
0.0
  0
INSERT
  5
3D5F
  8
ROHR
  2
A$C2ACF5D17
 10
0.0
 20
-209.5499999999998977
 30
0.0
  0
VIEWPORT
  5
702
 67
     1
  8
0
 10
99.9595808982848837
 20
142.0247198271484024
 30
0.0
 40
557.5441164704363928
 41
298.4396363082536254
 68
     1
 69
     1
1001
ACAD
1000
MVIEW
1002
{
1070
    16
1010
0.0
1020
0.0
1030
0.0
1010
0.0
1020
0.0
1030
1.0
1040
0.0
1040
298.4396363082536254
1040
99.9595808982848837
1040
142.0247198271484024
1040
50.0
1040
0.0
1040
0.0
1070
     0
1070
  1500
1070
     1
1070
     1
1070
     0
1070
     0
1070
     0
1070
     0
1040
0.0
1040
0.0
1040
0.0
1040
10.0
1040
10.0
1040
10.0
1040
10.0
1070
     0
1002
{
1002
}
1002
}
1001
GENIUS_GENOBJ-N-SDF_13
1002
{
1000
OWNER
1000
GEN
1002
}
1001
GENIUS_GENODEF_13
1002
{
1000
HIER
1070
     0
1002
}
1002
{
1000
MANEDIT
1070
     0
1002
}
1002
{
1000
NOSEL
1070
     0
1002
}
1002
{
1000
BEHIND
1070
     0
1002
}
1002
{
1000
OTHER
1070
     0
1002
}
1002
{
1000
REACTOR
1002
}
1001
GENIUS_GENSCREG_15
1000
PF
1040
1.0
1000
DF
1040
1.0
1000
MIN
1011
-207.3191491654038998
1021
0.0
1031
0.0
1021
-3.8831756957623038
1031
0.0
1000
MAX
1011
537.3186939342559754
1021
0.0
1031
0.0
1021
323.7401177426078789
1031
0.0
1000
FLAGS
1070
     4
  0
ENDSEC
  0
EOF
