  0
SECTION
  2
HEADER
  9
$ACADVER
  1
AC1009
  9
$INSBASE
 10
0.0
 20
0.0
 30
0.0
  9
$EXTMIN
 10
-161.0
 20
-80.0
 30
-0.0000000000000357
  9
$EXTMAX
 10
276.7963173813404865
 20
32.8000000000001606
 30
0.6
  9
$LIMMIN
 10
0.0
 20
0.0
  9
$LIMMAX
 10
419.9999999999998863
 20
594.0
  9
$ORTHOMODE
 70
     1
  9
$REGENMODE
 70
     1
  9
$FILLMODE
 70
     1
  9
$QTEXTMODE
 70
     0
  9
$MIRRTEXT
 70
     1
  9
$DRAGMODE
 70
     2
  9
$LTSCALE
 40
20.0
  9
$OSMODE
 70
   183
  9
$ATTMODE
 70
     1
  9
$TEXTSIZE
 40
3.5
  9
$TRACEWID
 40
0.5
  9
$TEXTSTYLE
  7
STANDARD
  9
$CLAYER
  8
STEMPEL
  9
$CELTYPE
  6
BYLAYER
  9
$CECOLOR
 62
   256
  9
$DIMSCALE
 40
1.0
  9
$DIMASZ
 40
3.5
  9
$DIMEXO
 40
1.0
  9
$DIMDLI
 40
7.0
  9
$DIMRND
 40
0.0
  9
$DIMDLE
 40
0.0
  9
$DIMEXE
 40
1.0
  9
$DIMTP
 40
0.0
  9
$DIMTM
 40
0.0
  9
$DIMTXT
 40
3.5
  9
$DIMCEN
 40
1.5
  9
$DIMTSZ
 40
0.0
  9
$DIMTOL
 70
     0
  9
$DIMLIM
 70
     0
  9
$DIMTIH
 70
     0
  9
$DIMTOH
 70
     0
  9
$DIMSE1
 70
     0
  9
$DIMSE2
 70
     0
  9
$DIMTAD
 70
     1
  9
$DIMZIN
 70
     8
  9
$DIMBLK
  1

  9
$DIMASO
 70
     1
  9
$DIMSHO
 70
     0
  9
$DIMPOST
  1

  9
$DIMAPOST
  1

  9
$DIMALT
 70
     0
  9
$DIMALTD
 70
     2
  9
$DIMALTF
 40
25.3999999999999986
  9
$DIMLFAC
 40
2.5
  9
$DIMTOFL
 70
     1
  9
$DIMTVP
 40
0.0
  9
$DIMTIX
 70
     0
  9
$DIMSOXD
 70
     0
  9
$DIMSAH
 70
     0
  9
$DIMBLK1
  1

  9
$DIMBLK2
  1

  9
$DIMSTYLE
  2
STANDARD
  9
$DIMCLRD
 70
     0
  9
$DIMCLRE
 70
     0
  9
$DIMCLRT
 70
     1
  9
$DIMTFAC
 40
0.5142857142857143
  9
$DIMGAP
 40
1.0
  9
$LUNITS
 70
     2
  9
$LUPREC
 70
     2
  9
$SKETCHINC
 40
1.0
  9
$FILLETRAD
 40
10.0
  9
$AUNITS
 70
     0
  9
$AUPREC
 70
     0
  9
$MENU
  1
ACAD
  9
$ELEVATION
 40
0.0
  9
$PELEVATION
 40
0.0
  9
$THICKNESS
 40
0.0
  9
$LIMCHECK
 70
     0
  9
$BLIPMODE
 70
     0
  9
$CHAMFERA
 40
20.0
  9
$CHAMFERB
 40
20.0
  9
$SKPOLY
 70
     0
  9
$TDCREATE
 40
2452618.335555556230247
  9
$TDUPDATE
 40
2458387.5310532408766448
  9
$TDINDWG
 40
0.2537158912
  9
$TDUSRTIMER
 40
0.2537158912
  9
$USRTIMER
 70
     1
  9
$ANGBASE
 50
0.0
  9
$ANGDIR
 70
     0
  9
$PDMODE
 70
     0
  9
$PDSIZE
 40
0.0
  9
$PLINEWID
 40
0.0
  9
$COORDS
 70
     1
  9
$SPLFRAME
 70
     0
  9
$SPLINETYPE
 70
     6
  9
$SPLINESEGS
 70
     8
  9
$ATTDIA
 70
     1
  9
$ATTREQ
 70
     1
  9
$HANDLING
 70
     1
  9
$HANDSEED
  5
1B70
  9
$SURFTAB1
 70
     6
  9
$SURFTAB2
 70
     6
  9
$SURFTYPE
 70
     6
  9
$SURFU
 70
     6
  9
$SURFV
 70
     6
  9
$UCSNAME
  2

  9
$UCSORG
 10
0.0
 20
0.0
 30
0.0
  9
$UCSXDIR
 10
1.0
 20
0.0
 30
0.0
  9
$UCSYDIR
 10
0.0
 20
1.0
 30
0.0
  9
$PUCSNAME
  2

  9
$PUCSORG
 10
0.0
 20
0.0
 30
0.0
  9
$PUCSXDIR
 10
1.0
 20
0.0
 30
0.0
  9
$PUCSYDIR
 10
0.0
 20
1.0
 30
0.0
  9
$USERI1
 70
     0
  9
$USERI2
 70
     0
  9
$USERI3
 70
     0
  9
$USERI4
 70
     0
  9
$USERI5
 70
     0
  9
$USERR1
 40
0.0
  9
$USERR2
 40
0.0
  9
$USERR3
 40
0.0
  9
$USERR4
 40
0.0
  9
$USERR5
 40
0.0
  9
$WORLDVIEW
 70
     1
  9
$SHADEDGE
 70
     3
  9
$SHADEDIF
 70
    70
  9
$TILEMODE
 70
     1
  9
$MAXACTVP
 70
    16
  9
$PLIMCHECK
 70
     0
  9
$PEXTMIN
 10
-0.0123546396990833
 20
-0.0109705369939093
 30
-8.1261271302300884
  9
$PEXTMAX
 10
198.7451793502399084
 20
290.9545393600154739
 30
2069.7818840731752061
  9
$PLIMMIN
 10
-5.0737240221584514
 20
-2.2332174920145582
  9
$PLIMMAX
 10
203.806547760024813
 20
293.1767849394261134
  9
$UNITMODE
 70
     0
  9
$VISRETAIN
 70
     0
  9
$PLINEGEN
 70
     0
  9
$PSLTSCALE
 70
     0
  0
ENDSEC
  0
SECTION
  2
TABLES
  0
TABLE
  2
VPORT
 70
     1
  0
VPORT
  2
*ACTIVE
 70
     0
 10
0.0
 20
0.0
 11
1.0
 21
1.0
 12
0.0
 22
0.0
 13
0.0
 23
0.0
 14
1.0
 24
1.0
 15
20.0
 25
20.0
 16
-0.0000000000008384
 26
0.0
 36
606.2159988168526752
 17
40.0659882895093489
 27
-40.6764147646094898
 37
0.3000000119206842
 40
244.9638196033137092
 41
1.8224299065420559
 42
50.0
 43
0.0
 44
0.0
 50
0.0
 51
0.0
 71
     0
 72
  1500
 73
     1
 74
     0
 75
     0
 76
     0
 77
     0
 78
     0
  0
ENDTAB
  0
TABLE
  2
LTYPE
 70
     6
  0
LTYPE
  2
CONTINUOUS
 70
     0
  3
Solid line
 72
    65
 73
     0
 40
0.0
  0
LTYPE
  2
VERDECKT
 70
     0
  3
Verdeckt __ __ __ __ __ __ __ __ __ __ __ __ __
 72
    65
 73
     2
 40
0.375
 49
0.25
 49
-0.125
  0
ENDTAB
  0
TABLE
  2
LAYER
 70
    14
  0
LAYER
  2
0
 70
     0
 62
     7
  6
CONTINUOUS
  0
LAYER
  2
STEMPEL
 70
     0
 62
     3
  6
CONTINUOUS
  0
LAYER
  2
ADSK_ASSOC_ENTITY_BACKUPS
 70
     1
 62
    -7
  6
CONTINUOUS
  0
ENDTAB
  0
TABLE
  2
STYLE
 70
     4
  0
STYLE
  2
STANDARD
 70
     0
 40
0.0
 41
0.8
 50
0.0
 71
     0
 42
3.5
  3
simplex.shx
  4

  0
ENDTAB
  0
TABLE
  2
VIEW
 70
     1
  0
ENDTAB
  0
TABLE
  2
UCS
 70
     0
  0
ENDTAB
  0
TABLE
  2
APPID
 70
    20
  0
APPID
  2
ACAD
 70
     0
  0
APPID
  2
ACAD_EXEMPT_FROM_CAD_STANDARDS
 70
     0
  0
APPID
  2
ACAD_NAV_VCDISPLAY
 70
     0
  0
APPID
  2
ACAD_PSEXT
 70
     0
  0
APPID
  2
ACAECLAYERSTANDARD
 70
     0
  0
APPID
  2
ACADANNOPO
 70
     0
  0
APPID
  2
ACCMTRANSPARENCY
 70
     0
  0
APPID
  2
ACAD_DSTYLE_DIMJAG
 70
     0
  0
APPID
  2
ACAD_DSTYLE_DIMTALN
 70
     0
  0
APPID
  2
ACSYNERGY
 70
     0
  0
APPID
  2
SYNERGY_BODY_TBR_ID
 70
     0
  0
APPID
  2
ACAD_VIEW_EDGE_ID
 70
     0
  0
APPID
  2
ACAD_DIMASSOC_CALC_DIMLFAC
 70
     0
  0
APPID
  2
ACAD_DIMASSOC_DIMLFAC
 70
     0
  0
APPID
  2
ACAD_DIMASSOC_OVERRIDDEN_D
 70
     0
  0
APPID
  2
ACADANNOMONITORALERTICONDI
 70
     0
  0
APPID
  2
ACAD_DSTYLE_DIMRADIAL_EXTENSION
 70
     0
  0
APPID
  2
PLOTTRANSPARENCY
 70
     0
  0
APPID
  2
ACAD_MLEADERVER
 70
     0
  0
APPID
  2
AcDbAttr
 70
     0
  0
ENDTAB
  0
TABLE
  2
DIMSTYLE
 70
     2
  0
DIMSTYLE
  2
STANDARD
 70
     0
  3

  4

  5

  6

  7

 40
1.0
 41
0.18
 42
0.0625
 43
0.38
 44
0.18
 45
0.0
 46
0.0
 47
0.0
 48
0.0
140
0.18
141
0.09
142
0.0
143
25.3999999999999986
144
1.0
145
0.0
146
1.0
147
0.09
 71
     0
 72
     0
 73
     1
 74
     1
 75
     0
 76
     0
 77
     0
 78
     0
170
     0
171
     2
172
     0
173
     0
174
     0
175
     0
176
     0
177
     0
178
     0
  0
ENDTAB
  0
ENDSEC
  0
SECTION
  2
BLOCKS
  0
BLOCK
  8
0
  2
$MODEL_SPACE
 70
     0
 10
0.0
 20
0.0
 30
0.0
  3
$MODEL_SPACE
  1

  0
ENDBLK
  5
45
  8
0
  0
BLOCK
 67
     1
  8
0
  2
$PAPER_SPACE
 70
     0
 10
0.0
 20
0.0
 30
0.0
  3
$PAPER_SPACE
  1

  0
ENDBLK
  5
43
 67
     1
  8
0
  0
BLOCK
  8
0
  2
*S4
 70
     1
 10
0.0
 20
0.0
 30
0.0
  3
*S4
  1

  0
ENDBLK
  5
A06
  8
0
  0
BLOCK
  8
0
  2
A$C108B039C
 70
     0
 10
0.0
 20
0.0
 30
0.0
  3
A$C108B039C
  1

  0
CIRCLE
  5
19C9
  8
0
  6
CONTINUOUS
 62
     3
 10
-151.0
 20
-0.0000000000000009
 30
0.0000000000000335
 40
3.5
  0
CIRCLE
  5
19CA
  8
0
  6
CONTINUOUS
 62
     3
 10
-93.9999999999998863
 20
17.5
 30
0.0000000000000209
 40
2.5
  0
CIRCLE
  5
19CB
  8
0
  6
CONTINUOUS
 62
     3
 10
94.0000000000001137
 20
17.5
 30
-0.0000000000000209
 40
2.5
  0
CIRCLE
  5
19CC
  8
0
  6
CONTINUOUS
 62
     3
 10
0.0000000000001136
 20
17.5
 30
0.0
 40
2.5
  0
CIRCLE
  5
19CD
  8
0
  6
CONTINUOUS
 62
     3
 10
0.0
 20
-17.5
 30
0.0
 40
2.5
  0
CIRCLE
  5
19CE
  8
0
  6
CONTINUOUS
 62
     3
 10
94.0
 20
-17.5
 30
-0.0000000000000209
 40
2.5
  0
CIRCLE
  5
19CF
  8
0
  6
CONTINUOUS
 62
     3
 10
-94.0
 20
-17.5
 30
0.0000000000000209
 40
2.5
  0
CIRCLE
  5
19D0
  8
0
  6
CONTINUOUS
 62
     3
 10
151.0
 20
0.0000000000000009
 30
-0.0000000000000335
 40
3.5
  0
LINE
  5
19D1
  8
0
  6
CONTINUOUS
 62
     3
 10
-136.8578643762689921
 20
-32.5
 30
0.0000000000000304
 11
136.8578643762689069
 21
-32.5
 31
-0.0000000000000304
  0
ARC
  5
19D2
  8
0
  6
CONTINUOUS
 62
     3
 10
-136.8578643762691058
 20
-22.5000000000001101
 30
0.0000000000000304
 40
9.9999999999998828
 50
224.999999999999801
 51
270.0000000000002842
  0
LINE
  5
19D3
  8
0
  6
CONTINUOUS
 62
     3
 10
-158.0710678118653902
 20
-15.4289321881344392
 30
0.0000000000000351
 11
-143.9289321881344961
 21
-29.5710678118654791
 31
0.0000000000000319
  0
ARC
  5
19D4
  8
0
  6
CONTINUOUS
 62
     3
 10
-150.999999999999801
 20
-8.3578643762688571
 30
0.0000000000000335
 40
10.0000000000002007
 50
180.0000000000003979
 51
224.9999999999996874
  0
LINE
  5
19D5
  8
0
  6
CONTINUOUS
 62
     3
 10
-161.0
 20
8.3578643762691627
 30
0.0000000000000357
 11
-161.0
 21
-8.3578643762689353
 31
0.0000000000000357
  0
ARC
  5
19D6
  8
0
  6
CONTINUOUS
 62
     3
 10
-150.999999999999801
 20
8.3578643762690845
 30
0.0000000000000335
 40
10.0000000000001901
 50
135.000000000000199
 51
179.9999999999994884
  0
LINE
  5
19D7
  8
0
  6
CONTINUOUS
 62
     3
 10
-143.9289321881344961
 20
29.571067811865511
 30
0.000000000000032
 11
-158.0710678118653902
 21
15.4289321881346702
 31
0.0000000000000351
  0
ARC
  5
19D8
  8
0
  6
CONTINUOUS
 62
     3
 10
-136.8578643762689921
 20
22.4999999999998401
 30
0.0000000000000304
 40
10.0000000000001599
 50
90.0000000000003268
 51
134.9999999999992895
  0
LINE
  5
19D9
  8
0
  6
CONTINUOUS
 62
     3
 10
136.8578643762689069
 20
32.4999999999999716
 30
-0.0000000000000304
 11
-136.8578643762689921
 21
32.5
 31
0.0000000000000304
  0
ARC
  5
19DA
  8
0
  6
CONTINUOUS
 62
     3
 10
136.8578643762689069
 20
22.4999999999999183
 30
-0.0000000000000304
 40
10.0000000000000497
 50
45.0000000000000924
 51
90.0000000000000284
  0
LINE
  5
19DB
  8
0
  6
CONTINUOUS
 62
     3
 10
158.0710678118655039
 20
15.4289321881345494
 30
-0.0000000000000351
 11
143.9289321881344108
 21
29.5710678118654506
 31
-0.0000000000000319
  0
ARC
  5
19DC
  8
0
  6
CONTINUOUS
 62
     3
 10
151.000000000000199
 20
8.3578643762692373
 30
-0.0000000000000335
 40
9.999999999999801
 50
359.9999999999996021
 51
44.9999999999997868
  0
LINE
  5
19DD
  8
0
  6
CONTINUOUS
 62
     3
 10
161.0
 20
-8.3578643762689353
 30
-0.0000000000000357
 11
161.0
 21
8.3578643762691627
 31
-0.0000000000000357
  0
ARC
  5
19DE
  8
0
  6
CONTINUOUS
 62
     3
 10
150.9999999999998863
 20
-8.3578643762689637
 30
-0.0000000000000335
 40
10.0
 50
315.0
 51
0.0000000000001654
  0
LINE
  5
19DF
  8
0
  6
CONTINUOUS
 62
     3
 10
143.9289321881344108
 20
-29.571067811865511
 30
-0.000000000000032
 11
158.0710678118653902
 21
-15.4289321881344392
 31
-0.0000000000000351
  0
ARC
  5
19E0
  8
0
  6
CONTINUOUS
 62
     3
 10
136.8578643762689069
 20
-22.4999999999998401
 30
-0.0000000000000304
 40
10.0000000000001599
 50
270.0
 51
314.9999999999989768
  0
ENDBLK
  5
19E2
  8
0
  0
BLOCK
  8
0
  2
A$C21690754
 70
     0
 10
0.0
 20
0.0
 30
0.0
  3
A$C21690754
  1

  0
LINE
  5
19E6
  8
0
  6
CONTINUOUS
 62
     3
 10
32.5
 20
0.0000000000000072
 30
0.0
 11
32.5
 21
0.6000000000000075
 31
-0.0000000000000001
210
-0.0000000000000002
220
1.0
230
-0.0000000000000002
  0
LINE
  5
19E7
  8
0
  6
CONTINUOUS
 62
     3
 10
32.5
 20
0.0000000000000072
 30
0.0
 11
29.5710678118654791
 21
0.0000000000000066
 31
0.0
210
-0.0000000000000002
220
1.0
230
-0.0000000000000002
  0
LINE
  5
19E8
  8
0
  6
CONTINUOUS
 62
     3
 10
32.5
 20
0.6000000000000075
 30
-0.0000000000000001
 11
29.5710678118654791
 21
0.6000000000000068
 31
-0.0000000000000001
210
-0.0000000000000002
220
1.0
230
-0.0000000000000002
  0
LINE
  5
19E9
  8
0
  6
CONTINUOUS
 62
     3
 10
15.4289321881344392
 20
0.0000000000000034
 30
0.0
 11
29.5710678118654791
 21
0.0000000000000066
 31
0.0
210
-0.0000000000000002
220
1.0
230
-0.0000000000000002
  0
LINE
  5
19EA
  8
0
  6
CONTINUOUS
 62
     3
 10
15.4289321881344392
 20
0.6000000000000038
 30
-0.0000000000000001
 11
29.5710678118654791
 21
0.6000000000000068
 31
-0.0000000000000001
210
-0.0000000000000002
220
1.0
230
-0.0000000000000002
  0
LINE
  5
19EB
  8
0
  6
CONTINUOUS
 62
     3
 10
15.4289321881344392
 20
0.0000000000000034
 30
0.0
 11
8.3578643762689371
 21
0.0000000000000019
 31
0.0
210
-0.0000000000000002
220
1.0
230
-0.0000000000000002
  0
LINE
  5
19EC
  8
0
  6
CONTINUOUS
 62
     3
 10
15.4289321881344392
 20
0.6000000000000038
 30
-0.0000000000000001
 11
8.3578643762689371
 21
0.6000000000000022
 31
-0.0000000000000001
210
-0.0000000000000002
220
1.0
230
-0.0000000000000002
  0
LINE
  5
19ED
  8
0
  6
CONTINUOUS
 62
     3
 10
-8.3578643762691645
 20
-0.0000000000000019
 30
0.0
 11
8.3578643762689371
 21
0.0000000000000019
 31
0.0
210
-0.0000000000000002
220
1.0
230
-0.0000000000000002
  0
LINE
  5
19EE
  8
0
  6
CONTINUOUS
 62
     3
 10
-8.3578643762691645
 20
0.5999999999999984
 30
-0.0000000000000001
 11
8.3578643762689371
 21
0.6000000000000022
 31
-0.0000000000000001
210
-0.0000000000000002
220
1.0
230
-0.0000000000000002
  0
LINE
  5
19EF
  8
0
  6
CONTINUOUS
 62
     3
 10
-8.3578643762691645
 20
-0.0000000000000019
 30
0.0
 11
-15.4289321881346702
 21
-0.0000000000000034
 31
0.0
210
-0.0000000000000002
220
1.0
230
-0.0000000000000002
  0
LINE
  5
19F0
  8
0
  6
CONTINUOUS
 62
     3
 10
-8.3578643762691645
 20
0.5999999999999984
 30
-0.0000000000000001
 11
-15.4289321881346702
 21
0.5999999999999968
 31
-0.0000000000000001
210
-0.0000000000000002
220
1.0
230
-0.0000000000000002
  0
LINE
  5
19F1
  8
0
  6
CONTINUOUS
 62
     3
 10
-29.571067811865511
 20
-0.0000000000000066
 30
0.0
 11
-15.4289321881346702
 21
-0.0000000000000034
 31
0.0
210
-0.0000000000000002
220
1.0
230
-0.0000000000000002
  0
LINE
  5
19F2
  8
0
  6
CONTINUOUS
 62
     3
 10
-29.571067811865511
 20
0.5999999999999936
 30
-0.0000000000000001
 11
-15.4289321881346702
 21
0.5999999999999968
 31
-0.0000000000000001
210
-0.0000000000000002
220
1.0
230
-0.0000000000000002
  0
LINE
  5
19F3
  8
0
  6
CONTINUOUS
 62
     3
 10
-29.5710678118655217
 20
-0.0000000000000066
 30
0.0
 11
-32.5000000000000071
 21
-0.0000000000000072
 31
0.0
210
-0.0000000000000002
220
1.0
230
-0.0000000000000002
  0
LINE
  5
19F4
  8
0
  6
CONTINUOUS
 62
     3
 10
-29.5710678118655217
 20
0.5999999999999936
 30
-0.0000000000000001
 11
-32.5000000000000071
 21
0.599999999999993
 31
-0.0000000000000001
210
-0.0000000000000002
220
1.0
230
-0.0000000000000002
  0
LINE
  5
19F5
  8
0
  6
CONTINUOUS
 62
     3
 10
-32.5000000000000071
 20
-0.0000000000000072
 30
0.0
 11
-32.5000000000000071
 21
0.599999999999993
 31
-0.0000000000000001
210
-0.0000000000000002
220
1.0
230
-0.0000000000000002
  0
LINE
  5
19F6
  8
0
  6
VERDECKT
 62
     1
 10
-3.5
 20
-0.0000000000000008
 30
0.0
 11
-3.5
 21
0.5999999999999995
 31
-0.0000000000000001
210
-0.0000000000000002
220
1.0
230
-0.0000000000000002
  0
LINE
  5
19F7
  8
0
  6
VERDECKT
 62
     1
 10
3.5000000000000009
 20
0.0000000000000008
 30
0.0
 11
3.5000000000000009
 21
0.600000000000001
 31
-0.0000000000000001
210
-0.0000000000000002
220
1.0
230
-0.0000000000000002
  0
LINE
  5
19F8
  8
0
  6
VERDECKT
 62
     1
 10
-20.0
 20
-0.0000000000000044
 30
0.0
 11
-20.0
 21
0.5999999999999958
 31
-0.0000000000000001
210
-0.0000000000000002
220
1.0
230
-0.0000000000000002
  0
LINE
  5
19F9
  8
0
  6
VERDECKT
 62
     1
 10
-15.0
 20
-0.0000000000000033
 30
0.0
 11
-15.0
 21
0.5999999999999969
 31
-0.0000000000000001
210
-0.0000000000000002
220
1.0
230
-0.0000000000000002
  0
LINE
  5
19FA
  8
0
  6
VERDECKT
 62
     1
 10
15.0
 20
0.0000000000000033
 30
0.0
 11
15.0
 21
0.6000000000000036
 31
-0.0000000000000001
210
-0.0000000000000002
220
1.0
230
-0.0000000000000002
  0
LINE
  5
19FB
  8
0
  6
VERDECKT
 62
     1
 10
20.0
 20
0.0000000000000044
 30
0.0
 11
20.0
 21
0.6000000000000048
 31
-0.0000000000000001
210
-0.0000000000000002
220
1.0
230
-0.0000000000000002
  0
ENDBLK
  5
19FD
  8
0
  0
BLOCK
  8
0
  2
A$C31F341C6
 70
     0
 10
0.0
 20
0.0
 30
0.0
  3
A$C31F341C6
  1

  0
LINE
  5
1A01
  8
0
  6
CONTINUOUS
 62
     3
 10
-136.8578643762689921
 20
0.0
 30
0.0
 11
136.8578643762689069
 21
0.0
 31
0.0
210
0.0
220
1.0
230
-0.0000000000000002
  0
LINE
  5
1A02
  8
0
  6
CONTINUOUS
 62
     3
 10
-136.8578643762689921
 20
0.6000000000000001
 30
-0.0000000000000001
 11
136.8578643762689069
 21
0.6000000000000001
 31
-0.0000000000000001
210
0.0
220
1.0
230
-0.0000000000000002
  0
LINE
  5
1A03
  8
0
  6
CONTINUOUS
 62
     3
 10
-136.8578643762689921
 20
0.0
 30
0.0
 11
-143.9289321881344961
 21
0.0
 31
0.0
210
0.0
220
1.0
230
-0.0000000000000002
  0
LINE
  5
1A04
  8
0
  6
CONTINUOUS
 62
     3
 10
-136.8578643762689921
 20
0.6000000000000001
 30
-0.0000000000000001
 11
-143.9289321881344961
 21
0.6000000000000001
 31
-0.0000000000000001
210
0.0
220
1.0
230
-0.0000000000000002
  0
LINE
  5
1A05
  8
0
  6
CONTINUOUS
 62
     3
 10
-158.0710678118653902
 20
0.0
 30
0.0
 11
-143.9289321881344961
 21
0.0
 31
0.0
210
0.0
220
1.0
230
-0.0000000000000002
  0
LINE
  5
1A06
  8
0
  6
CONTINUOUS
 62
     3
 10
-158.0710678118653902
 20
0.6000000000000001
 30
-0.0000000000000001
 11
-143.9289321881344961
 21
0.6000000000000001
 31
-0.0000000000000001
210
0.0
220
1.0
230
-0.0000000000000002
  0
LINE
  5
1A07
  8
0
  6
CONTINUOUS
 62
     3
 10
-158.0710678118653902
 20
0.0
 30
0.0
 11
-161.0
 21
0.0
 31
0.0
210
0.0
220
1.0
230
-0.0000000000000002
  0
LINE
  5
1A08
  8
0
  6
CONTINUOUS
 62
     3
 10
-158.0710678118653902
 20
0.6000000000000001
 30
-0.0000000000000001
 11
-161.0
 21
0.6000000000000001
 31
-0.0000000000000001
210
0.0
220
1.0
230
-0.0000000000000002
  0
LINE
  5
1A09
  8
0
  6
CONTINUOUS
 62
     3
 10
-161.0
 20
0.0
 30
0.0
 11
-161.0
 21
0.6000000000000001
 31
-0.0000000000000001
210
0.0
220
1.0
230
-0.0000000000000002
  0
LINE
  5
1A0A
  8
0
  6
CONTINUOUS
 62
     3
 10
161.0
 20
0.0
 30
0.0
 11
161.0
 21
0.6000000000000001
 31
-0.0000000000000001
210
0.0
220
1.0
230
-0.0000000000000002
  0
LINE
  5
1A0B
  8
0
  6
CONTINUOUS
 62
     3
 10
160.9999999999998863
 20
0.0
 30
0.0
 11
158.0710678118653902
 21
0.0
 31
0.0
210
0.0
220
1.0
230
-0.0000000000000002
  0
LINE
  5
1A0C
  8
0
  6
CONTINUOUS
 62
     3
 10
160.9999999999998863
 20
0.6000000000000001
 30
-0.0000000000000001
 11
158.0710678118653902
 21
0.6000000000000001
 31
-0.0000000000000001
210
0.0
220
1.0
230
-0.0000000000000002
  0
LINE
  5
1A0D
  8
0
  6
CONTINUOUS
 62
     3
 10
143.9289321881344108
 20
0.0
 30
0.0
 11
158.0710678118653902
 21
0.0
 31
0.0
210
0.0
220
1.0
230
-0.0000000000000002
  0
LINE
  5
1A0E
  8
0
  6
CONTINUOUS
 62
     3
 10
143.9289321881344108
 20
0.6000000000000001
 30
-0.0000000000000001
 11
158.0710678118653902
 21
0.6000000000000001
 31
-0.0000000000000001
210
0.0
220
1.0
230
-0.0000000000000002
  0
LINE
  5
1A0F
  8
0
  6
CONTINUOUS
 62
     3
 10
143.9289321881344108
 20
0.0
 30
0.0
 11
136.8578643762689069
 21
0.0
 31
0.0
210
0.0
220
1.0
230
-0.0000000000000002
  0
LINE
  5
1A10
  8
0
  6
CONTINUOUS
 62
     3
 10
143.9289321881344108
 20
0.6000000000000001
 30
-0.0000000000000001
 11
136.8578643762689069
 21
0.6000000000000001
 31
-0.0000000000000001
210
0.0
220
1.0
230
-0.0000000000000002
  0
LINE
  5
1A11
  8
0
  6
VERDECKT
 62
     1
 10
-154.5
 20
0.0
 30
0.0
 11
-154.5
 21
0.6000000000000001
 31
-0.0000000000000001
210
0.0
220
1.0
230
-0.0000000000000002
  0
LINE
  5
1A12
  8
0
  6
VERDECKT
 62
     1
 10
-147.5
 20
0.0
 30
0.0
 11
-147.5
 21
0.6000000000000001
 31
-0.0000000000000001
210
0.0
220
1.0
230
-0.0000000000000002
  0
LINE
  5
1A13
  8
0
  6
VERDECKT
 62
     1
 10
-2.5
 20
0.0
 30
0.0
 11
-2.5
 21
0.6000000000000001
 31
-0.0000000000000001
210
0.0
220
1.0
230
-0.0000000000000002
  0
LINE
  5
1A14
  8
0
  6
VERDECKT
 62
     1
 10
2.5
 20
0.0
 30
0.0
 11
2.5
 21
0.6000000000000001
 31
-0.0000000000000001
210
0.0
220
1.0
230
-0.0000000000000002
  0
LINE
  5
1A15
  8
0
  6
VERDECKT
 62
     1
 10
91.5
 20
0.0
 30
0.0
 11
91.5
 21
0.6000000000000001
 31
-0.0000000000000001
210
0.0
220
1.0
230
-0.0000000000000002
  0
LINE
  5
1A16
  8
0
  6
VERDECKT
 62
     1
 10
96.5
 20
0.0
 30
0.0
 11
96.5
 21
0.6000000000000001
 31
-0.0000000000000001
210
0.0
220
1.0
230
-0.0000000000000002
  0
LINE
  5
1A17
  8
0
  6
VERDECKT
 62
     1
 10
-96.5
 20
0.0
 30
0.0
 11
-96.5
 21
0.6000000000000001
 31
-0.0000000000000001
210
0.0
220
1.0
230
-0.0000000000000002
  0
LINE
  5
1A18
  8
0
  6
VERDECKT
 62
     1
 10
-91.5
 20
0.0
 30
0.0
 11
-91.5
 21
0.6000000000000001
 31
-0.0000000000000001
210
0.0
220
1.0
230
-0.0000000000000002
  0
LINE
  5
1A19
  8
0
  6
VERDECKT
 62
     1
 10
147.5
 20
0.0
 30
0.0
 11
147.5
 21
0.6000000000000001
 31
-0.0000000000000001
210
0.0
220
1.0
230
-0.0000000000000002
  0
LINE
  5
1A1A
  8
0
  6
VERDECKT
 62
     1
 10
154.5
 20
0.0
 30
0.0
 11
154.5
 21
0.6000000000000001
 31
-0.0000000000000001
210
0.0
220
1.0
230
-0.0000000000000002
  0
ENDBLK
  5
1A1C
  8
0
  0
BLOCK
  8
0
  2
*U23
 70
     1
 10
0.0
 20
0.0
 30
0.0
  3
*U23
  1

  0
TEXT
  5
1A75
  8
STEMPEL
 62
     1
 10
3.6666666666666661
 20
-5.25
 30
0.0
 40
3.5
  1
DN
 41
0.8
  0
ENDBLK
  5
1A77
  8
0
  0
BLOCK
  8
0
  2
*U24
 70
     1
 10
0.0
 20
0.0
 30
0.0
  3
*U24
  1

  0
TEXT
  5
1A79
  8
STEMPEL
 62
     1
 10
15.6666666666666607
 20
-5.25
 30
0.0
 40
3.5
  1
A\U+2205
 41
0.8
  0
ENDBLK
  5
1A7B
  8
0
  0
BLOCK
  8
0
  2
*U25
 70
     1
 10
0.0
 20
0.0
 30
0.0
  3
*U25
  1

  0
TEXT
  5
1A7D
  8
STEMPEL
 62
     1
 10
28.9333333333333407
 20
-5.25
 30
0.0
 40
3.5
  1
A
 41
0.8
  0
ENDBLK
  5
1A7F
  8
0
  0
BLOCK
  8
0
  2
*U26
 70
     1
 10
0.0
 20
0.0
 30
0.0
  3
*U26
  1

  0
TEXT
  5
1A81
  8
STEMPEL
 62
     1
 10
41.06666666666667
 20
-5.25
 30
0.0
 40
3.5
  1
B
 41
0.8
  0
ENDBLK
  5
1A83
  8
0
  0
BLOCK
  8
0
  2
*U27
 70
     1
 10
0.0
 20
0.0
 30
0.0
  3
*U27
  1

  0
TEXT
  5
1A85
  8
STEMPEL
 62
     1
 10
53.0
 20
-5.25
 30
0.0
 40
3.5
  1
C
 41
0.8
  0
ENDBLK
  5
1A87
  8
0
  0
BLOCK
  8
0
  2
*U28
 70
     1
 10
0.0
 20
0.0
 30
0.0
  3
*U28
  1

  0
TEXT
  5
1A89
  8
STEMPEL
 62
     1
 10
65.0666666666666629
 20
-5.25
 30
0.0
 40
3.5
  1
D
 41
0.8
  0
ENDBLK
  5
1A8B
  8
0
  0
BLOCK
  8
0
  2
*U29
 70
     1
 10
0.0
 20
0.0
 30
0.0
  3
*U29
  1

  0
TEXT
  5
1A8D
  8
STEMPEL
 62
     1
 10
76.2000000000000028
 20
-5.25
 30
0.0
 40
3.5
  1
ED-Art.Nr.
 41
0.8
  0
ENDBLK
  5
1A8F
  8
0
  0
BLOCK
  8
0
  2
*U30
 70
     1
 10
0.0
 20
0.0
 30
0.0
  3
*U30
  1

  0
TEXT
  5
1A91
  8
STEMPEL
 62
     1
 10
3.7333333333333321
 20
-12.25
 30
0.0
 40
3.5
  1
40
 41
0.8
  0
ENDBLK
  5
1A93
  8
0
  0
BLOCK
  8
0
  2
*U31
 70
     1
 10
0.0
 20
0.0
 30
0.0
  3
*U31
  1

  0
TEXT
  5
1A95
  8
STEMPEL
 62
     1
 10
15.8000000000000007
 20
-12.25
 30
0.0
 40
3.5
  1
89
 41
0.8
  0
ENDBLK
  5
1A97
  8
0
  0
BLOCK
  8
0
  2
*U32
 70
     1
 10
0.0
 20
0.0
 30
0.0
  3
*U32
  1

  0
TEXT
  5
1A99
  8
STEMPEL
 62
     1
 10
26.3999999999999986
 20
-12.25
 30
0.0
 40
3.5
  1
282
 41
0.8
  0
ENDBLK
  5
1A9B
  8
0
  0
BLOCK
  8
0
  2
*U33
 70
     1
 10
0.0
 20
0.0
 30
0.0
  3
*U33
  1

  0
TEXT
  5
1A9D
  8
STEMPEL
 62
     1
 10
39.6666666666666714
 20
-12.25
 30
0.0
 40
3.5
  1
94
 41
0.8
  0
ENDBLK
  5
1A9F
  8
0
  0
BLOCK
  8
0
  2
*U34
 70
     1
 10
0.0
 20
0.0
 30
0.0
  3
*U34
  1

  0
TEXT
  5
1AA1
  8
STEMPEL
 62
     1
 10
51.7333333333333272
 20
-12.25
 30
0.0
 40
3.5
  1
47
 41
0.8
  0
ENDBLK
  5
1AA3
  8
0
  0
BLOCK
  8
0
  2
*U35
 70
     1
 10
0.0
 20
0.0
 30
0.0
  3
*U35
  1

  0
TEXT
  5
1AA5
  8
STEMPEL
 62
     1
 10
62.4000000000000128
 20
-12.25
 30
0.0
 40
3.5
  1
322
 41
0.8
  0
ENDBLK
  5
1AA7
  8
0
  0
BLOCK
  8
0
  2
*U36
 70
     1
 10
0.0
 20
0.0
 30
0.0
  3
*U36
  1

  0
TEXT
  5
1AA9
  8
STEMPEL
 62
     1
 10
74.7333333333333343
 20
-12.25
 30
0.0
 40
3.5
  1
08065.040X
 41
0.8
  0
ENDBLK
  5
1AAB
  8
0
  0
BLOCK
  8
0
  2
*U37
 70
     1
 10
0.0
 20
0.0
 30
0.0
  3
*U37
  1

  0
TEXT
  5
1AAD
  8
STEMPEL
 62
     1
 10
3.7333333333333321
 20
-19.25
 30
0.0
 40
3.5
  1
50
 41
0.8
  0
ENDBLK
  5
1AAF
  8
0
  0
BLOCK
  8
0
  2
*U38
 70
     1
 10
0.0
 20
0.0
 30
0.0
  3
*U38
  1

  0
TEXT
  5
1AB1
  8
STEMPEL
 62
     1
 10
15.8000000000000007
 20
-19.25
 30
0.0
 40
3.5
  1
89
 41
0.8
  0
ENDBLK
  5
1AB3
  8
0
  0
BLOCK
  8
0
  2
*U39
 70
     1
 10
0.0
 20
0.0
 30
0.0
  3
*U39
  1

  0
TEXT
  5
1AB5
  8
STEMPEL
 62
     1
 10
26.3999999999999986
 20
-19.25
 30
0.0
 40
3.5
  1
282
 41
0.8
  0
ENDBLK
  5
1AB7
  8
0
  0
BLOCK
  8
0
  2
*U40
 70
     1
 10
0.0
 20
0.0
 30
0.0
  3
*U40
  1

  0
TEXT
  5
1AB9
  8
STEMPEL
 62
     1
 10
39.6666666666666714
 20
-19.25
 30
0.0
 40
3.5
  1
94
 41
0.8
  0
ENDBLK
  5
1ABB
  8
0
  0
BLOCK
  8
0
  2
*U41
 70
     1
 10
0.0
 20
0.0
 30
0.0
  3
*U41
  1

  0
TEXT
  5
1ABD
  8
STEMPEL
 62
     1
 10
51.7333333333333272
 20
-19.25
 30
0.0
 40
3.5
  1
47
 41
0.8
  0
ENDBLK
  5
1ABF
  8
0
  0
BLOCK
  8
0
  2
*U42
 70
     1
 10
0.0
 20
0.0
 30
0.0
  3
*U42
  1

  0
TEXT
  5
1AC1
  8
STEMPEL
 62
     1
 10
62.4000000000000128
 20
-19.25
 30
0.0
 40
3.5
  1
322
 41
0.8
  0
ENDBLK
  5
1AC3
  8
0
  0
BLOCK
  8
0
  2
*U43
 70
     1
 10
0.0
 20
0.0
 30
0.0
  3
*U43
  1

  0
TEXT
  5
1AC5
  8
STEMPEL
 62
     1
 10
74.7333333333333343
 20
-19.25
 30
0.0
 40
3.5
  1
08065.050X
 41
0.8
  0
ENDBLK
  5
1AC7
  8
0
  0
BLOCK
  8
0
  2
*U44
 70
     1
 10
0.0
 20
0.0
 30
0.0
  3
*U44
  1

  0
TEXT
  5
1AC9
  8
STEMPEL
 62
     1
 10
3.7333333333333321
 20
-26.25
 30
0.0
 40
3.5
  1
70
 41
0.8
  0
ENDBLK
  5
1ACB
  8
0
  0
BLOCK
  8
0
  2
*U45
 70
     1
 10
0.0
 20
0.0
 30
0.0
  3
*U45
  1

  0
TEXT
  5
1ACD
  8
STEMPEL
 62
     1
 10
14.6666666666666607
 20
-26.25
 30
0.0
 40
3.5
  1
102
 41
0.8
  0
ENDBLK
  5
1ACF
  8
0
  0
BLOCK
  8
0
  2
*U46
 70
     1
 10
0.0
 20
0.0
 30
0.0
  3
*U46
  1

  0
TEXT
  5
1AD1
  8
STEMPEL
 62
     1
 10
26.3999999999999986
 20
-26.25
 30
0.0
 40
3.5
  1
323
 41
0.8
  0
ENDBLK
  5
1AD3
  8
0
  0
BLOCK
  8
0
  2
*U47
 70
     1
 10
0.0
 20
0.0
 30
0.0
  3
*U47
  1

  0
TEXT
  5
1AD5
  8
STEMPEL
 62
     1
 10
38.6666666666666714
 20
-26.25
 30
0.0
 40
3.5
  1
107
 41
0.8
  0
ENDBLK
  5
1AD7
  8
0
  0
BLOCK
  8
0
  2
*U48
 70
     1
 10
0.0
 20
0.0
 30
0.0
  3
*U48
  1

  0
TEXT
  5
1AD9
  8
STEMPEL
 62
     1
 10
51.6666666666666714
 20
-26.25
 30
0.0
 40
3.5
  1
54
 41
0.8
  0
ENDBLK
  5
1ADB
  8
0
  0
BLOCK
  8
0
  2
*U49
 70
     1
 10
0.0
 20
0.0
 30
0.0
  3
*U49
  1

  0
TEXT
  5
1ADD
  8
STEMPEL
 62
     1
 10
62.3999999999999986
 20
-26.25
 30
0.0
 40
3.5
  1
363
 41
0.8
  0
ENDBLK
  5
1ADF
  8
0
  0
BLOCK
  8
0
  2
*U50
 70
     1
 10
0.0
 20
0.0
 30
0.0
  3
*U50
  1

  0
TEXT
  5
1AE1
  8
STEMPEL
 62
     1
 10
74.7333333333333343
 20
-26.25
 30
0.0
 40
3.5
  1
08065.070X
 41
0.8
  0
ENDBLK
  5
1AE3
  8
0
  0
BLOCK
  8
0
  2
*U51
 70
     1
 10
0.0
 20
0.0
 30
0.0
  3
*U51
  1

  0
TEXT
  5
1AE5
  8
STEMPEL
 62
     1
 10
3.7333333333333321
 20
-33.25
 30
0.0
 40
3.5
  1
80
 41
0.8
  0
ENDBLK
  5
1AE7
  8
0
  0
BLOCK
  8
0
  2
*U52
 70
     1
 10
0.0
 20
0.0
 30
0.0
  3
*U52
  1

  0
TEXT
  5
1AE9
  8
STEMPEL
 62
     1
 10
14.6666666666666607
 20
-33.25
 30
0.0
 40
3.5
  1
133
 41
0.8
  0
ENDBLK
  5
1AEB
  8
0
  0
BLOCK
  8
0
  2
*U53
 70
     1
 10
0.0
 20
0.0
 30
0.0
  3
*U53
  1

  0
TEXT
  5
1AED
  8
STEMPEL
 62
     1
 10
26.3999999999999986
 20
-33.25
 30
0.0
 40
3.5
  1
420
 41
0.8
  0
ENDBLK
  5
1AEF
  8
0
  0
BLOCK
  8
0
  2
*U54
 70
     1
 10
0.0
 20
0.0
 30
0.0
  3
*U54
  1

  0
TEXT
  5
1AF1
  8
STEMPEL
 62
     1
 10
38.6666666666666714
 20
-33.25
 30
0.0
 40
3.5
  1
140
 41
0.8
  0
ENDBLK
  5
1AF3
  8
0
  0
BLOCK
  8
0
  2
*U55
 70
     1
 10
0.0
 20
0.0
 30
0.0
  3
*U55
  1

  0
TEXT
  5
1AF5
  8
STEMPEL
 62
     1
 10
51.7333333333333272
 20
-33.25
 30
0.0
 40
3.5
  1
70
 41
0.8
  0
ENDBLK
  5
1AF7
  8
0
  0
BLOCK
  8
0
  2
*U56
 70
     1
 10
0.0
 20
0.0
 30
0.0
  3
*U56
  1

  0
TEXT
  5
1AF9
  8
STEMPEL
 62
     1
 10
62.3999999999999986
 20
-33.25
 30
0.0
 40
3.5
  1
460
 41
0.8
  0
ENDBLK
  5
1AFB
  8
0
  0
BLOCK
  8
0
  2
*U57
 70
     1
 10
0.0
 20
0.0
 30
0.0
  3
*U57
  1

  0
TEXT
  5
1AFD
  8
STEMPEL
 62
     1
 10
74.7333333333333343
 20
-33.25
 30
0.0
 40
3.5
  1
08065.080X
 41
0.8
  0
ENDBLK
  5
1AFF
  8
0
  0
BLOCK
  8
0
  2
*U58
 70
     1
 10
0.0
 20
0.0
 30
0.0
  3
*U58
  1

  0
TEXT
  5
1B01
  8
STEMPEL
 62
     1
 10
2.6666666666666661
 20
-40.25
 30
0.0
 40
3.5
  1
100
 41
0.8
  0
ENDBLK
  5
1B03
  8
0
  0
BLOCK
  8
0
  2
*U59
 70
     1
 10
0.0
 20
0.0
 30
0.0
  3
*U59
  1

  0
TEXT
  5
1B05
  8
STEMPEL
 62
     1
 10
14.6666666666666607
 20
-40.25
 30
0.0
 40
3.5
  1
133
 41
0.8
  0
ENDBLK
  5
1B07
  8
0
  0
BLOCK
  8
0
  2
*U60
 70
     1
 10
0.0
 20
0.0
 30
0.0
  3
*U60
  1

  0
TEXT
  5
1B09
  8
STEMPEL
 62
     1
 10
26.3999999999999986
 20
-40.25
 30
0.0
 40
3.5
  1
420
 41
0.8
  0
ENDBLK
  5
1B0B
  8
0
  0
BLOCK
  8
0
  2
*U61
 70
     1
 10
0.0
 20
0.0
 30
0.0
  3
*U61
  1

  0
TEXT
  5
1B0D
  8
STEMPEL
 62
     1
 10
38.6666666666666714
 20
-40.25
 30
0.0
 40
3.5
  1
140
 41
0.8
  0
ENDBLK
  5
1B0F
  8
0
  0
BLOCK
  8
0
  2
*U62
 70
     1
 10
0.0
 20
0.0
 30
0.0
  3
*U62
  1

  0
TEXT
  5
1B11
  8
STEMPEL
 62
     1
 10
51.7333333333333272
 20
-40.25
 30
0.0
 40
3.5
  1
70
 41
0.8
  0
ENDBLK
  5
1B13
  8
0
  0
BLOCK
  8
0
  2
*U63
 70
     1
 10
0.0
 20
0.0
 30
0.0
  3
*U63
  1

  0
TEXT
  5
1B15
  8
STEMPEL
 62
     1
 10
62.3999999999999986
 20
-40.25
 30
0.0
 40
3.5
  1
460
 41
0.8
  0
ENDBLK
  5
1B17
  8
0
  0
BLOCK
  8
0
  2
*U64
 70
     1
 10
0.0
 20
0.0
 30
0.0
  3
*U64
  1

  0
TEXT
  5
1B19
  8
STEMPEL
 62
     1
 10
75.0
 20
-40.25
 30
0.0
 40
3.5
  1
08065.100X
 41
0.8
  0
ENDBLK
  5
1B1B
  8
0
  0
BLOCK
  8
0
  2
*U65
 70
     1
 10
0.0
 20
0.0
 30
0.0
  3
*U65
  1

  0
TEXT
  5
1B1D
  8
STEMPEL
 62
     1
 10
2.6666666666666661
 20
-47.25
 30
0.0
 40
3.5
  1
125
 41
0.8
  0
ENDBLK
  5
1B1F
  8
0
  0
BLOCK
  8
0
  2
*U66
 70
     1
 10
0.0
 20
0.0
 30
0.0
  3
*U66
  1

  0
TEXT
  5
1B21
  8
STEMPEL
 62
     1
 10
14.6666666666666607
 20
-47.25
 30
0.0
 40
3.5
  1
168
 41
0.8
  0
ENDBLK
  5
1B23
  8
0
  0
BLOCK
  8
0
  2
*U67
 70
     1
 10
0.0
 20
0.0
 30
0.0
  3
*U67
  1

  0
TEXT
  5
1B25
  8
STEMPEL
 62
     1
 10
26.3999999999999986
 20
-47.25
 30
0.0
 40
3.5
  1
530
 41
0.8
  0
ENDBLK
  5
1B27
  8
0
  0
BLOCK
  8
0
  2
*U68
 70
     1
 10
0.0
 20
0.0
 30
0.0
  3
*U68
  1

  0
TEXT
  5
1B29
  8
STEMPEL
 62
     1
 10
38.7333333333333272
 20
-47.25
 30
0.0
 40
3.5
  1
176
 41
0.8
  0
ENDBLK
  5
1B2B
  8
0
  0
BLOCK
  8
0
  2
*U69
 70
     1
 10
0.0
 20
0.0
 30
0.0
  3
*U69
  1

  0
TEXT
  5
1B2D
  8
STEMPEL
 62
     1
 10
51.7333333333333272
 20
-47.25
 30
0.0
 40
3.5
  1
88
 41
0.8
  0
ENDBLK
  5
1B2F
  8
0
  0
BLOCK
  8
0
  2
*U70
 70
     1
 10
0.0
 20
0.0
 30
0.0
  3
*U70
  1

  0
TEXT
  5
1B31
  8
STEMPEL
 62
     1
 10
62.4000000000000128
 20
-47.25
 30
0.0
 40
3.5
  1
570
 41
0.8
  0
ENDBLK
  5
1B33
  8
0
  0
BLOCK
  8
0
  2
*U71
 70
     1
 10
0.0
 20
0.0
 30
0.0
  3
*U71
  1

  0
TEXT
  5
1B35
  8
STEMPEL
 62
     1
 10
75.0
 20
-47.25
 30
0.0
 40
3.5
  1
08065.125X
 41
0.8
  0
ENDBLK
  5
1B37
  8
0
  0
BLOCK
  8
0
  2
*U72
 70
     1
 10
0.0
 20
0.0
 30
0.0
  3
*U72
  1

  0
TEXT
  5
1B39
  8
STEMPEL
 62
     1
 10
2.6666666666666661
 20
-54.25
 30
0.0
 40
3.5
  1
150
 41
0.8
  0
ENDBLK
  5
1B3B
  8
0
  0
BLOCK
  8
0
  2
*U73
 70
     1
 10
0.0
 20
0.0
 30
0.0
  3
*U73
  1

  0
TEXT
  5
1B3D
  8
STEMPEL
 62
     1
 10
14.7333333333333307
 20
-54.25
 30
0.0
 40
3.5
  1
219
 41
0.8
  0
ENDBLK
  5
1B3F
  8
0
  0
BLOCK
  8
0
  2
*U74
 70
     1
 10
0.0
 20
0.0
 30
0.0
  3
*U74
  1

  0
TEXT
  5
1B41
  8
STEMPEL
 62
     1
 10
26.3999999999999986
 20
-54.25
 30
0.0
 40
3.5
  1
690
 41
0.8
  0
ENDBLK
  5
1B43
  8
0
  0
BLOCK
  8
0
  2
*U75
 70
     1
 10
0.0
 20
0.0
 30
0.0
  3
*U75
  1

  0
TEXT
  5
1B45
  8
STEMPEL
 62
     1
 10
38.3999999999999986
 20
-54.25
 30
0.0
 40
3.5
  1
230
 41
0.8
  0
ENDBLK
  5
1B47
  8
0
  0
BLOCK
  8
0
  2
*U76
 70
     1
 10
0.0
 20
0.0
 30
0.0
  3
*U76
  1

  0
TEXT
  5
1B49
  8
STEMPEL
 62
     1
 10
50.93333333333333
 20
-54.25
 30
0.0
 40
3.5
  1
115
 41
0.8
  0
ENDBLK
  5
1B4B
  8
0
  0
BLOCK
  8
0
  2
*U77
 70
     1
 10
0.0
 20
0.0
 30
0.0
  3
*U77
  1

  0
TEXT
  5
1B4D
  8
STEMPEL
 62
     1
 10
62.4000000000000128
 20
-54.25
 30
0.0
 40
3.5
  1
730
 41
0.8
  0
ENDBLK
  5
1B4F
  8
0
  0
BLOCK
  8
0
  2
*U78
 70
     1
 10
0.0
 20
0.0
 30
0.0
  3
*U78
  1

  0
TEXT
  5
1B51
  8
STEMPEL
 62
     1
 10
75.0
 20
-54.25
 30
0.0
 40
3.5
  1
08065.150X
 41
0.8
  0
ENDBLK
  5
1B53
  8
0
  0
BLOCK
  8
0
  2
*U79
 70
     1
 10
0.0
 20
0.0
 30
0.0
  3
*U79
  1

  0
TEXT
  5
1B55
  8
STEMPEL
 62
     1
 10
2.399999999999999
 20
-61.25
 30
0.0
 40
3.5
  1
200
 41
0.8
  0
ENDBLK
  5
1B57
  8
0
  0
BLOCK
  8
0
  2
*U80
 70
     1
 10
0.0
 20
0.0
 30
0.0
  3
*U80
  1

  0
TEXT
  5
1B59
  8
STEMPEL
 62
     1
 10
14.4000000000000004
 20
-61.25
 30
0.0
 40
3.5
  1
273
 41
0.8
  0
ENDBLK
  5
1B5B
  8
0
  0
BLOCK
  8
0
  2
*U81
 70
     1
 10
0.0
 20
0.0
 30
0.0
  3
*U81
  1

  0
TEXT
  5
1B5D
  8
STEMPEL
 62
     1
 10
26.3999999999999986
 20
-61.25
 30
0.0
 40
3.5
  1
860
 41
0.8
  0
ENDBLK
  5
1B5F
  8
0
  0
BLOCK
  8
0
  2
*U82
 70
     1
 10
0.0
 20
0.0
 30
0.0
  3
*U82
  1

  0
TEXT
  5
1B61
  8
STEMPEL
 62
     1
 10
38.4666666666666686
 20
-61.25
 30
0.0
 40
3.5
  1
286
 41
0.8
  0
ENDBLK
  5
1B63
  8
0
  0
BLOCK
  8
0
  2
*U83
 70
     1
 10
0.0
 20
0.0
 30
0.0
  3
*U83
  1

  0
TEXT
  5
1B65
  8
STEMPEL
 62
     1
 10
50.6666666666666714
 20
-61.25
 30
0.0
 40
3.5
  1
143
 41
0.8
  0
ENDBLK
  5
1B67
  8
0
  0
BLOCK
  8
0
  2
*U84
 70
     1
 10
0.0
 20
0.0
 30
0.0
  3
*U84
  1

  0
TEXT
  5
1B69
  8
STEMPEL
 62
     1
 10
62.4000000000000128
 20
-61.25
 30
0.0
 40
3.5
  1
900
 41
0.8
  0
ENDBLK
  5
1B6B
  8
0
  0
BLOCK
  8
0
  2
*U85
 70
     1
 10
0.0
 20
0.0
 30
0.0
  3
*U85
  1

  0
TEXT
  5
1B6D
  8
STEMPEL
 62
     1
 10
74.7333333333333343
 20
-61.25
 30
0.0
 40
3.5
  1
08065.200X
 41
0.8
  0
ENDBLK
  5
1B6F
  8
0
  0
ENDSEC
  0
SECTION
  2
ENTITIES
  0
INSERT
  5
A08
  8
ADSK_ASSOC_ENTITY_BACKUPS
  2
*S4
 10
0.0
 20
0.0
 30
0.0
  0
INSERT
  5
19E3
  8
STEMPEL
  2
A$C108B039C
 10
0.0
 20
0.0
 30
0.0
  0
INSERT
  5
19FE
  8
STEMPEL
  2
A$C21690754
 10
244.5963173813404126
 20
0.3000000000001535
 30
0.0
 50
90.0
  0
INSERT
  5
1A1D
  8
STEMPEL
  2
A$C31F341C6
 10
0.0
 20
-80.0
 30
0.0
  0
VIEWPORT
  5
494
 67
     1
  8
0
 10
169.4861008592818052
 20
147.2280755747100045
 30
0.0
 40
814.3156244083738784
 41
446.8295990343384005
 68
     1
 69
     1
1001
ACAD
1000
MVIEW
1002
{
1070
    16
1010
0.0
1020
0.0
1030
0.0
1010
0.0
1020
0.0
1030
1.0
1040
0.0
1040
446.8295990343384005
1040
169.4861008592818052
1040
147.2280755747100045
1040
50.0
1040
0.0
1040
0.0
1070
     0
1070
  1500
1070
     1
1070
     1
1070
     0
1070
     0
1070
     0
1070
     0
1040
0.0
1040
0.0
1040
0.0
1040
10.0
1040
10.0
1040
10.0
1040
10.0
1070
     0
1002
{
1002
}
1002
}
  0
ENDSEC
  0
EOF
