  0
SECTION
  2
HEADER
  9
$ACADVER
  1
AC1009
  9
$INSBASE
 10
0.0
 20
0.0
 30
0.0
  9
$EXTMIN
 10
-61.1228495548328894
 20
-169.0
 30
-0.0000000000000666
  9
$EXTMAX
 10
61.122849554832932
 20
300.0
 30
300.0
  9
$LIMMIN
 10
0.0
 20
0.0
  9
$LIMMAX
 10
419.9999999999998863
 20
594.0
  9
$ORTHOMODE
 70
     1
  9
$REGENMODE
 70
     1
  9
$FILLMODE
 70
     1
  9
$QTEXTMODE
 70
     0
  9
$MIRRTEXT
 70
     1
  9
$DRAGMODE
 70
     2
  9
$LTSCALE
 40
20.0
  9
$OSMODE
 70
   183
  9
$ATTMODE
 70
     1
  9
$TEXTSIZE
 40
3.5
  9
$TRACEWID
 40
0.5
  9
$TEXTSTYLE
  7
STANDARD
  9
$CLAYER
  8
STEMPEL
  9
$CELTYPE
  6
BYLAYER
  9
$CECOLOR
 62
   256
  9
$DIMSCALE
 40
1.0
  9
$DIMASZ
 40
3.5
  9
$DIMEXO
 40
1.0
  9
$DIMDLI
 40
7.0
  9
$DIMRND
 40
0.0
  9
$DIMDLE
 40
0.0
  9
$DIMEXE
 40
1.0
  9
$DIMTP
 40
0.0
  9
$DIMTM
 40
0.0
  9
$DIMTXT
 40
3.5
  9
$DIMCEN
 40
1.5
  9
$DIMTSZ
 40
0.0
  9
$DIMTOL
 70
     0
  9
$DIMLIM
 70
     0
  9
$DIMTIH
 70
     0
  9
$DIMTOH
 70
     0
  9
$DIMSE1
 70
     0
  9
$DIMSE2
 70
     0
  9
$DIMTAD
 70
     1
  9
$DIMZIN
 70
     8
  9
$DIMBLK
  1

  9
$DIMASO
 70
     1
  9
$DIMSHO
 70
     0
  9
$DIMPOST
  1

  9
$DIMAPOST
  1

  9
$DIMALT
 70
     0
  9
$DIMALTD
 70
     2
  9
$DIMALTF
 40
25.3999999999999986
  9
$DIMLFAC
 40
2.0
  9
$DIMTOFL
 70
     1
  9
$DIMTVP
 40
0.0
  9
$DIMTIX
 70
     0
  9
$DIMSOXD
 70
     0
  9
$DIMSAH
 70
     0
  9
$DIMBLK1
  1

  9
$DIMBLK2
  1

  9
$DIMSTYLE
  2
STANDARD
  9
$DIMCLRD
 70
     0
  9
$DIMCLRE
 70
     0
  9
$DIMCLRT
 70
     1
  9
$DIMTFAC
 40
0.5142857142857143
  9
$DIMGAP
 40
1.5
  9
$LUNITS
 70
     2
  9
$LUPREC
 70
     2
  9
$SKETCHINC
 40
1.0
  9
$FILLETRAD
 40
10.0
  9
$AUNITS
 70
     0
  9
$AUPREC
 70
     0
  9
$MENU
  1
ACAD
  9
$ELEVATION
 40
0.0
  9
$PELEVATION
 40
0.0
  9
$THICKNESS
 40
0.0
  9
$LIMCHECK
 70
     0
  9
$BLIPMODE
 70
     0
  9
$CHAMFERA
 40
0.0
  9
$CHAMFERB
 40
0.0
  9
$SKPOLY
 70
     0
  9
$TDCREATE
 40
2455397.8646990740671754
  9
$TDUPDATE
 40
2458386.6924652778543532
  9
$TDINDWG
 40
0.2319644329
  9
$TDUSRTIMER
 40
0.2319644329
  9
$USRTIMER
 70
     1
  9
$ANGBASE
 50
0.0
  9
$ANGDIR
 70
     0
  9
$PDMODE
 70
     0
  9
$PDSIZE
 40
0.0
  9
$PLINEWID
 40
0.0
  9
$COORDS
 70
     1
  9
$SPLFRAME
 70
     0
  9
$SPLINETYPE
 70
     6
  9
$SPLINESEGS
 70
     8
  9
$ATTDIA
 70
     1
  9
$ATTREQ
 70
     1
  9
$HANDLING
 70
     1
  9
$HANDSEED
  5
1165
  9
$SURFTAB1
 70
     6
  9
$SURFTAB2
 70
     6
  9
$SURFTYPE
 70
     6
  9
$SURFU
 70
     6
  9
$SURFV
 70
     6
  9
$UCSNAME
  2

  9
$UCSORG
 10
0.0
 20
0.0
 30
0.0
  9
$UCSXDIR
 10
1.0
 20
0.0
 30
0.0
  9
$UCSYDIR
 10
0.0
 20
1.0
 30
0.0
  9
$PUCSNAME
  2

  9
$PUCSORG
 10
0.0
 20
0.0
 30
0.0
  9
$PUCSXDIR
 10
1.0
 20
0.0
 30
0.0
  9
$PUCSYDIR
 10
0.0
 20
1.0
 30
0.0
  9
$USERI1
 70
     0
  9
$USERI2
 70
     0
  9
$USERI3
 70
     0
  9
$USERI4
 70
     0
  9
$USERI5
 70
     0
  9
$USERR1
 40
0.0
  9
$USERR2
 40
0.0
  9
$USERR3
 40
0.0
  9
$USERR4
 40
0.0
  9
$USERR5
 40
0.0
  9
$WORLDVIEW
 70
     1
  9
$SHADEDGE
 70
     3
  9
$SHADEDIF
 70
    70
  9
$TILEMODE
 70
     1
  9
$MAXACTVP
 70
    16
  9
$PLIMCHECK
 70
     0
  9
$PEXTMIN
 10
-0.0123550284664589
 20
-0.0109703806738253
 30
-8.0689931106614932
  9
$PEXTMAX
 10
198.7451789614725044
 20
290.954539516335501
 30
403.1424316358297801
  9
$PLIMMIN
 10
-5.073724410925827
 20
-2.2332173356945169
  9
$PLIMMAX
 10
203.8065473712574089
 20
293.1767850957460837
  9
$UNITMODE
 70
     0
  9
$VISRETAIN
 70
     0
  9
$PLINEGEN
 70
     0
  9
$PSLTSCALE
 70
     0
  0
ENDSEC
  0
SECTION
  2
TABLES
  0
TABLE
  2
VPORT
 70
     1
  0
VPORT
  2
*ACTIVE
 70
     0
 10
0.0
 20
0.0
 11
1.0
 21
1.0
 12
0.0
 22
0.0
 13
0.0
 23
0.0
 14
1.0
 24
1.0
 15
10.0
 25
10.0
 16
-0.0000000000002984
 26
0.0
 36
1315.1997906534379581
 17
88.379826357518624
 27
62.6350813094878873
 37
150.0
 40
531.4547370718256616
 41
1.8224299065420559
 42
50.0
 43
0.0
 44
0.0
 50
0.0
 51
0.0
 71
     0
 72
  1500
 73
     1
 74
     0
 75
     0
 76
     0
 77
     0
 78
     0
  0
ENDTAB
  0
TABLE
  2
LTYPE
 70
     6
  0
LTYPE
  2
CONTINUOUS
 70
     0
  3
Solid line
 72
    65
 73
     0
 40
0.0
  0
LTYPE
  2
VERDECKT
 70
     0
  3
Verdeckt __ __ __ __ __ __ __ __ __ __ __ __ __
 72
    65
 73
     2
 40
0.375
 49
0.25
 49
-0.125
  0
ENDTAB
  0
TABLE
  2
LAYER
 70
    15
  0
LAYER
  2
0
 70
     0
 62
     7
  6
CONTINUOUS
  0
LAYER
  2
STEMPEL
 70
     0
 62
     3
  6
CONTINUOUS
  0
LAYER
  2
ADSK_ASSOC_ENTITY_BACKUPS
 70
     1
 62
    -7
  6
CONTINUOUS
  0
ENDTAB
  0
TABLE
  2
STYLE
 70
     5
  0
STYLE
  2
STANDARD
 70
     0
 40
0.0
 41
0.8
 50
0.0
 71
     0
 42
3.5
  3
simplex.shx
  4

  0
ENDTAB
  0
TABLE
  2
VIEW
 70
     1
  0
ENDTAB
  0
TABLE
  2
UCS
 70
     0
  0
ENDTAB
  0
TABLE
  2
APPID
 70
    15
  0
APPID
  2
ACAD
 70
     0
  0
APPID
  2
ACAD_NAV_VCDISPLAY
 70
     0
  0
APPID
  2
ACAD_PSEXT
 70
     0
  0
APPID
  2
ACAECLAYERSTANDARD
 70
     0
  0
APPID
  2
PLOTTRANSPARENCY
 70
     0
  0
APPID
  2
ACAD_EXEMPT_FROM_CAD_STANDARDS
 70
     0
  0
APPID
  2
ACADANNOPO
 70
     0
  0
APPID
  2
ACAD_DSTYLE_DIMJAG
 70
     0
  0
APPID
  2
ACAD_DSTYLE_DIMTALN
 70
     0
  0
APPID
  2
ACCMTRANSPARENCY
 70
     0
  0
APPID
  2
ACSYNERGY
 70
     0
  0
APPID
  2
SYNERGY_BODY_TBR_ID
 70
     0
  0
APPID
  2
ACAD_VIEW_EDGE_ID
 70
     0
  0
APPID
  2
ACAD_MLEADERVER
 70
     0
  0
APPID
  2
AcDbAttr
 70
     0
  0
ENDTAB
  0
TABLE
  2
DIMSTYLE
 70
     3
  0
DIMSTYLE
  2
STANDARD
 70
     0
  3

  4

  5

  6

  7

 40
1.0
 41
0.18
 42
0.0625
 43
0.38
 44
0.18
 45
0.0
 46
0.0
 47
0.0
 48
0.0
140
0.18
141
0.09
142
0.0
143
25.3999999999999986
144
1.0
145
0.0
146
1.0
147
0.09
 71
     0
 72
     0
 73
     1
 74
     1
 75
     0
 76
     0
 77
     0
 78
     0
170
     0
171
     2
172
     0
173
     0
174
     0
175
     0
176
     0
177
     0
178
     0
  0
ENDTAB
  0
ENDSEC
  0
SECTION
  2
BLOCKS
  0
BLOCK
  8
0
  2
$MODEL_SPACE
 70
     0
 10
0.0
 20
0.0
 30
0.0
  3
$MODEL_SPACE
  1

  0
ENDBLK
  5
36
  8
0
  0
BLOCK
 67
     1
  8
0
  2
$PAPER_SPACE
 70
     0
 10
0.0
 20
0.0
 30
0.0
  3
$PAPER_SPACE
  1

  0
ENDBLK
  5
34
 67
     1
  8
0
  0
BLOCK
  8
0
  2
*S6
 70
     1
 10
0.0
 20
0.0
 30
0.0
  3
*S6
  1

  0
ENDBLK
  5
C54
  8
0
  0
BLOCK
  8
0
  2
A$C29DC23F7
 70
     0
 10
0.0
 20
0.0
 30
0.0
  3
A$C29DC23F7
  1

  0
LINE
  5
1078
  8
0
  6
CONTINUOUS
 62
     3
 10
-55.7067558379250087
 20
300.0
 30
-0.0000000000000666
 11
55.7067558379250087
 21
300.0
 31
-0.0000000000000666
210
0.0
220
1.0
230
-0.0000000000000002
  0
LINE
  5
1079
  8
0
  6
CONTINUOUS
 62
     3
 10
47.0625566823704276
 20
0.0
 30
0.0
 11
-47.0625566823704276
 21
0.0
 31
0.0
210
0.0
220
1.0
230
-0.0000000000000002
  0
ARC
  5
107A
  8
0
  6
CONTINUOUS
 62
     3
 10
33.9999999999998579
 20
287.3952485374289836
 30
0.0
 40
25.0000000000001386
210
0.0
220
-0.0000000000000002
230
-1.0
 50
359.9999999999997726
 51
24.9999999999890683
  0
ARC
  5
107B
  8
0
  6
CONTINUOUS
 62
     3
 10
-33.9999999999998579
 20
287.3952485374289836
 30
0.0
 40
25.0000000000001599
210
0.0
220
-0.0000000000000002
230
-1.0
 50
155.0000000000109139
 51
180.0
  0
LINE
  5
107C
  8
0
  6
CONTINUOUS
 62
     3
 10
59.0
 20
287.3952485374289267
 30
-0.0000000000000638
 11
59.0
 21
277.5406592285380043
 31
-0.0000000000000616
210
0.0
220
1.0
230
-0.0000000000000002
  0
LINE
  5
107D
  8
0
  6
CONTINUOUS
 62
     3
 10
-59.0
 20
287.3952485374289267
 30
-0.0000000000000638
 11
-59.0
 21
277.5406592285380043
 31
-0.0000000000000616
210
0.0
220
1.0
230
-0.0000000000000002
  0
ARC
  5
107E
  8
0
  6
CONTINUOUS
 62
     3
 10
34.0000000000005116
 20
277.5406592285378906
 30
0.0
 40
24.9999999999994991
210
0.0
220
-0.0000000000000002
230
-1.0
 50
319.2509456225287749
 51
0.0000000000002608
  0
ARC
  5
107F
  8
0
  6
CONTINUOUS
 62
     3
 10
-34.0000000000005116
 20
277.5406592285378906
 30
0.0
 40
24.9999999999994884
210
0.0
220
-0.0000000000000002
230
-1.0
 50
179.9999999999996874
 51
220.7490543774711966
  0
ARC
  5
1080
  8
0
  6
CONTINUOUS
 62
     3
 10
58.9999999999992184
 20
256.0000000000002274
 30
0.0
 40
7.9999999999992344
210
0.0
220
-0.0000000000000002
230
-1.0
 50
139.2509456225280076
 51
180.0000000000011084
  0
ARC
  5
1081
  8
0
  6
CONTINUOUS
 62
     3
 10
-58.9999999999990905
 20
256.0000000000002842
 30
0.0
 40
7.9999999999990967
210
0.0
220
-0.0000000000000002
230
-1.0
 50
359.999999999998181
 51
40.7490543774722411
  0
LINE
  5
1082
  8
0
  6
CONTINUOUS
 62
     3
 10
55.7067558379249377
 20
300.0
 30
-0.0000000000000666
 11
56.6576946759181865
 21
297.9607050809422049
 31
-0.0000000000000662
210
0.0
220
1.0
230
-0.0000000000000002
  0
LINE
  5
1083
  8
0
  6
CONTINUOUS
 62
     3
 10
-55.7067558379249377
 20
300.0
 30
-0.0000000000000666
 11
-56.6576946759181865
 21
297.9607050809422049
 31
-0.0000000000000662
210
0.0
220
1.0
230
-0.0000000000000002
  0
LINE
  5
1084
  8
0
  6
CONTINUOUS
 62
     3
 10
-47.0625566823704773
 20
-0.0000000000000053
 30
0.0
 11
-47.5000000000000568
 21
4.9999999999999947
 31
-0.0000000000000011
210
0.0
220
1.0
230
-0.0000000000000002
  0
LINE
  5
1085
  8
0
  6
CONTINUOUS
 62
     3
 10
47.0625566823704773
 20
-0.0000000000000053
 30
0.0
 11
47.5000000000000568
 21
4.9999999999999947
 31
-0.0000000000000011
210
0.0
220
1.0
230
-0.0000000000000002
  0
LINE
  5
1086
  8
0
  6
CONTINUOUS
 62
     3
 10
-47.5
 20
5.0
 30
-0.0000000000000011
 11
-47.5
 21
94.9999999999999858
 31
-0.0000000000000211
210
0.0
220
1.0
230
-0.0000000000000002
  0
LINE
  5
1087
  8
0
  6
CONTINUOUS
 62
     3
 10
47.5
 20
5.0
 30
-0.0000000000000011
 11
47.5
 21
94.9999999999999858
 31
-0.0000000000000211
210
0.0
220
1.0
230
-0.0000000000000002
  0
ARC
  5
1088
  8
0
  6
CONTINUOUS
 62
     3
 10
-59.4999999999978968
 20
95.0000000000004405
 30
0.0
 40
11.9999999999978897
210
0.0
220
-0.0000000000000002
230
-1.0
 50
359.9999999999977831
 51
19.2900462191887385
  0
ARC
  5
1089
  8
0
  6
CONTINUOUS
 62
     3
 10
59.4999999999982592
 20
95.0000000000003695
 30
0.0
 40
11.9999999999982503
210
0.0
220
-0.0000000000000002
230
-1.0
 50
160.7099537808115031
 51
180.0000000000017053
  0
LINE
  5
108A
  8
0
  6
CONTINUOUS
 62
     3
 10
-48.1736997236077329
 20
98.9642050967370324
 30
-0.000000000000022
 11
-50.3263002763922529
 21
105.1144923904070936
 31
-0.0000000000000233
210
0.0
220
1.0
230
-0.0000000000000002
  0
LINE
  5
108B
  8
0
  6
CONTINUOUS
 62
     3
 10
48.1736997236077329
 20
98.9642050967370324
 30
-0.000000000000022
 11
50.3263002763922529
 21
105.1144923904070936
 31
-0.0000000000000233
210
0.0
220
1.0
230
-0.0000000000000002
  0
ARC
  5
108C
  8
0
  6
CONTINUOUS
 62
     3
 10
-38.999999999996632
 20
109.078697487145007
 30
0.0
 40
12.0000000000033697
210
0.0
220
-0.0000000000000002
230
-1.0
 50
180.0000000000028137
 51
199.2900462191861095
  0
ARC
  5
108D
  8
0
  6
CONTINUOUS
 62
     3
 10
38.9999999999964615
 20
109.078697487145007
 30
0.0
 40
12.0000000000035296
210
0.0
220
-0.0000000000000002
230
-1.0
 50
340.7099537808140894
 51
359.9999999999969873
  0
LINE
  5
108E
  8
0
  6
CONTINUOUS
 62
     3
 10
-51.0
 20
109.078697487144396
 30
-0.0000000000000242
 11
-51.0
 21
256.0
 31
-0.0000000000000568
210
0.0
220
1.0
230
-0.0000000000000002
  0
LINE
  5
108F
  8
0
  6
CONTINUOUS
 62
     3
 10
51.0
 20
109.078697487144396
 30
-0.0000000000000242
 11
51.0
 21
256.0
 31
-0.0000000000000568
210
0.0
220
1.0
230
-0.0000000000000002
  0
LINE
  5
1090
  8
0
  6
VERDECKT
 62
     1
 10
-54.3472941573700226
 20
299.3660726073890146
 30
-0.0000000000000665
 11
54.3472941573700226
 21
299.3660726073890146
 31
-0.0000000000000665
210
0.0
220
1.0
230
-0.0000000000000002
  0
LINE
  5
1091
  8
0
  6
VERDECKT
 62
     1
 10
45.568264635232822
 20
0.1307336141214819
 30
0.0
 11
-45.568264635232822
 21
0.1307336141214819
 31
0.0
210
0.0
220
1.0
230
-0.0000000000000002
  0
ARC
  5
1092
  8
0
  6
VERDECKT
 62
     1
 10
59.0000000000005898
 20
255.9999999999996874
 30
0.0
 40
9.5000000000005915
210
0.0
220
-0.0000000000000002
230
-1.0
 50
139.2509456225309918
 51
179.9999999999980957
  0
ARC
  5
1093
  8
0
  6
VERDECKT
 62
     1
 10
-59.0000000000005826
 20
255.9999999999996874
 30
0.0
 40
9.5000000000005898
210
0.0
220
-0.0000000000000002
230
-1.0
 50
0.0000000000018829
 51
40.7490543774690011
  0
ARC
  5
1094
  8
0
  6
VERDECKT
 62
     1
 10
34.0000000000002274
 20
277.5406592285377769
 30
0.0
 40
23.4999999999997584
210
0.0
220
-0.0000000000000002
230
-1.0
 50
319.2509456225295139
 51
0.0000000000004198
  0
ARC
  5
1095
  8
0
  6
VERDECKT
 62
     1
 10
-34.0000000000001776
 20
277.5406592285378906
 30
0.0
 40
23.4999999999998188
210
0.0
220
-0.0000000000000002
230
-1.0
 50
179.9999999999996874
 51
220.7490543774704861
  0
LINE
  5
1096
  8
0
  6
VERDECKT
 62
     1
 10
57.5
 20
287.3952485374289267
 30
-0.0000000000000638
 11
57.5
 21
277.5406592285380043
 31
-0.0000000000000616
210
0.0
220
1.0
230
-0.0000000000000002
  0
LINE
  5
1097
  8
0
  6
VERDECKT
 62
     1
 10
-57.5
 20
287.3952485374289267
 30
-0.0000000000000638
 11
-57.5
 21
277.5406592285380043
 31
-0.0000000000000616
210
0.0
220
1.0
230
-0.0000000000000002
  0
ARC
  5
1098
  8
0
  6
VERDECKT
 62
     1
 10
33.9999999999992397
 20
287.3952485374289267
 30
0.0
 40
23.5000000000007603
210
0.0
220
-0.0000000000000002
230
-1.0
 50
0.0000000000001399
 51
24.9999999999887805
  0
ARC
  5
1099
  8
0
  6
VERDECKT
 62
     1
 10
-33.9999999999992468
 20
287.3952485374289267
 30
0.0
 40
23.5000000000007603
210
0.0
220
-0.0000000000000002
230
-1.0
 50
155.0000000000111982
 51
179.999999999999801
  0
LINE
  5
109A
  8
0
  6
VERDECKT
 62
     1
 10
54.3472941573700226
 20
299.3660726073890146
 30
-0.0000000000000665
 11
55.2982329953631506
 21
297.32677768833139
 31
-0.000000000000066
210
0.0
220
1.0
230
-0.0000000000000002
  0
LINE
  5
109B
  8
0
  6
VERDECKT
 62
     1
 10
-54.3472941573700226
 20
299.3660726073890146
 30
-0.0000000000000665
 11
-55.2982329953631506
 21
297.32677768833139
 31
-0.000000000000066
210
0.0
220
1.0
230
-0.0000000000000002
  0
LINE
  5
109C
  8
0
  6
VERDECKT
 62
     1
 10
-54.3472941573700226
 20
299.3660726073890146
 30
-0.0000000000000665
 11
-55.7067558379250301
 21
300.0
 31
-0.0000000000000666
210
0.0
220
1.0
230
-0.0000000000000002
  0
LINE
  5
109D
  8
0
  6
VERDECKT
 62
     1
 10
54.3472941573700226
 20
299.3660726073890146
 30
-0.0000000000000665
 11
55.7067558379250301
 21
300.0
 31
-0.0000000000000666
210
0.0
220
1.0
230
-0.0000000000000002
  0
LINE
  5
109E
  8
0
  6
VERDECKT
 62
     1
 10
45.568264635232822
 20
0.1307336141214819
 30
0.0
 11
47.0625566823704276
 21
0.0
 31
0.0
210
0.0
220
1.0
230
-0.0000000000000002
  0
LINE
  5
109F
  8
0
  6
VERDECKT
 62
     1
 10
-45.568264635232822
 20
0.1307336141214819
 30
0.0
 11
-47.0625566823704276
 21
0.0
 31
0.0
210
0.0
220
1.0
230
-0.0000000000000002
  0
LINE
  5
10A0
  8
0
  6
VERDECKT
 62
     1
 10
-49.5
 20
109.078697487144396
 30
-0.0000000000000242
 11
-49.5
 21
256.0
 31
-0.0000000000000568
210
0.0
220
1.0
230
-0.0000000000000002
  0
LINE
  5
10A1
  8
0
  6
VERDECKT
 62
     1
 10
49.5
 20
109.078697487144396
 30
-0.0000000000000242
 11
49.5
 21
256.0
 31
-0.0000000000000568
210
0.0
220
1.0
230
-0.0000000000000002
  0
ARC
  5
10A2
  8
0
  6
VERDECKT
 62
     1
 10
-38.9999999999976978
 20
109.0786974871448933
 30
0.0
 40
10.5000000000023093
210
0.0
220
-0.0000000000000002
230
-1.0
 50
180.0000000000028137
 51
199.2900462191871895
  0
ARC
  5
10A3
  8
0
  6
VERDECKT
 62
     1
 10
38.9999999999976978
 20
109.0786974871448933
 30
0.0
 40
10.5000000000023093
210
0.0
220
-0.0000000000000002
230
-1.0
 50
340.7099537808127252
 51
359.9999999999972147
  0
LINE
  5
10A4
  8
0
  6
VERDECKT
 62
     1
 10
-46.7579121890586791
 20
99.4597307338291188
 30
-0.0000000000000221
 11
-48.9105127418431991
 21
105.6100180274991942
 31
-0.0000000000000235
210
0.0
220
1.0
230
-0.0000000000000002
  0
LINE
  5
10A5
  8
0
  6
VERDECKT
 62
     1
 10
46.7579121890586791
 20
99.4597307338291188
 30
-0.0000000000000221
 11
48.9105127418431991
 21
105.6100180274991942
 31
-0.0000000000000235
210
0.0
220
1.0
230
-0.0000000000000002
  0
ARC
  5
10A6
  8
0
  6
VERDECKT
 62
     1
 10
-59.4999999999986713
 20
95.0000000000002984
 30
0.0
 40
13.4999999999986802
210
0.0
220
-0.0000000000000002
230
-1.0
 50
359.9999999999986926
 51
19.2900462191879498
  0
ARC
  5
10A7
  8
0
  6
VERDECKT
 62
     1
 10
59.4999999999986713
 20
95.0000000000002984
 30
0.0
 40
13.4999999999986802
210
0.0
220
-0.0000000000000002
230
-1.0
 50
160.7099537808119862
 51
180.0000000000013074
  0
LINE
  5
10A8
  8
0
  6
VERDECKT
 62
     1
 10
-46.0
 20
5.0654914143626399
 30
-0.0000000000000011
 11
-46.0
 21
94.9999999999999858
 31
-0.0000000000000211
210
0.0
220
1.0
230
-0.0000000000000002
  0
LINE
  5
10A9
  8
0
  6
VERDECKT
 62
     1
 10
46.0
 20
5.0654914143626399
 30
-0.0000000000000011
 11
46.0
 21
94.9999999999999858
 31
-0.0000000000000211
210
0.0
220
1.0
230
-0.0000000000000002
  0
LINE
  5
10AA
  8
0
  6
VERDECKT
 62
     1
 10
-45.5682646352328788
 20
0.130733614121477
 30
0.0
 11
-46.0000000000000497
 21
5.0654914143626346
 31
-0.0000000000000011
210
0.0
220
1.0
230
-0.0000000000000002
  0
LINE
  5
10AB
  8
0
  6
VERDECKT
 62
     1
 10
45.5682646352328788
 20
0.130733614121477
 30
0.0
 11
46.0000000000000497
 21
5.0654914143626346
 31
-0.0000000000000011
210
0.0
220
1.0
230
-0.0000000000000002
  0
ENDBLK
  5
10AD
  8
0
  0
BLOCK
  8
0
  2
A$C4A5D1EE2
 70
     0
 10
0.0
 20
0.0
 30
0.0
  3
A$C4A5D1EE2
  1

  0
CIRCLE
  5
10B1
  8
0
  6
CONTINUOUS
 62
     3
 10
0.0000000000000638
 20
-0.0000000000000252
 30
0.0
 40
59.0
  0
CIRCLE
  5
10B2
  8
0
  6
CONTINUOUS
 62
     3
 10
0.0000000000000568
 20
0.0000000000000213
 30
0.0
 40
49.5
  0
CIRCLE
  5
10B3
  8
0
  6
CONTINUOUS
 62
     3
 10
0.0000000000000665
 20
-0.0000000000000244
 30
0.0
 40
54.3472941573700226
  0
CIRCLE
  5
10B4
  8
0
  6
CONTINUOUS
 62
     3
 10
0.0000000000000666
 20
-0.0000000000000244
 30
0.0
 40
55.7067558379250087
  0
CIRCLE
  5
10B5
  8
0
  6
CONTINUOUS
 62
     3
 10
0.0
 20
0.0000000000000001
 30
0.0
 40
45.568264635232822
  0
CIRCLE
  5
10B6
  8
0
  6
CONTINUOUS
 62
     3
 10
0.0000000000000211
 20
0.0000000000000059
 30
0.0
 40
46.0
  0
CIRCLE
  5
10B7
  8
0
  6
VERDECKT
 62
     1
 10
0.0000000000000568
 20
0.0000000000000142
 30
0.0
 40
51.0
  0
CIRCLE
  5
10B8
  8
0
  6
VERDECKT
 62
     1
 10
0.0000000000000638
 20
-0.0000000000000252
 30
0.0
 40
57.5
  0
CIRCLE
  5
10B9
  8
0
  6
VERDECKT
 62
     1
 10
0.0
 20
0.0000000000000001
 30
0.0
 40
47.0625566823704276
  0
CIRCLE
  5
10BA
  8
0
  6
VERDECKT
 62
     1
 10
0.0000000000000211
 20
0.0000000000000059
 30
0.0
 40
47.5000000000001066
  0
ENDBLK
  5
10BC
  8
0
  0
ENDSEC
  0
SECTION
  2
ENTITIES
  0
INSERT
  5
C56
  8
ADSK_ASSOC_ENTITY_BACKUPS
  2
*S6
 10
0.0
 20
0.0
 30
0.0
  0
INSERT
  5
10AE
  8
STEMPEL
  2
A$C29DC23F7
 10
0.0
 20
0.0
 30
0.0
  0
INSERT
  5
10BD
  8
STEMPEL
  2
A$C4A5D1EE2
 10
0.0
 20
-110.0
 30
0.0
  0
VIEWPORT
  5
953
 67
     1
  8
0
 10
227.5653085001544866
 20
150.7241566144786873
 30
0.0
 40
907.429042186892616
 41
497.9226026358846866
 68
     1
 69
     1
1001
ACAD
1000
MVIEW
1002
{
1070
    16
1010
0.0
1020
0.0
1030
0.0
1010
0.0
1020
0.0
1030
1.0
1040
0.0
1040
497.9226026358846866
1040
227.5653085001544866
1040
150.7241566144786873
1040
50.0
1040
0.0
1040
0.0
1070
     0
1070
  1500
1070
     1
1070
     1
1070
     0
1070
     0
1070
     0
1070
     0
1040
0.0
1040
0.0
1040
0.0
1040
10.0
1040
10.0
1040
10.0
1040
10.0
1070
     0
1002
{
1002
}
1002
}
  0
ENDSEC
  0
EOF
