  0
SECTION
  2
HEADER
  9
$ACADVER
  1
AC1009
  9
$INSBASE
 10
0.0
 20
0.0
 30
0.0
  9
$EXTMIN
 10
270.7975248075828745
 20
-378.5
 30
-90.0234782348068592
  9
$EXTMAX
 10
427.7975248075828176
 20
78.5
 30
41.9765217651931835
  9
$LIMMIN
 10
0.0
 20
0.0
  9
$LIMMAX
 10
210.0
 20
297.0
  9
$ORTHOMODE
 70
     1
  9
$REGENMODE
 70
     1
  9
$FILLMODE
 70
     1
  9
$QTEXTMODE
 70
     0
  9
$MIRRTEXT
 70
     1
  9
$DRAGMODE
 70
     2
  9
$LTSCALE
 40
10.0
  9
$OSMODE
 70
   183
  9
$ATTMODE
 70
     1
  9
$TEXTSIZE
 40
3.5
  9
$TRACEWID
 40
0.5
  9
$TEXTSTYLE
  7
STANDARD
  9
$CLAYER
  8
STEMPEL
  9
$CELTYPE
  6
BYLAYER
  9
$CECOLOR
 62
   256
  9
$DIMSCALE
 40
1.0
  9
$DIMASZ
 40
3.5
  9
$DIMEXO
 40
1.0
  9
$DIMDLI
 40
7.0
  9
$DIMRND
 40
0.0
  9
$DIMDLE
 40
0.0
  9
$DIMEXE
 40
1.0
  9
$DIMTP
 40
0.0
  9
$DIMTM
 40
0.0
  9
$DIMTXT
 40
3.5
  9
$DIMCEN
 40
1.5
  9
$DIMTSZ
 40
0.0
  9
$DIMTOL
 70
     0
  9
$DIMLIM
 70
     0
  9
$DIMTIH
 70
     0
  9
$DIMTOH
 70
     0
  9
$DIMSE1
 70
     0
  9
$DIMSE2
 70
     0
  9
$DIMTAD
 70
     1
  9
$DIMZIN
 70
     8
  9
$DIMBLK
  1

  9
$DIMASO
 70
     1
  9
$DIMSHO
 70
     0
  9
$DIMPOST
  1

  9
$DIMAPOST
  1

  9
$DIMALT
 70
     0
  9
$DIMALTD
 70
     2
  9
$DIMALTF
 40
25.3999999999999986
  9
$DIMLFAC
 40
1.0
  9
$DIMTOFL
 70
     1
  9
$DIMTVP
 40
0.0
  9
$DIMTIX
 70
     0
  9
$DIMSOXD
 70
     0
  9
$DIMSAH
 70
     0
  9
$DIMBLK1
  1

  9
$DIMBLK2
  1

  9
$DIMSTYLE
  2
STANDARD
  9
$DIMCLRD
 70
     0
  9
$DIMCLRE
 70
     0
  9
$DIMCLRT
 70
     1
  9
$DIMTFAC
 40
0.5142857142857143
  9
$DIMGAP
 40
1.5
  9
$LUNITS
 70
     2
  9
$LUPREC
 70
     2
  9
$SKETCHINC
 40
1.0
  9
$FILLETRAD
 40
12.9000000000000004
  9
$AUNITS
 70
     0
  9
$AUPREC
 70
     0
  9
$MENU
  1
ACAD
  9
$ELEVATION
 40
0.0
  9
$PELEVATION
 40
0.0
  9
$THICKNESS
 40
0.0
  9
$LIMCHECK
 70
     0
  9
$BLIPMODE
 70
     0
  9
$CHAMFERA
 40
0.0
  9
$CHAMFERB
 40
0.0
  9
$SKPOLY
 70
     0
  9
$TDCREATE
 40
2455397.8646990740671754
  9
$TDUPDATE
 40
2458386.5823726849630475
  9
$TDINDWG
 40
0.6425990162
  9
$TDUSRTIMER
 40
0.6425990162
  9
$USRTIMER
 70
     1
  9
$ANGBASE
 50
0.0
  9
$ANGDIR
 70
     0
  9
$PDMODE
 70
     0
  9
$PDSIZE
 40
0.0
  9
$PLINEWID
 40
0.0
  9
$COORDS
 70
     1
  9
$SPLFRAME
 70
     0
  9
$SPLINETYPE
 70
     6
  9
$SPLINESEGS
 70
     8
  9
$ATTDIA
 70
     1
  9
$ATTREQ
 70
     1
  9
$HANDLING
 70
     1
  9
$HANDSEED
  5
34EB
  9
$SURFTAB1
 70
     6
  9
$SURFTAB2
 70
     6
  9
$SURFTYPE
 70
     6
  9
$SURFU
 70
     6
  9
$SURFV
 70
     6
  9
$UCSNAME
  2

  9
$UCSORG
 10
0.0
 20
0.0
 30
0.0
  9
$UCSXDIR
 10
1.0
 20
0.0
 30
0.0
  9
$UCSYDIR
 10
0.0
 20
1.0
 30
0.0
  9
$PUCSNAME
  2

  9
$PUCSORG
 10
0.0
 20
0.0
 30
0.0
  9
$PUCSXDIR
 10
1.0
 20
0.0
 30
0.0
  9
$PUCSYDIR
 10
0.0
 20
1.0
 30
0.0
  9
$USERI1
 70
     0
  9
$USERI2
 70
     0
  9
$USERI3
 70
     0
  9
$USERI4
 70
     0
  9
$USERI5
 70
     0
  9
$USERR1
 40
0.0
  9
$USERR2
 40
0.0
  9
$USERR3
 40
0.0
  9
$USERR4
 40
0.0
  9
$USERR5
 40
0.0
  9
$WORLDVIEW
 70
     1
  9
$SHADEDGE
 70
     3
  9
$SHADEDIF
 70
    70
  9
$TILEMODE
 70
     1
  9
$MAXACTVP
 70
    16
  9
$PLIMCHECK
 70
     0
  9
$PEXTMIN
 10
-4.8571000761083951
 20
-4.6958912435510447
 30
-0.0000000039384695
  9
$PEXTMAX
 10
205.1512879463618901
 20
292.3247980939436275
 30
0.0000000124747896
  9
$PLIMMIN
 10
-5.027082920074462
 20
-5.027099609375
  9
$PLIMMAX
 10
204.9462447166442871
 20
291.898895263671875
  9
$UNITMODE
 70
     0
  9
$VISRETAIN
 70
     0
  9
$PLINEGEN
 70
     0
  9
$PSLTSCALE
 70
     0
  0
ENDSEC
  0
SECTION
  2
TABLES
  0
TABLE
  2
VPORT
 70
     1
  0
VPORT
  2
*ACTIVE
 70
     0
 10
0.0
 20
0.0
 11
1.0
 21
1.0
 12
0.0
 22
0.0
 13
0.0
 23
0.0
 14
1.0
 24
1.0
 15
10.0
 25
10.0
 16
-0.0000000000006253
 26
0.0
 36
1452.3239048620400808
 17
496.9209691957552195
 27
-155.873737198015192
 37
-24.023478234806781
 40
586.8647672290935589
 41
1.8224299065420551
 42
50.0
 43
0.0
 44
0.0
 50
0.0
 51
0.0
 71
     0
 72
  1500
 73
     1
 74
     0
 75
     0
 76
     0
 77
     0
 78
     0
  0
ENDTAB
  0
TABLE
  2
LTYPE
 70
    14
  0
LTYPE
  2
CONTINUOUS
 70
     0
  3
Solid line
 72
    65
 73
     0
 40
0.0
  0
LTYPE
  2
AUSGEZOGEN
 70
     0
  3
Ausgezogene Linie
 72
    65
 73
     0
 40
0.0
  0
LTYPE
  2
HIDDEN2
 70
     0
  3

 72
    65
 73
     2
 40
0.1875
 49
0.125
 49
-0.0625
  0
LTYPE
  2
HIDDEN
 70
     0
  3
Hidden __ __ __ __ __ __ __ __ __ __ __ __ __ __
 72
    65
 73
     2
 40
0.375
 49
0.25
 49
-0.125
  0
LTYPE
  2
PHANTOM2
 70
     0
  3
Phantom (.5x) ___ _ _ ___ _ _ ___ _ _ ___ _ _
 72
    65
 73
     6
 40
1.25
 49
0.625
 49
-0.125
 49
0.125
 49
-0.125
 49
0.125
 49
-0.125
  0
LTYPE
  2
CENTER
 70
     0
  3
Center ____ _ ____ _ ____ _ ____ _ ____ _ ____
 72
    65
 73
     4
 40
2.0
 49
1.25
 49
-0.25
 49
0.25
 49
-0.25
  0
LTYPE
  2
AMCONSTR
 70
     0
  3
_______________________
 72
    65
 73
     2
 40
9999.0
 49
9999.0
 49
0.0
  0
LTYPE
  2
CENTER2
 70
     0
  3
Center (.5x) ___ _ ___ _ ___ _ ___ _ ___ _ ___
 72
    65
 73
     4
 40
1.125
 49
0.75
 49
-0.125
 49
0.125
 49
-0.125
  0
LTYPE
  2
AMZIGZAG2
 70
     0
  3
/\/-/\/-/\/-/\/-/\/-/\/
 72
    65
 73
     2
 40
0.4401
 49
0.0001
 49
-0.4400000000000001
  0
LTYPE
  2
ACANSTGB
 70
     0
  3
__ . . __ . .
 72
    65
 73
     6
 40
0.35433070866
 49
0.15748031496
 49
-0.03937007874
 49
0.03937007874
 49
-0.03937007874
 49
0.03937007874
 49
-0.03937007874
  0
LTYPE
  2
ACANSTGL
 70
     0
  3
_ _ _ _ _
 72
    65
 73
     2
 40
0.11811023622
 49
0.07874015748
 49
-0.03937007874
  0
ENDTAB
  0
TABLE
  2
LAYER
 70
    16
  0
LAYER
  2
0
 70
     0
 62
     7
  6
CONTINUOUS
  0
LAYER
  2
STEMPEL
 70
     0
 62
     3
  6
CONTINUOUS
  0
LAYER
  2
ROHR
 70
     0
 62
   254
  6
CONTINUOUS
  0
LAYER
  2
ADSK_ASSOC_ENTITY_BACKUPS
 70
     1
 62
    -7
  6
CONTINUOUS
  0
LAYER
  2
BLECH
 70
     0
 62
   254
  6
CONTINUOUS
  0
ENDTAB
  0
TABLE
  2
STYLE
 70
     5
  0
STYLE
  2
STANDARD
 70
     0
 40
0.0
 41
0.8
 50
0.0
 71
     0
 42
3.5
  3
simplex.shx
  4

  0
STYLE
  2

 70
     1
 40
0.0
 41
1.0
 50
0.0
 71
     0
 42
2.5
  3
genltshp.shx
  4

  0
STYLE
  2
ACANSGDT
 70
     0
 40
0.0
 41
1.0
 50
0.0
 71
     0
 42
2.5
  3
amgdt.shx
  4

  0
ENDTAB
  0
TABLE
  2
VIEW
 70
     1
  0
ENDTAB
  0
TABLE
  2
UCS
 70
     0
  0
ENDTAB
  0
TABLE
  2
APPID
 70
    43
  0
APPID
  2
ACAD
 70
     0
  0
APPID
  2
ACAD_NAV_VCDISPLAY
 70
     0
  0
APPID
  2
GRADIENTCOLOR1ACI
 70
     0
  0
APPID
  2
GRADIENTCOLOR2ACI
 70
     0
  0
APPID
  2
ACAD_EXEMPT_FROM_CAD_STANDARDS
 70
     0
  0
APPID
  2
ACAECLAYERSTANDARD
 70
     0
  0
APPID
  2
ACCMTRANSPARENCY
 70
     0
  0
APPID
  2
ACAD_PSEXT
 70
     0
  0
APPID
  2
ACAD_MLEADERVER
 70
     0
  0
APPID
  2
ACAD_OBJECT_CHANGE_GUID
 70
     0
  0
APPID
  2
MCAD_NO_VIS
 70
     0
  0
APPID
  2
ACAD_TEMP_GRAPHIC
 70
     0
  0
APPID
  2
ACATTRIBSERVICES
 70
     0
  0
APPID
  2
DESIGNERASSEMBLIES
 70
     0
  0
APPID
  2
ACAD_DSTYLE_DIMJAG
 70
     0
  0
APPID
  2
ACAD_DSTYLE_DIMBREAK
 70
     0
  0
APPID
  2
GENIUS_GENSCREG_15
 70
     0
  0
APPID
  2
GENIUS_GENODEF_13
 70
     0
  0
APPID
  2
GENIUS_GENOBJ-N-SDF_13
 70
     0
  0
APPID
  2
ACAD_STEPID
 70
     0
  0
APPID
  2
RAK
 70
     0
  0
APPID
  2
ACAUTHENVIRON
 70
     0
  0
APPID
  2
ACDBDYNAMICBLOCKTRUENAME
 70
     0
  0
APPID
  2
ACDBDYNAMICBLOCKGUID
 70
     0
  0
APPID
  2
ACSYNERGY
 70
     0
  0
APPID
  2
SYNERGY_BODY_TBR_ID
 70
     0
  0
APPID
  2
ACAD_VIEW_EDGE_ID
 70
     0
  0
APPID
  2
GENIUS_GENDTOL_13
 70
     0
  0
APPID
  2
ACAD_DSTYLE_DIMINSPECT
 70
     0
  0
APPID
  2
ACADANNOMONITORALERTICONDI
 70
     0
  0
APPID
  2
ACAD_DSTYLE_DIMTALN
 70
     0
  0
APPID
  2
ACADANNOPO
 70
     0
  0
APPID
  2
ACADANNOTATIVE
 70
     0
  0
APPID
  2
ACAD_ASSOCPERSSUBENTMANAGER
 70
     0
  0
APPID
  2
ACSYNERGYSKETCH
 70
     0
  0
APPID
  2
ACAD_MODELDOC_XFORM
 70
     0
  0
APPID
  2
ACAD_DIMASSOC_CALC_DIMLFAC
 70
     0
  0
APPID
  2
ACAD_DIMASSOC_DIMLFAC
 70
     0
  0
APPID
  2
ACAD_DIMASSOC_OVERRIDDEN_D
 70
     0
  0
APPID
  2
ACAD_DSTYLE_DIMRADIAL_EXTENSION
 70
     0
  0
APPID
  2
GENIUS_GENDIMSH_14
 70
     0
  0
APPID
  2
ACAD_DSTYLE_DIMANGULAR_EXT
 70
     0
  0
APPID
  2
ACADANNOAV
 70
     0
  0
ENDTAB
  0
TABLE
  2
DIMSTYLE
 70
     9
  0
DIMSTYLE
  2
STANDARD
 70
     0
  3

  4

  5

  6

  7

 40
1.0
 41
0.18
 42
0.0625
 43
0.38
 44
0.18
 45
0.0
 46
0.0
 47
0.0
 48
0.0
140
0.18
141
0.09
142
0.0
143
25.3999999999999986
144
1.0
145
0.0
146
1.0
147
0.09
 71
     0
 72
     0
 73
     1
 74
     1
 75
     0
 76
     0
 77
     0
 78
     0
170
     0
171
     2
172
     0
173
     0
174
     0
175
     0
176
     0
177
     0
178
     0
  0
DIMSTYLE
  2
AM_ANSI
 70
     0
  3

  4
mm
  5

  6

  7

 40
1.0
 41
0.12
 42
0.05
 43
0.5
 44
0.1
 45
0.0
 46
0.0
 47
0.1
 48
0.1
140
0.12
141
0.0
142
0.0
143
25.3999999999999986
144
1.0
145
0.0
146
0.71
147
0.06
 71
     0
 72
     0
 73
     1
 74
     1
 75
     0
 76
     0
 77
     0
 78
     7
170
     0
171
     2
172
     0
173
     0
174
     0
175
     0
176
   256
177
   256
178
     2
  0
DIMSTYLE
  2
AM_ANSI$3
 70
     0
  3

  4
mm
  5

  6

  7

 40
1.0
 41
0.12
 42
0.05
 43
0.5
 44
0.1
 45
0.0
 46
0.0
 47
0.1
 48
0.1
140
0.12
141
0.0
142
0.0
143
25.3999999999999986
144
1.0
145
0.0
146
0.71
147
0.06
 71
     0
 72
     0
 73
     1
 74
     1
 75
     0
 76
     0
 77
     0
 78
     7
170
     0
171
     2
172
     0
173
     0
174
     0
175
     0
176
   256
177
   256
178
     2
  0
DIMSTYLE
  2
AM_ANSI$4
 70
     0
  3

  4
mm
  5

  6

  7

 40
1.0
 41
0.12
 42
0.05
 43
0.5
 44
0.1
 45
0.0
 46
0.0
 47
0.1
 48
0.1
140
0.12
141
0.0
142
0.0
143
25.3999999999999986
144
1.0
145
0.0
146
0.71
147
0.06
 71
     0
 72
     0
 73
     1
 74
     1
 75
     0
 76
     0
 77
     0
 78
     7
170
     0
171
     2
172
     0
173
     0
174
     0
175
     0
176
   256
177
   256
178
     2
  0
DIMSTYLE
  2
AM_ANSI$7
 70
     0
  3

  4
mm
  5

  6

  7

 40
1.0
 41
0.12
 42
0.05
 43
0.5
 44
0.1
 45
0.0
 46
0.0
 47
0.1
 48
0.1
140
0.12
141
0.0
142
0.0
143
25.3999999999999986
144
1.0
145
0.0
146
0.71
147
0.06
 71
     0
 72
     0
 73
     1
 74
     1
 75
     0
 76
     0
 77
     0
 78
     7
170
     0
171
     2
172
     0
173
     0
174
     0
175
     0
176
   256
177
   256
178
     2
  0
DIMSTYLE
  2
AM_ANSI$SF
 70
     0
  3

  4
mm
  5

  6

  7

 40
1.0
 41
0.12
 42
0.05
 43
0.5
 44
0.1
 45
0.0
 46
0.0
 47
0.1
 48
0.1
140
0.12
141
0.0
142
0.0
143
25.3999999999999986
144
1.0
145
0.0
146
0.71
147
0.06
 71
     0
 72
     0
 73
     1
 74
     1
 75
     1
 76
     1
 77
     0
 78
     7
170
     0
171
     2
172
     0
173
     0
174
     0
175
     0
176
   256
177
   256
178
     2
  0
DIMSTYLE
  2
AM_ANSI$SH
 70
     0
  3

  4
mm
  5

  6
GENAXEH
  7

 40
1.0
 41
0.12
 42
0.05
 43
0.5
 44
0.1
 45
0.0
 46
0.0
 47
0.1
 48
0.1
140
0.12
141
0.0
142
0.0
143
25.3999999999999986
144
1.0
145
0.0
146
0.71
147
0.06
 71
     0
 72
     0
 73
     1
 74
     1
 75
     1
 76
     1
 77
     0
 78
     7
170
     0
171
     2
172
     0
173
     1
174
     0
175
     0
176
   256
177
   256
178
     2
  0
ENDTAB
  0
ENDSEC
  0
SECTION
  2
BLOCKS
  0
BLOCK
  8
0
  2
$MODEL_SPACE
 70
     0
 10
0.0
 20
0.0
 30
0.0
  3
$MODEL_SPACE
  1

  0
ENDBLK
  5
36
  8
0
  0
BLOCK
 67
     1
  8
0
  2
$PAPER_SPACE
 70
     0
 10
0.0
 20
0.0
 30
0.0
  3
$PAPER_SPACE
  1

  0
ENDBLK
  5
34
 67
     1
  8
0
  0
BLOCK
  8
0
  2
GENAXEH
 70
     0
 10
0.0
 20
0.0
 30
0.0
  3
GENAXEH
  1

  0
LINE
  5
C93
  8
0
 10
-1.0
 20
0.0
 30
0.0
 11
1.0
 21
0.0
 31
0.0
  0
ENDBLK
  5
C95
  8
0
  0
BLOCK
  8
0
  2
_ACMFILLEDHALF
 70
     0
 10
0.0
 20
0.0
 30
0.0
  3
_ACMFILLEDHALF
  1

  0
TRACE
  5
CA3
  8
ROHR
 62
     0
 10
-0.8
 20
0.0
 30
0.0
 11
-1.0
 21
0.166666666
 31
0.0
 12
0.0
 22
0.0
 32
0.0
 13
0.0
 23
0.0
 33
0.0
  0
LINE
  5
CA4
  8
ROHR
 62
     0
 10
-1.0
 20
0.0
 30
0.0
 11
-0.8
 21
0.0
 31
0.0
  0
ENDBLK
  5
CA2
  8
0
  0
BLOCK
  8
0
  2
*S2
 70
     1
 10
0.0
 20
0.0
 30
0.0
  3
*S2
  1

  0
ENDBLK
  5
10CB
  8
0
  0
BLOCK
  8
0
  2
*U3
 70
     1
 10
0.0
 20
0.0
 30
0.0
  3
*U3
  1

  0
ENDBLK
  5
1ABA
  8
0
  0
BLOCK
  8
0
  2
A$C752D5F75
 70
     0
 10
0.0
 20
0.0
 30
0.0
  3
A$C752D5F75
  1

  0
LINE
  5
346F
  8
0
  6
CONTINUOUS
 62
     3
 10
415.0358331075124738
 20
-90.0234782348069729
 30
0.00000000000002
 11
283.5592165076532183
 21
-90.0234782348069302
 31
0.00000000000002
210
0.0000000000000003
220
1.0
230
-0.0000000000000002
  0
ARC
  5
3470
  8
0
  6
CONTINUOUS
 62
     3
 10
-402.8975248076018829
 20
-80.7540761009043564
 30
0.0
 40
12.8999999999809294
210
0.0
220
-0.0000000000000002
230
-1.0
 50
179.999999999994003
 51
185.0000000000011937
  0
ARC
  5
3471
  8
0
  6
CONTINUOUS
 62
     3
 10
-295.6975248075638092
 20
-80.754076100904328
 30
0.0
 40
12.8999999999809294
210
0.0
220
-0.0000000000000002
230
-1.0
 50
354.9999999999988063
 51
0.0000000000060058
  0
LINE
  5
3472
  8
0
  6
CONTINUOUS
 62
     3
 10
283.5592165076532183
 20
-90.0234782348069302
 30
0.00000000000002
 11
282.8466132021993076
 21
-81.8783851823477278
 31
0.0000000000000182
210
0.0000000000000003
220
1.0
230
-0.0000000000000002
  0
LINE
  5
3473
  8
0
  6
CONTINUOUS
 62
     3
 10
415.0358331075124738
 20
-90.0234782348069729
 30
0.00000000000002
 11
415.7484364129663845
 21
-81.8783851823477704
 31
0.0000000000000182
210
0.0000000000000003
220
1.0
230
-0.0000000000000002
  0
LINE
  5
3474
  8
0
  6
CONTINUOUS
 62
     3
 10
282.7975248075828745
 20
-80.7540761009029779
 30
0.0000000000000179
 11
282.7975248075828745
 21
39.9765217651931195
 31
-0.0000000000000089
210
0.0000000000000003
220
1.0
230
-0.0000000000000002
  0
LINE
  5
3475
  8
0
  6
CONTINUOUS
 62
     3
 10
415.7975248075828176
 20
-80.7540761009030206
 30
0.0000000000000179
 11
415.7975248075828176
 21
39.9765217651930769
 31
-0.0000000000000089
210
0.0000000000000003
220
1.0
230
-0.0000000000000002
  0
LINE
  5
3476
  8
0
  6
CONTINUOUS
 62
     3
 10
427.7975248075828176
 20
39.9765217651930769
 30
-0.0000000000000089
 11
270.7975248075828745
 21
39.9765217651931195
 31
-0.0000000000000089
210
0.0000000000000003
220
1.0
230
-0.0000000000000002
  0
LINE
  5
3477
  8
0
  6
CONTINUOUS
 62
     3
 10
427.7975248075828176
 20
41.9765217651930769
 30
-0.0000000000000093
 11
270.7975248075828745
 21
41.9765217651931124
 31
-0.0000000000000093
210
0.0000000000000003
220
1.0
230
-0.0000000000000002
  0
LINE
  5
3478
  8
0
  6
CONTINUOUS
 62
     3
 10
270.7975248075828745
 20
39.9765217651931195
 30
-0.0000000000000089
 11
270.7975248075828745
 21
41.9765217651931124
 31
-0.0000000000000093
210
0.0000000000000003
220
1.0
230
-0.0000000000000002
  0
LINE
  5
3479
  8
0
  6
CONTINUOUS
 62
     3
 10
427.7975248075828176
 20
39.9765217651930769
 30
-0.0000000000000089
 11
427.7975248075828176
 21
41.9765217651930769
 31
-0.0000000000000093
210
0.0000000000000003
220
1.0
230
-0.0000000000000002
  0
LINE
  5
347A
  8
0
  6
HIDDEN
 62
     1
 10
413.541541060374982
 20
-89.8927446206854768
 30
0.00000000000002
 11
285.0535085547908238
 21
-89.8927446206854341
 31
0.00000000000002
210
0.0000000000000003
220
1.0
230
-0.0000000000000002
  0
ARC
  5
347B
  8
0
  6
HIDDEN
 62
     1
 10
-402.8975248075923901
 20
-80.7540761009042143
 30
0.0
 40
11.3999999999904809
210
0.0
220
-0.0000000000000002
230
-1.0
 50
179.9999999999976978
 51
185.0000000000017053
  0
ARC
  5
347C
  8
0
  6
HIDDEN
 62
     1
 10
-295.6975248075727905
 20
-80.7540761009042143
 30
0.0
 40
11.3999999999899693
210
0.0
220
-0.0000000000000002
230
-1.0
 50
354.999999999998181
 51
0.0000000000024449
  0
LINE
  5
347D
  8
0
  6
HIDDEN
 62
     1
 10
285.0535085547908238
 20
-89.8927446206854341
 30
0.00000000000002
 11
284.3409052493369131
 21
-81.7476515682270133
 31
0.0000000000000182
210
0.0000000000000003
220
1.0
230
-0.0000000000000002
  0
LINE
  5
347E
  8
0
  6
HIDDEN
 62
     1
 10
413.541541060374982
 20
-89.8927446206854768
 30
0.00000000000002
 11
414.254144365828779
 21
-81.7476515682270559
 31
0.0000000000000182
210
0.0000000000000003
220
1.0
230
-0.0000000000000002
  0
LINE
  5
347F
  8
0
  6
HIDDEN
 62
     1
 10
413.541541060374982
 20
-89.8927446206854768
 30
0.00000000000002
 11
415.0358331075124738
 21
-90.0234782348069871
 31
0.00000000000002
210
0.0000000000000003
220
1.0
230
-0.0000000000000002
  0
LINE
  5
3480
  8
0
  6
HIDDEN
 62
     1
 10
285.0535085547908238
 20
-89.8927446206854484
 30
0.00000000000002
 11
283.5592165076532183
 21
-90.0234782348069444
 31
0.00000000000002
210
0.0000000000000003
220
1.0
230
-0.0000000000000002
  0
LINE
  5
3481
  8
0
  6
HIDDEN
 62
     1
 10
284.2975248075828176
 20
-80.7540761009037169
 30
0.0000000000000179
 11
284.2975248075828176
 21
39.9765217651931195
 31
-0.0000000000000089
210
0.0000000000000003
220
1.0
230
-0.0000000000000002
  0
LINE
  5
3482
  8
0
  6
HIDDEN
 62
     1
 10
414.2975248075828745
 20
-80.7540761009037595
 30
0.0000000000000179
 11
414.2975248075828745
 21
39.9765217651930769
 31
-0.0000000000000089
210
0.0000000000000003
220
1.0
230
-0.0000000000000002
  0
ENDBLK
  5
3484
  8
0
  0
BLOCK
  8
0
  2
A$C3D9271A6
 70
     0
 10
0.0
 20
0.0
 30
0.0
  3
A$C3D9271A6
  1

  0
CIRCLE
  5
3488
  8
0
  6
CONTINUOUS
 62
     3
 10
349.2975248075828745
 20
0.0
 30
0.0000000000000853
 40
78.5
  0
CIRCLE
  5
3489
  8
0
  6
HIDDEN
 62
     1
 10
349.2975248075828745
 20
0.0
 30
0.0000000000000853
 40
64.2440162527921075
  0
CIRCLE
  5
348A
  8
0
  6
HIDDEN
 62
     1
 10
349.2975248075828745
 20
0.0
 30
0.0000000000000853
 40
65.7383082999296562
  0
CIRCLE
  5
348B
  8
0
  6
HIDDEN
 62
     1
 10
349.2975248075828745
 20
0.0
 30
0.0000000000000853
 40
66.5
  0
CIRCLE
  5
348C
  8
0
  6
HIDDEN
 62
     1
 10
349.2975248075828745
 20
0.0
 30
0.0000000000000853
 40
65.0
  0
ENDBLK
  5
348E
  8
0
  0
ENDSEC
  0
SECTION
  2
ENTITIES
  0
INSERT
  5
10CD
  8
ADSK_ASSOC_ENTITY_BACKUPS
  2
*S2
 10
0.0
 20
0.0
 30
0.0
  0
INSERT
  5
3485
  8
STEMPEL
  2
A$C752D5F75
 10
0.0
 20
0.0
 30
0.0
  0
INSERT
  5
348F
  8
STEMPEL
  2
A$C3D9271A6
 10
0.0
 20
-300.0
 30
0.0
  0
VIEWPORT
  5
83F
 67
     1
  8
0
 10
84.8247658116379171
 20
122.592167115973794
 30
0.0
 40
868.1835023231323021
 41
476.3878705055136038
 68
     1
 69
     1
1001
ACAD
1000
MVIEW
1002
{
1070
    16
1010
0.0
1020
0.0
1030
0.0
1010
0.0
1020
0.0
1030
1.0
1040
0.0
1040
476.3878705055136038
1040
84.8247658116379171
1040
122.592167115973794
1040
50.0
1040
0.0
1040
0.0
1070
     0
1070
  1500
1070
     1
1070
     1
1070
     0
1070
     0
1070
     0
1070
     0
1040
0.0
1040
0.0
1040
0.0
1040
10.0
1040
10.0
1040
10.0
1040
10.0
1070
     0
1002
{
1002
}
1002
}
1001
GENIUS_GENODEF_13
1002
{
1000
HIER
1070
     0
1002
}
1002
{
1000
MANEDIT
1070
     0
1002
}
1002
{
1000
NOSEL
1070
     0
1002
}
1002
{
1000
BEHIND
1070
     0
1002
}
1002
{
1000
OTHER
1070
     0
1002
}
1002
{
1000
REACTOR
1002
}
1001
GENIUS_GENOBJ-N-SDF_13
1002
{
1000
OWNER
1000
GEN
1002
}
1001
GENIUS_GENSCREG_15
1000
PF
1040
1.0
1000
DF
1040
1.0
1000
MIN
1011
-47.9300878434920605
1021
0.0
1031
0.0
1021
-6.694389961298981
1031
0.0
1000
MAX
1011
423.9789996726555046
1021
0.0
1031
0.0
1021
229.1033733690285885
1031
0.0
1000
FLAGS
1070
     4
  0
ENDSEC
  0
EOF
