  0
SECTION
  2
HEADER
  9
$ACADVER
  1
AC1009
  9
$INSBASE
 10
0.0
 20
0.0
 30
0.0
  9
$EXTMIN
 10
159.4780883789061932
 20
-322.769073486328125
 30
285.9799194335938068
  9
$EXTMAX
 10
432.4780883789061932
 20
300.0
 30
285.9799194335938068
  9
$LIMMIN
 10
0.0
 20
0.0
  9
$LIMMAX
 10
419.9999999999998863
 20
594.0
  9
$ORTHOMODE
 70
     1
  9
$REGENMODE
 70
     1
  9
$FILLMODE
 70
     1
  9
$QTEXTMODE
 70
     0
  9
$MIRRTEXT
 70
     1
  9
$DRAGMODE
 70
     2
  9
$LTSCALE
 40
20.0
  9
$OSMODE
 70
  3583
  9
$ATTMODE
 70
     1
  9
$TEXTSIZE
 40
3.5
  9
$TRACEWID
 40
0.5
  9
$TEXTSTYLE
  7
STANDARD
  9
$CLAYER
  8
STEMPEL
  9
$CELTYPE
  6
BYLAYER
  9
$CECOLOR
 62
   256
  9
$DIMSCALE
 40
1.0
  9
$DIMASZ
 40
3.5
  9
$DIMEXO
 40
1.0
  9
$DIMDLI
 40
0.38
  9
$DIMRND
 40
0.0
  9
$DIMDLE
 40
0.0
  9
$DIMEXE
 40
1.0
  9
$DIMTP
 40
0.0
  9
$DIMTM
 40
0.000000001
  9
$DIMTXT
 40
3.5
  9
$DIMCEN
 40
0.09
  9
$DIMTSZ
 40
0.0
  9
$DIMTOL
 70
     0
  9
$DIMLIM
 70
     0
  9
$DIMTIH
 70
     0
  9
$DIMTOH
 70
     0
  9
$DIMSE1
 70
     0
  9
$DIMSE2
 70
     0
  9
$DIMTAD
 70
     1
  9
$DIMZIN
 70
     8
  9
$DIMBLK
  1

  9
$DIMASO
 70
     1
  9
$DIMSHO
 70
     0
  9
$DIMPOST
  1

  9
$DIMAPOST
  1

  9
$DIMALT
 70
     0
  9
$DIMALTD
 70
     2
  9
$DIMALTF
 40
25.3999999999999986
  9
$DIMLFAC
 40
2.0
  9
$DIMTOFL
 70
     1
  9
$DIMTVP
 40
0.0
  9
$DIMTIX
 70
     0
  9
$DIMSOXD
 70
     0
  9
$DIMSAH
 70
     0
  9
$DIMBLK1
  1

  9
$DIMBLK2
  1

  9
$DIMSTYLE
  2
LORO
  9
$DIMCLRD
 70
     0
  9
$DIMCLRE
 70
     0
  9
$DIMCLRT
 70
     1
  9
$DIMTFAC
 40
0.5
  9
$DIMGAP
 40
1.5
  9
$LUNITS
 70
     2
  9
$LUPREC
 70
     2
  9
$SKETCHINC
 40
1.0
  9
$FILLETRAD
 40
0.0
  9
$AUNITS
 70
     0
  9
$AUPREC
 70
     0
  9
$MENU
  1
ACAD
  9
$ELEVATION
 40
0.0
  9
$PELEVATION
 40
0.0
  9
$THICKNESS
 40
0.0
  9
$LIMCHECK
 70
     0
  9
$BLIPMODE
 70
     0
  9
$CHAMFERA
 40
2.0
  9
$CHAMFERB
 40
2.0
  9
$SKPOLY
 70
     0
  9
$TDCREATE
 40
2455397.8646990740671754
  9
$TDUPDATE
 40
2460927.4498842591419816
  9
$TDINDWG
 40
2.2755249306000001
  9
$TDUSRTIMER
 40
2.2755249306000001
  9
$USRTIMER
 70
     1
  9
$ANGBASE
 50
0.0
  9
$ANGDIR
 70
     0
  9
$PDMODE
 70
     0
  9
$PDSIZE
 40
0.0
  9
$PLINEWID
 40
0.0
  9
$COORDS
 70
     1
  9
$SPLFRAME
 70
     0
  9
$SPLINETYPE
 70
     6
  9
$SPLINESEGS
 70
     8
  9
$ATTDIA
 70
     1
  9
$ATTREQ
 70
     1
  9
$HANDLING
 70
     1
  9
$HANDSEED
  5
23669
  9
$SURFTAB1
 70
     6
  9
$SURFTAB2
 70
     6
  9
$SURFTYPE
 70
     6
  9
$SURFU
 70
     6
  9
$SURFV
 70
     6
  9
$UCSNAME
  2

  9
$UCSORG
 10
0.0
 20
0.0
 30
0.0
  9
$UCSXDIR
 10
1.0
 20
0.0
 30
0.0
  9
$UCSYDIR
 10
0.0
 20
1.0
 30
0.0
  9
$PUCSNAME
  2

  9
$PUCSORG
 10
0.0
 20
0.0
 30
0.0
  9
$PUCSXDIR
 10
1.0
 20
0.0
 30
0.0
  9
$PUCSYDIR
 10
0.0
 20
1.0
 30
0.0
  9
$USERI1
 70
     0
  9
$USERI2
 70
     0
  9
$USERI3
 70
     0
  9
$USERI4
 70
     0
  9
$USERI5
 70
     0
  9
$USERR1
 40
0.0
  9
$USERR2
 40
0.0
  9
$USERR3
 40
0.0
  9
$USERR4
 40
0.0
  9
$USERR5
 40
0.0
  9
$WORLDVIEW
 70
     1
  9
$SHADEDGE
 70
     3
  9
$SHADEDIF
 70
    70
  9
$TILEMODE
 70
     1
  9
$MAXACTVP
 70
    16
  9
$PLIMCHECK
 70
     0
  9
$PEXTMIN
 10
1.0000000000000000E+20
 20
1.0000000000000000E+20
 30
1.0000000000000000E+20
  9
$PEXTMAX
 10
-1.0000000000000000E+20
 20
-1.0000000000000000E+20
 30
-1.0000000000000000E+20
  9
$PLIMMIN
 10
-593.2447509765625
 20
-296.7499999999998863
  9
$PLIMMAX
 10
-296.2447509765625
 20
123.25
  9
$UNITMODE
 70
     0
  9
$VISRETAIN
 70
     0
  9
$PLINEGEN
 70
     0
  9
$PSLTSCALE
 70
     0
  0
ENDSEC
  0
SECTION
  2
TABLES
  0
TABLE
  2
VPORT
 70
     1
  0
VPORT
  2
*ACTIVE
 70
     0
 10
0.0
 20
0.0
 11
1.0
 21
1.0
 12
97.2990722688649612
 22
-54.3008103422823183
 13
0.0
 23
0.0
 14
1.0
 24
1.0
 15
10.0
 25
10.0
 16
-0.0000000000003126
 26
0.0
 36
1391.1104377699000452
 17
198.6790161100414025
 27
42.9162735991182487
 37
149.9999999999998863
 40
626.0014389196481943
 41
1.9004329004328999
 42
49.9999999999997513
 43
0.0
 44
0.0
 50
0.0
 51
0.0
 71
     0
 72
  1500
 73
     1
 74
     0
 75
     0
 76
     0
 77
     0
 78
     0
  0
ENDTAB
  0
TABLE
  2
LTYPE
 70
     3
  0
LTYPE
  2
CONTINUOUS
 70
     0
  3
Solid line
 72
    65
 73
     0
 40
0.0
  0
LTYPE
  2
STRICHPUNKT
 70
     0
  3
__ . __ . __ . __ . __ . __ . __ . __ . __ . __
 72
    65
 73
     4
 40
1.0
 49
0.5
 49
-0.25
 49
0.0
 49
-0.25
  0
LTYPE
  2
VERDECKT
 70
     0
  3
Verdeckt __ __ __ __ __ __ __ __ __ __ __ __ __
 72
    65
 73
     2
 40
0.375
 49
0.25
 49
-0.125
  0
ENDTAB
  0
TABLE
  2
LAYER
 70
     6
  0
LAYER
  2
0
 70
     0
 62
     7
  6
CONTINUOUS
  0
LAYER
  2
VOLL
 70
     0
 62
     1
  6
CONTINUOUS
  0
LAYER
  2
STEMPEL
 70
     0
 62
     3
  6
CONTINUOUS
  0
LAYER
  2
DEFPOINTS
 70
     0
 62
     7
  6
CONTINUOUS
  0
LAYER
  2
ADSK_ASSOC_ENTITY_BACKUPS
 70
     1
 62
    -7
  6
CONTINUOUS
  0
LAYER
  2
MATERIAL__VERZINKT_
 70
     0
 62
   254
  6
CONTINUOUS
  0
ENDTAB
  0
TABLE
  2
STYLE
 70
     3
  0
STYLE
  2
STANDARD
 70
     0
 40
0.0
 41
0.8
 50
0.0
 71
     0
 42
3.5
  3
simplex.shx
  4

  0
STYLE
  2
GREEKS
 70
     0
 40
0.0
 41
0.8
 50
0.0
 71
     0
 42
2.5
  3
SIMPLEX.shx
  4

  0
STYLE
  2

 70
     1
 40
0.0
 41
1.0
 50
0.0
 71
     0
 42
2.5
  3
ltypeshp.shx
  4

  0
ENDTAB
  0
TABLE
  2
VIEW
 70
     0
  0
ENDTAB
  0
TABLE
  2
UCS
 70
     0
  0
ENDTAB
  0
TABLE
  2
APPID
 70
    30
  0
APPID
  2
ACAD
 70
     0
  0
APPID
  2
ACAD_NAV_VCDISPLAY
 70
     0
  0
APPID
  2
ACAD_MLEADERVER
 70
     0
  0
APPID
  2
ACAD_EXEMPT_FROM_CAD_STANDARDS
 70
     0
  0
APPID
  2
ACAD_PSEXT
 70
     0
  0
APPID
  2
ACAECLAYERSTANDARD
 70
     0
  0
APPID
  2
ACAD_DSTYLE_DIMJAG
 70
     0
  0
APPID
  2
ACAD_DSTYLE_DIMTALN
 70
     0
  0
APPID
  2
ACCMTRANSPARENCY
 70
     0
  0
APPID
  2
ACADANNOMONITORALERTICONDI
 70
     0
  0
APPID
  2
ACAD_DSTYLE_DIMRADIAL_EXTENSION
 70
     0
  0
APPID
  2
GRADIENTCOLOR1ACI
 70
     0
  0
APPID
  2
GRADIENTCOLOR2ACI
 70
     0
  0
APPID
  2
ACAD_OBJECT_CHANGE_GUID
 70
     0
  0
APPID
  2
ACSYNERGY
 70
     0
  0
APPID
  2
SYNERGY_BODY_TBR_ID
 70
     0
  0
APPID
  2
ACAD_VIEW_EDGE_ID
 70
     0
  0
APPID
  2
ACAD_DIMASSOC_CALC_DIMLFAC
 70
     0
  0
APPID
  2
ACAD_DIMASSOC_DIMLFAC
 70
     0
  0
APPID
  2
ACAD_DIMASSOC_OVERRIDDEN_D
 70
     0
  0
APPID
  2
ACSYNERGYSKETCH
 70
     0
  0
APPID
  2
ACAD_MODELDOC_XFORM
 70
     0
  0
APPID
  2
ACDBDYNAMICBLOCKGUID
 70
     0
  0
APPID
  2
ACAD_DSTYLE_DIMBREAK
 70
     0
  0
APPID
  2
ACADANNOPO
 70
     0
  0
APPID
  2
ACAD_STEPID
 70
     0
  0
APPID
  2
SYNERGY_EXCLUDED_FROM_SNAPSHOT
 70
     0
  0
APPID
  2
ACAD_TC
 70
     0
  0
APPID
  2
ACADANNOTATIVE
 70
     0
  0
APPID
  2
PLOTTRANSPARENCY
 70
     0
  0
ENDTAB
  0
TABLE
  2
DIMSTYLE
 70
     2
  0
DIMSTYLE
  2
LORO
 70
     0
  3

  4

  5

  6

  7

 40
1.0
 41
3.5
 42
1.0
 43
0.38
 44
1.0
 45
0.0
 46
0.0
 47
0.0
 48
0.000000001
140
3.5
141
0.09
142
0.0
143
25.3999999999999986
144
1.0
145
0.0
146
0.5
147
1.5
 71
     0
 72
     0
 73
     0
 74
     0
 75
     0
 76
     0
 77
     1
 78
     8
170
     0
171
     2
172
     1
173
     0
174
     0
175
     0
176
     0
177
     0
178
     1
  0
DIMSTYLE
  2
STANDARD
 70
     0
  3

  4

  5

  6

  7

 40
1.0
 41
0.18
 42
0.0625
 43
0.38
 44
0.18
 45
0.0
 46
0.0
 47
0.0
 48
0.0
140
0.18
141
0.09
142
0.0
143
25.3999999999999986
144
1.0
145
0.0
146
1.0
147
0.09
 71
     0
 72
     0
 73
     1
 74
     1
 75
     0
 76
     0
 77
     0
 78
     0
170
     0
171
     2
172
     0
173
     0
174
     0
175
     0
176
     0
177
     0
178
     0
  0
ENDTAB
  0
ENDSEC
  0
SECTION
  2
BLOCKS
  0
BLOCK
  8
0
  2
$MODEL_SPACE
 70
     0
 10
0.0
 20
0.0
 30
0.0
  3
$MODEL_SPACE
  1

  0
ENDBLK
  5
36
  8
0
  0
BLOCK
 67
     1
  8
0
  2
$PAPER_SPACE
 70
     0
 10
0.0
 20
0.0
 30
0.0
  3
$PAPER_SPACE
  1

  0
ENDBLK
  5
34
 67
     1
  8
0
  0
BLOCK
  8
0
  2
*S0
 70
     1
 10
0.0
 20
0.0
 30
0.0
  3
*S0
  1

  0
ENDBLK
  5
18BD
  8
0
  0
BLOCK
  8
0
  2
A$C06ABD46B
 70
     0
 10
0.0
 20
0.0
 30
0.0
  3
A$C06ABD46B
  1

  0
LINE
  5
235E4
  8
0
  6
CONTINUOUS
 62
     3
 10
-122.999999999999801
 20
185.0000000000001137
 30
-0.0000000000000411
 11
123.0000000000000995
 21
185.0
 31
-0.0000000000000411
210
0.0000000000000002
220
1.0
230
-0.0000000000000002
  0
LINE
  5
235E5
  8
0
  6
CONTINUOUS
 62
     3
 10
-108.6361908936166003
 20
0.000000000000208
 30
0.0
 11
108.6361908936166003
 21
-0.0000000000000943
 31
0.0
210
0.0000000000000002
220
1.0
230
-0.0000000000000002
  0
LINE
  5
235E6
  8
0
  6
CONTINUOUS
 62
     3
 10
-111.0732392906904948
 20
162.9134060938717141
 30
-0.0000000000000362
 11
-122.999999999999801
 21
185.0000000000001137
 31
-0.0000000000000411
210
0.0000000000000002
220
1.0
230
-0.0000000000000002
  0
LINE
  5
235E7
  8
0
  6
CONTINUOUS
 62
     3
 10
111.0732392906907933
 20
162.9134060938716004
 30
-0.0000000000000362
 11
123.0000000000000995
 21
185.0
 31
-0.0000000000000411
210
0.0000000000000002
220
1.0
230
-0.0000000000000002
  0
ARC
  5
235E8
  8
0
  6
CONTINUOUS
 62
     3
 10
-122.5999999999999943
 20
156.6889553108445909
 30
0.0
 40
13.0999999999998806
210
0.0
220
-0.0000000000000002
230
-1.0
 50
0.0000000000000127
 51
28.3690462932786112
  0
ARC
  5
235E9
  8
0
  6
CONTINUOUS
 62
     3
 10
122.5999999999996959
 20
156.6889553108447899
 30
0.0
 40
13.1000000000001204
210
0.0
220
-0.0000000000000002
230
-1.0
 50
151.630953706721499
 51
180.0000000000001137
  0
ARC
  5
235EA
  8
0
  6
CONTINUOUS
 62
     3
 10
96.4000000000007446
 20
10.4453416176635603
 30
0.0
 40
13.0999999999990298
210
0.0
220
-0.0000000000000002
230
-1.0
 50
354.9999999999994884
 51
0.0000000000001514
  0
ARC
  5
235EB
  8
0
  6
CONTINUOUS
 62
     3
 10
-96.4000000000084754
 20
10.4453416176628799
 30
0.0
 40
13.0999999999915193
210
0.0
220
-0.0000000000000002
230
-1.0
 50
179.9999999999976978
 51
185.0000000000011084
  0
LINE
  5
235EC
  8
0
  6
CONTINUOUS
 62
     3
 10
109.5000000000000995
 20
156.6889553108445909
 30
-0.0000000000000348
 11
109.4999999999999005
 21
10.4453416176633898
 31
-0.0000000000000023
210
0.0000000000000002
220
1.0
230
-0.0000000000000002
  0
LINE
  5
235ED
  8
0
  6
CONTINUOUS
 62
     3
 10
-109.4999999999997016
 20
156.6889553108447899
 30
-0.0000000000000348
 11
-109.499999999999801
 21
10.44534161766361
 31
-0.0000000000000023
210
0.0000000000000002
220
1.0
230
-0.0000000000000002
  0
LINE
  5
235EE
  8
0
  6
CONTINUOUS
 62
     3
 10
-108.6361908936166003
 20
0.0000000000001121
 30
0.0
 11
-109.4501505450017049
 21
9.3036013876692163
 31
-0.0000000000000021
210
0.0000000000000002
220
1.0
230
-0.0000000000000002
  0
LINE
  5
235EF
  8
0
  6
CONTINUOUS
 62
     3
 10
108.6361908936166003
 20
-0.0000000000000854
 30
0.0
 11
109.4501505450017049
 21
9.3036013876690387
 31
-0.0000000000000021
210
0.0000000000000002
220
1.0
230
-0.0000000000000002
  0
LINE
  5
235F0
  8
0
  6
CONTINUOUS
 62
     3
 10
136.5000000000001137
 20
300.0
 30
-0.0000000000000666
 11
-136.499999999999801
 21
300.0000000000002274
 31
-0.0000000000000666
210
0.0000000000000002
220
1.0
230
-0.0000000000000002
  0
LINE
  5
235F1
  8
0
  6
CONTINUOUS
 62
     3
 10
123.0000000000000995
 20
185.0
 30
-0.0000000000000411
 11
-122.999999999999801
 21
185.0000000000001137
 31
-0.0000000000000411
210
0.0000000000000002
220
1.0
230
-0.0000000000000002
  0
ARC
  5
235F2
  8
0
  6
CONTINUOUS
 62
     3
 10
123.3999999999998067
 20
217.8117144236605043
 30
0.0
 40
13.1000000000000494
210
0.0
220
-0.0000000000000002
230
-1.0
 50
335.7722546820457978
 51
0.0000000000000254
  0
ARC
  5
235F3
  8
0
  6
CONTINUOUS
 62
     3
 10
-123.4000000000004036
 20
217.8117144236603906
 30
0.0
 40
13.0999999999997101
210
0.0
220
-0.0000000000000002
230
-1.0
 50
179.9999999999998863
 51
204.2277453179546001
  0
LINE
  5
235F4
  8
0
  6
CONTINUOUS
 62
     3
 10
-136.499999999999801
 20
217.8117144236605043
 30
-0.0000000000000484
 11
-136.499999999999801
 21
300.0000000000002274
 31
-0.0000000000000666
210
0.0000000000000002
220
1.0
230
-0.0000000000000002
  0
LINE
  5
235F5
  8
0
  6
CONTINUOUS
 62
     3
 10
136.5000000000001137
 20
217.8117144236605043
 30
-0.0000000000000484
 11
136.5000000000001137
 21
300.0
 31
-0.0000000000000666
210
0.0000000000000002
220
1.0
230
-0.0000000000000002
  0
LINE
  5
235F6
  8
0
  6
CONTINUOUS
 62
     3
 10
-122.999999999999801
 20
185.0000000000001137
 30
-0.0000000000000411
 11
-135.3461717177937089
 21
212.4359371506531886
 31
-0.0000000000000472
210
0.0000000000000002
220
1.0
230
-0.0000000000000002
  0
LINE
  5
235F7
  8
0
  6
CONTINUOUS
 62
     3
 10
123.0000000000000995
 20
185.0
 30
-0.0000000000000411
 11
135.3461717177939931
 21
212.4359371506531886
 31
-0.0000000000000472
210
0.0000000000000002
220
1.0
230
-0.0000000000000002
  0
LINE
  5
235F8
  8
0
  6
VERDECKT
 62
     1
 10
-106.5999999999997954
 20
160.0
 30
-0.0000000000000355
 11
106.6000000000000938
 21
160.0
 31
-0.0000000000000355
210
0.0000000000000002
220
1.0
230
-0.0000000000000002
  0
LINE
  5
235F9
  8
0
  6
VERDECKT
 62
     1
 10
-106.2041911463191042
 20
160.0000000000001137
 30
-0.0000000000000355
 11
-119.7041911463191042
 21
185.0000000000001137
 31
-0.0000000000000411
210
0.0000000000000002
220
1.0
230
-0.0000000000000002
  0
LINE
  5
235FA
  8
0
  6
VERDECKT
 62
     1
 10
106.2041911463194026
 20
160.0
 30
-0.0000000000000355
 11
119.7041911463194026
 21
185.0
 31
-0.0000000000000411
210
0.0000000000000002
220
1.0
230
-0.0000000000000002
  0
LINE
  5
235FB
  8
0
  6
VERDECKT
 62
     1
 10
-105.7251133647410057
 20
0.0000000000001682
 30
0.0
 11
-106.5999999999998948
 21
9.9999999999955698
 31
-0.0000000000000022
210
0.0000000000000002
220
1.0
230
-0.0000000000000002
  0
LINE
  5
235FC
  8
0
  6
VERDECKT
 62
     1
 10
105.7251133647410057
 20
-0.0000000000000253
 30
0.0
 11
106.5999999999998948
 21
9.9999999999953744
 31
-0.0000000000000022
210
0.0000000000000002
220
1.0
230
-0.0000000000000002
  0
LINE
  5
235FD
  8
0
  6
VERDECKT
 62
     1
 10
106.6000000000001933
 20
160.0
 30
-0.0000000000000355
 11
106.5999999999999943
 21
9.9999999999953744
 31
-0.0000000000000022
210
0.0000000000000002
220
1.0
230
-0.0000000000000002
  0
LINE
  5
235FE
  8
0
  6
VERDECKT
 62
     1
 10
-106.5999999999997954
 20
160.0000000000001137
 30
-0.0000000000000355
 11
-106.5999999999998948
 21
9.9999999999955627
 31
-0.0000000000000022
210
0.0000000000000002
220
1.0
230
-0.0000000000000002
  0
LINE
  5
235FF
  8
0
  6
VERDECKT
 62
     1
 10
-133.2999999999998124
 20
215.6868310042530936
 30
-0.0000000000000479
 11
133.3000000000000966
 21
215.6868310042530084
 31
-0.0000000000000479
210
0.0000000000000002
220
1.0
230
-0.0000000000000002
  0
LINE
  5
23600
  8
0
  6
VERDECKT
 62
     1
 10
-133.2999999999998124
 20
215.6868310042530936
 30
-0.0000000000000479
 11
-133.2999999999998124
 21
300.0000000000002842
 31
-0.0000000000000666
210
0.0000000000000002
220
1.0
230
-0.0000000000000002
  0
LINE
  5
23601
  8
0
  6
VERDECKT
 62
     1
 10
133.3000000000000966
 20
215.6868310042530084
 30
-0.0000000000000479
 11
133.3000000000000966
 21
300.0000000000002274
 31
-0.0000000000000666
210
0.0000000000000002
220
1.0
230
-0.0000000000000002
  0
LINE
  5
23602
  8
0
  6
VERDECKT
 62
     1
 10
-119.4909260480859956
 20
185.0000000000001137
 30
-0.0000000000000411
 11
-133.2999999999998124
 21
215.6868310042530936
 31
-0.0000000000000479
210
0.0000000000000002
220
1.0
230
-0.0000000000000002
  0
LINE
  5
23603
  8
0
  6
VERDECKT
 62
     1
 10
119.490926048086294
 20
185.0
 30
-0.0000000000000411
 11
133.3000000000000966
 21
215.6868310042530084
 31
-0.0000000000000479
210
0.0000000000000002
220
1.0
230
-0.0000000000000002
  0
ENDBLK
  5
23605
  8
0
  0
BLOCK
  8
0
  2
A$CA81BC64C
 70
     0
 10
0.0
 20
0.0
 30
0.0
  3
A$CA81BC64C
  1

  0
CIRCLE
  5
23609
  8
0
  6
CONTINUOUS
 62
     3
 10
0.000000000000149
 20
0.0000000000000427
 30
0.0
 40
106.2041911463193031
  0
CIRCLE
  5
2360A
  8
0
  6
CONTINUOUS
 62
     3
 10
0.0
 20
0.0000000000000157
 30
0.0
 40
105.7251133647410057
  0
CIRCLE
  5
2360B
  8
0
  6
CONTINUOUS
 62
     3
 10
0.0000000000001799
 20
0.0000000000000555
 30
0.0
 40
136.5
  0
CIRCLE
  5
2360C
  8
0
  6
CONTINUOUS
 62
     3
 10
0.0000000000001799
 20
0.000000000000075
 30
0.0
 40
133.3000000000000114
  0
CIRCLE
  5
2360D
  8
0
  6
CONTINUOUS
 62
     3
 10
0.0000000000001545
 20
-0.0000000000000006
 30
0.0
 40
119.4909260480860951
  0
CIRCLE
  5
2360E
  8
0
  6
VERDECKT
 62
     1
 10
0.0000000000001545
 20
0.0000000000000457
 30
0.0
 40
119.7041911463193031
  0
CIRCLE
  5
2360F
  8
0
  6
VERDECKT
 62
     1
 10
0.0000000000001545
 20
0.0000000000000457
 30
0.0
 40
123.0
  0
CIRCLE
  5
23610
  8
0
  6
VERDECKT
 62
     1
 10
0.000000000000149
 20
0.0000000000000427
 30
0.0
 40
106.5999999999999943
  0
CIRCLE
  5
23611
  8
0
  6
VERDECKT
 62
     1
 10
0.0000000000002619
 20
0.0000000000000229
 30
0.0
 40
109.4999999999999005
  0
CIRCLE
  5
23612
  8
0
  6
VERDECKT
 62
     1
 10
0.0
 20
0.0000000000000157
 30
0.0
 40
108.6361908936166003
  0
CIRCLE
  5
23613
  8
0
  6
VERDECKT
 62
     1
 10
0.0000000000001545
 20
-0.0000000000000024
 30
0.0
 40
123.0
  0
ENDBLK
  5
23615
  8
0
  0
ENDSEC
  0
SECTION
  2
ENTITIES
  0
TEXT
  5
8F
  8
VOLL
 10
78.076754716981128
 20
31.025947764705851
 30
0.0
 40
1.8
  1

  7
GREEKS
  0
INSERT
  5
18BF
  8
ADSK_ASSOC_ENTITY_BACKUPS
  2
*S0
 10
0.0
 20
0.0
 30
0.0
  0
INSERT
  5
23606
  8
STEMPEL
  2
A$C06ABD46B
 10
295.9780911907654968
 20
-0.0000000000000657
 30
285.9799207489197101
  0
INSERT
  5
23616
  8
STEMPEL
  2
A$CA81BC64C
 10
295.9780911907653831
 20
-186.5
 30
285.9799207489197101
  0
VIEWPORT
  5
C68
 67
     1
  8
0
 10
-444.7447509765623863
 20
-86.7499999999999432
 30
0.0
 40
802.3246303869141229
 41
422.1799307958477812
 68
     1
 69
     1
1001
ACAD
1000
MVIEW
1002
{
1070
    16
1010
0.0
1020
0.0
1030
0.0
1010
0.0
1020
0.0
1030
1.0
1040
0.0
1040
422.1799307958477812
1040
-444.7447509765623863
1040
-86.7499999999999432
1040
50.0
1040
0.0
1040
0.0
1070
     0
1070
     0
1070
     1
1070
     1
1070
     0
1070
     0
1070
     0
1070
     0
1040
0.0
1040
0.0
1040
0.0
1040
10.0
1040
10.0
1040
10.0
1040
10.0
1070
     0
1002
{
1002
}
1002
}
  0
TEXT
  5
1986
 67
     1
  8
VOLL
 10
405.6964831740547766
 20
-245.0781761654644981
 30
0.0
 40
3.6000000000000001
  1

  7
GREEKS
  0
ENDSEC
  0
EOF
