  0
SECTION
  2
HEADER
  9
$ACADVER
  1
AC1009
  9
$INSBASE
 10
0.0
 20
0.0
 30
0.0
  9
$EXTMIN
 10
151.3699951171875
 20
-322.9237670898438068
 30
233.0585479736328125
  9
$EXTMAX
 10
424.3699951171873863
 20
259.0
 30
233.0585479736328125
  9
$LIMMIN
 10
0.0
 20
0.0
  9
$LIMMAX
 10
419.9999999999998863
 20
594.0
  9
$ORTHOMODE
 70
     1
  9
$REGENMODE
 70
     1
  9
$FILLMODE
 70
     1
  9
$QTEXTMODE
 70
     0
  9
$MIRRTEXT
 70
     1
  9
$DRAGMODE
 70
     2
  9
$LTSCALE
 40
20.0
  9
$OSMODE
 70
  3583
  9
$ATTMODE
 70
     1
  9
$TEXTSIZE
 40
3.5
  9
$TRACEWID
 40
0.5
  9
$TEXTSTYLE
  7
STANDARD
  9
$CLAYER
  8
STEMPEL
  9
$CELTYPE
  6
BYLAYER
  9
$CECOLOR
 62
   256
  9
$DIMSCALE
 40
1.0
  9
$DIMASZ
 40
3.5
  9
$DIMEXO
 40
1.0
  9
$DIMDLI
 40
0.38
  9
$DIMRND
 40
0.0
  9
$DIMDLE
 40
0.0
  9
$DIMEXE
 40
1.0
  9
$DIMTP
 40
0.0
  9
$DIMTM
 40
0.000000001
  9
$DIMTXT
 40
3.5
  9
$DIMCEN
 40
0.09
  9
$DIMTSZ
 40
0.0
  9
$DIMTOL
 70
     0
  9
$DIMLIM
 70
     0
  9
$DIMTIH
 70
     0
  9
$DIMTOH
 70
     0
  9
$DIMSE1
 70
     0
  9
$DIMSE2
 70
     0
  9
$DIMTAD
 70
     1
  9
$DIMZIN
 70
     8
  9
$DIMBLK
  1

  9
$DIMASO
 70
     1
  9
$DIMSHO
 70
     0
  9
$DIMPOST
  1

  9
$DIMAPOST
  1

  9
$DIMALT
 70
     0
  9
$DIMALTD
 70
     2
  9
$DIMALTF
 40
25.3999999999999986
  9
$DIMLFAC
 40
2.0
  9
$DIMTOFL
 70
     1
  9
$DIMTVP
 40
0.0
  9
$DIMTIX
 70
     0
  9
$DIMSOXD
 70
     0
  9
$DIMSAH
 70
     0
  9
$DIMBLK1
  1

  9
$DIMBLK2
  1

  9
$DIMSTYLE
  2
LORO
  9
$DIMCLRD
 70
     0
  9
$DIMCLRE
 70
     0
  9
$DIMCLRT
 70
     1
  9
$DIMTFAC
 40
0.5
  9
$DIMGAP
 40
1.5
  9
$LUNITS
 70
     2
  9
$LUPREC
 70
     2
  9
$SKETCHINC
 40
1.0
  9
$FILLETRAD
 40
0.0
  9
$AUNITS
 70
     0
  9
$AUPREC
 70
     0
  9
$MENU
  1
ACAD
  9
$ELEVATION
 40
0.0
  9
$PELEVATION
 40
0.0
  9
$THICKNESS
 40
0.0
  9
$LIMCHECK
 70
     0
  9
$BLIPMODE
 70
     0
  9
$CHAMFERA
 40
2.0
  9
$CHAMFERB
 40
2.0
  9
$SKPOLY
 70
     0
  9
$TDCREATE
 40
2455397.8646990740671754
  9
$TDUPDATE
 40
2460927.44641203712672
  9
$TDINDWG
 40
2.2444253934999998
  9
$TDUSRTIMER
 40
2.2444253934999998
  9
$USRTIMER
 70
     1
  9
$ANGBASE
 50
0.0
  9
$ANGDIR
 70
     0
  9
$PDMODE
 70
     0
  9
$PDSIZE
 40
0.0
  9
$PLINEWID
 40
0.0
  9
$COORDS
 70
     1
  9
$SPLFRAME
 70
     0
  9
$SPLINETYPE
 70
     6
  9
$SPLINESEGS
 70
     8
  9
$ATTDIA
 70
     1
  9
$ATTREQ
 70
     1
  9
$HANDLING
 70
     1
  9
$HANDSEED
  5
232FF
  9
$SURFTAB1
 70
     6
  9
$SURFTAB2
 70
     6
  9
$SURFTYPE
 70
     6
  9
$SURFU
 70
     6
  9
$SURFV
 70
     6
  9
$UCSNAME
  2

  9
$UCSORG
 10
0.0
 20
0.0
 30
0.0
  9
$UCSXDIR
 10
1.0
 20
0.0
 30
0.0
  9
$UCSYDIR
 10
0.0
 20
1.0
 30
0.0
  9
$PUCSNAME
  2

  9
$PUCSORG
 10
0.0
 20
0.0
 30
0.0
  9
$PUCSXDIR
 10
1.0
 20
0.0
 30
0.0
  9
$PUCSYDIR
 10
0.0
 20
1.0
 30
0.0
  9
$USERI1
 70
     0
  9
$USERI2
 70
     0
  9
$USERI3
 70
     0
  9
$USERI4
 70
     0
  9
$USERI5
 70
     0
  9
$USERR1
 40
0.0
  9
$USERR2
 40
0.0
  9
$USERR3
 40
0.0
  9
$USERR4
 40
0.0
  9
$USERR5
 40
0.0
  9
$WORLDVIEW
 70
     1
  9
$SHADEDGE
 70
     3
  9
$SHADEDIF
 70
    70
  9
$TILEMODE
 70
     1
  9
$MAXACTVP
 70
    16
  9
$PLIMCHECK
 70
     0
  9
$PEXTMIN
 10
1.0000000000000000E+20
 20
1.0000000000000000E+20
 30
1.0000000000000000E+20
  9
$PEXTMAX
 10
-1.0000000000000000E+20
 20
-1.0000000000000000E+20
 30
-1.0000000000000000E+20
  9
$PLIMMIN
 10
-593.2447509765625
 20
-296.7499999999998863
  9
$PLIMMAX
 10
-296.2447509765625
 20
123.25
  9
$UNITMODE
 70
     0
  9
$VISRETAIN
 70
     0
  9
$PLINEGEN
 70
     0
  9
$PSLTSCALE
 70
     0
  0
ENDSEC
  0
SECTION
  2
TABLES
  0
TABLE
  2
VPORT
 70
     1
  0
VPORT
  2
*ACTIVE
 70
     0
 10
0.0
 20
0.0
 11
1.0
 21
1.0
 12
0.0
 22
0.0
 13
0.0
 23
0.0
 14
1.0
 24
1.0
 15
10.0
 25
10.0
 16
-0.0000000000005684
 26
0.0
 36
2392.6712417646740505
 17
343.6650967425280783
 27
-43.5101917747819229
 37
129.4999999999998863
 40
935.9106122607589668
 41
1.9004329004328999
 42
49.9999999999997513
 43
0.0
 44
0.0
 50
0.0
 51
0.0
 71
     0
 72
  1500
 73
     1
 74
     0
 75
     0
 76
     0
 77
     0
 78
     0
  0
ENDTAB
  0
TABLE
  2
LTYPE
 70
     3
  0
LTYPE
  2
CONTINUOUS
 70
     0
  3
Solid line
 72
    65
 73
     0
 40
0.0
  0
LTYPE
  2
STRICHPUNKT
 70
     0
  3
__ . __ . __ . __ . __ . __ . __ . __ . __ . __
 72
    65
 73
     4
 40
1.0
 49
0.5
 49
-0.25
 49
0.0
 49
-0.25
  0
LTYPE
  2
VERDECKT
 70
     0
  3
Verdeckt __ __ __ __ __ __ __ __ __ __ __ __ __
 72
    65
 73
     2
 40
0.375
 49
0.25
 49
-0.125
  0
ENDTAB
  0
TABLE
  2
LAYER
 70
     6
  0
LAYER
  2
0
 70
     0
 62
     7
  6
CONTINUOUS
  0
LAYER
  2
VOLL
 70
     0
 62
     1
  6
CONTINUOUS
  0
LAYER
  2
STEMPEL
 70
     0
 62
     3
  6
CONTINUOUS
  0
LAYER
  2
DEFPOINTS
 70
     0
 62
     7
  6
CONTINUOUS
  0
LAYER
  2
ADSK_ASSOC_ENTITY_BACKUPS
 70
     1
 62
    -7
  6
CONTINUOUS
  0
LAYER
  2
MATERIAL__VERZINKT_
 70
     0
 62
   254
  6
CONTINUOUS
  0
ENDTAB
  0
TABLE
  2
STYLE
 70
     3
  0
STYLE
  2
STANDARD
 70
     0
 40
0.0
 41
0.8
 50
0.0
 71
     0
 42
3.5
  3
simplex.shx
  4

  0
STYLE
  2
GREEKS
 70
     0
 40
0.0
 41
0.8
 50
0.0
 71
     0
 42
2.5
  3
SIMPLEX.shx
  4

  0
STYLE
  2

 70
     1
 40
0.0
 41
1.0
 50
0.0
 71
     0
 42
2.5
  3
ltypeshp.shx
  4

  0
ENDTAB
  0
TABLE
  2
VIEW
 70
     0
  0
ENDTAB
  0
TABLE
  2
UCS
 70
     0
  0
ENDTAB
  0
TABLE
  2
APPID
 70
    30
  0
APPID
  2
ACAD
 70
     0
  0
APPID
  2
ACAD_NAV_VCDISPLAY
 70
     0
  0
APPID
  2
ACAD_MLEADERVER
 70
     0
  0
APPID
  2
ACAD_EXEMPT_FROM_CAD_STANDARDS
 70
     0
  0
APPID
  2
ACAD_PSEXT
 70
     0
  0
APPID
  2
ACAECLAYERSTANDARD
 70
     0
  0
APPID
  2
ACAD_DSTYLE_DIMJAG
 70
     0
  0
APPID
  2
ACAD_DSTYLE_DIMTALN
 70
     0
  0
APPID
  2
ACCMTRANSPARENCY
 70
     0
  0
APPID
  2
ACADANNOMONITORALERTICONDI
 70
     0
  0
APPID
  2
ACAD_DSTYLE_DIMRADIAL_EXTENSION
 70
     0
  0
APPID
  2
GRADIENTCOLOR1ACI
 70
     0
  0
APPID
  2
GRADIENTCOLOR2ACI
 70
     0
  0
APPID
  2
ACAD_OBJECT_CHANGE_GUID
 70
     0
  0
APPID
  2
ACSYNERGY
 70
     0
  0
APPID
  2
SYNERGY_BODY_TBR_ID
 70
     0
  0
APPID
  2
ACAD_VIEW_EDGE_ID
 70
     0
  0
APPID
  2
ACAD_DIMASSOC_CALC_DIMLFAC
 70
     0
  0
APPID
  2
ACAD_DIMASSOC_DIMLFAC
 70
     0
  0
APPID
  2
ACAD_DIMASSOC_OVERRIDDEN_D
 70
     0
  0
APPID
  2
ACSYNERGYSKETCH
 70
     0
  0
APPID
  2
ACAD_MODELDOC_XFORM
 70
     0
  0
APPID
  2
ACDBDYNAMICBLOCKGUID
 70
     0
  0
APPID
  2
ACAD_DSTYLE_DIMBREAK
 70
     0
  0
APPID
  2
ACADANNOPO
 70
     0
  0
APPID
  2
ACAD_STEPID
 70
     0
  0
APPID
  2
SYNERGY_EXCLUDED_FROM_SNAPSHOT
 70
     0
  0
APPID
  2
ACAD_TC
 70
     0
  0
APPID
  2
ACADANNOTATIVE
 70
     0
  0
APPID
  2
PLOTTRANSPARENCY
 70
     0
  0
ENDTAB
  0
TABLE
  2
DIMSTYLE
 70
     2
  0
DIMSTYLE
  2
LORO
 70
     0
  3

  4

  5

  6

  7

 40
1.0
 41
3.5
 42
1.0
 43
0.38
 44
1.0
 45
0.0
 46
0.0
 47
0.0
 48
0.000000001
140
3.5
141
0.09
142
0.0
143
25.3999999999999986
144
1.0
145
0.0
146
0.5
147
1.5
 71
     0
 72
     0
 73
     0
 74
     0
 75
     0
 76
     0
 77
     1
 78
     8
170
     0
171
     2
172
     1
173
     0
174
     0
175
     0
176
     0
177
     0
178
     1
  0
DIMSTYLE
  2
STANDARD
 70
     0
  3

  4

  5

  6

  7

 40
1.0
 41
0.18
 42
0.0625
 43
0.38
 44
0.18
 45
0.0
 46
0.0
 47
0.0
 48
0.0
140
0.18
141
0.09
142
0.0
143
25.3999999999999986
144
1.0
145
0.0
146
1.0
147
0.09
 71
     0
 72
     0
 73
     1
 74
     1
 75
     0
 76
     0
 77
     0
 78
     0
170
     0
171
     2
172
     0
173
     0
174
     0
175
     0
176
     0
177
     0
178
     0
  0
ENDTAB
  0
ENDSEC
  0
SECTION
  2
BLOCKS
  0
BLOCK
  8
0
  2
$MODEL_SPACE
 70
     0
 10
0.0
 20
0.0
 30
0.0
  3
$MODEL_SPACE
  1

  0
ENDBLK
  5
36
  8
0
  0
BLOCK
 67
     1
  8
0
  2
$PAPER_SPACE
 70
     0
 10
0.0
 20
0.0
 30
0.0
  3
$PAPER_SPACE
  1

  0
ENDBLK
  5
34
 67
     1
  8
0
  0
BLOCK
  8
0
  2
*S0
 70
     1
 10
0.0
 20
0.0
 30
0.0
  3
*S0
  1

  0
ENDBLK
  5
18BD
  8
0
  0
BLOCK
  8
0
  2
A$C78F76DCF
 70
     0
 10
0.0
 20
0.0
 30
0.0
  3
A$C78F76DCF
  1

  0
LINE
  5
2325E
  8
0
  6
CONTINUOUS
 62
     3
 10
-136.5000000000001137
 20
0.0000000000000284
 30
0.0
 11
0.0
 21
0.0000000000000652
 31
0.0
210
0.0
220
1.0
230
-0.0000000000000002
  0
LINE
  5
2325F
  8
0
  6
CONTINUOUS
 62
     3
 10
-0.0000000000000146
 20
0.0000000000000794
 30
0.0
 11
136.5
 21
0.0000000000000284
 31
0.0
210
0.0
220
1.0
230
-0.0000000000000002
  0
LINE
  5
23260
  8
0
  6
CONTINUOUS
 62
     3
 10
-125.0
 20
100.0
 30
-0.0000000000000222
 11
125.0
 21
100.0
 31
-0.0000000000000222
210
0.0
220
1.0
230
-0.0000000000000002
  0
ARC
  5
23261
  8
0
  6
CONTINUOUS
 62
     3
 10
-123.4999999999999005
 20
67.5937026533173508
 30
0.0
 40
13.0000000000000693
210
0.0
220
-0.0000000000000002
230
-1.0
 50
159.0265065786794878
 51
180.0
  0
ARC
  5
23262
  8
0
  6
CONTINUOUS
 62
     3
 10
123.4999999999999005
 20
67.5937026533173508
 30
0.0
 40
13.0000000000000497
210
0.0
220
-0.0000000000000002
230
-1.0
 50
0.0
 51
20.9734934213204909
  0
LINE
  5
23263
  8
0
  6
CONTINUOUS
 62
     3
 10
136.5
 20
67.5937026533173508
 30
-0.000000000000015
 11
136.5
 21
0.0000000000000284
 31
0.0
210
0.0
220
1.0
230
-0.0000000000000002
  0
LINE
  5
23264
  8
0
  6
CONTINUOUS
 62
     3
 10
-136.5
 20
67.5937026533173508
 30
-0.000000000000015
 11
-136.5
 21
0.0000000000000284
 31
0.0
210
0.0
220
1.0
230
-0.0000000000000002
  0
LINE
  5
23265
  8
0
  6
CONTINUOUS
 62
     3
 10
125.0
 20
100.0
 30
-0.0000000000000222
 11
135.6386995249266079
 21
72.246870804539185
 31
-0.000000000000016
210
0.0
220
1.0
230
-0.0000000000000002
  0
LINE
  5
23266
  8
0
  6
CONTINUOUS
 62
     3
 10
-125.0
 20
100.0
 30
-0.0000000000000222
 11
-135.6386995249266079
 21
72.246870804539185
 31
-0.000000000000016
210
0.0
220
1.0
230
-0.0000000000000002
  0
LINE
  5
23267
  8
0
  6
CONTINUOUS
 62
     3
 10
125.0
 20
100.0
 30
-0.0000000000000222
 11
-125.0
 21
100.0
 31
-0.0000000000000222
210
0.0
220
1.0
230
-0.0000000000000002
  0
LINE
  5
23268
  8
0
  6
CONTINUOUS
 62
     3
 10
-117.4142249004361958
 20
259.0000000000001137
 30
-0.0000000000000575
 11
117.4142249004361958
 21
259.0000000000001137
 31
-0.0000000000000575
210
0.0
220
1.0
230
-0.0000000000000002
  0
ARC
  5
23269
  8
0
  6
CONTINUOUS
 62
     3
 10
122.5499999999998977
 20
125.0835991724696044
 30
0.0
 40
12.9999999999999396
210
0.0
220
-0.0000000000000002
230
-1.0
 50
179.9999999999998863
 51
216.6303448925945077
  0
ARC
  5
2326A
  8
0
  6
CONTINUOUS
 62
     3
 10
-122.5499999999998977
 20
125.0835991724696044
 30
0.0
 40
12.9999999999999591
210
0.0
220
-0.0000000000000002
230
-1.0
 50
323.3696551074053787
 51
0.00000000000007
  0
LINE
  5
2326B
  8
0
  6
CONTINUOUS
 62
     3
 10
109.5499999999999972
 20
130.7731396249668876
 30
-0.000000000000029
 11
109.5499999999999972
 21
125.0835991724696044
 31
-0.0000000000000278
210
0.0
220
1.0
230
-0.0000000000000002
  0
LINE
  5
2326C
  8
0
  6
CONTINUOUS
 62
     3
 10
-109.5499999999999972
 20
130.7731396249668876
 30
-0.000000000000029
 11
-109.5499999999999972
 21
125.0835991724696044
 31
-0.0000000000000278
210
0.0
220
1.0
230
-0.0000000000000002
  0
LINE
  5
2326D
  8
0
  6
CONTINUOUS
 62
     3
 10
112.1174793167970023
 20
117.3271494566175051
 30
-0.0000000000000261
 11
125.0
 21
100.0
 31
-0.0000000000000222
210
0.0
220
1.0
230
-0.0000000000000002
  0
LINE
  5
2326E
  8
0
  6
CONTINUOUS
 62
     3
 10
-112.1174793167970023
 20
117.3271494566175051
 30
-0.0000000000000261
 11
-125.0
 21
100.0
 31
-0.0000000000000222
210
0.0
220
1.0
230
-0.0000000000000002
  0
ARC
  5
2326F
  8
0
  6
CONTINUOUS
 62
     3
 10
119.5499999999994998
 20
130.7731396249668876
 30
0.0
 40
9.9999999999996092
210
0.0
220
-0.0000000000000002
230
-1.0
 50
145.7776080438374038
 51
179.999999999999801
  0
ARC
  5
23270
  8
0
  6
CONTINUOUS
 62
     3
 10
-119.5499999999994998
 20
130.7731396249668876
 30
0.0
 40
9.9999999999996021
210
0.0
220
-0.0000000000000002
230
-1.0
 50
0.0
 51
34.2223919561623831
  0
ARC
  5
23271
  8
0
  6
CONTINUOUS
 62
     3
 10
94.0000000000018332
 20
148.1515026088605964
 30
0.0
 40
20.8999999999980091
210
0.0
220
-0.0000000000000002
230
-1.0
 50
325.7776080438306963
 51
0.0000000000023472
  0
ARC
  5
23272
  8
0
  6
CONTINUOUS
 62
     3
 10
-94.0000000000018332
 20
148.1515026088605964
 30
0.0
 40
20.8999999999979984
210
0.0
220
-0.0000000000000002
230
-1.0
 50
179.9999999999976126
 51
214.2223919561693037
  0
LINE
  5
23273
  8
0
  6
CONTINUOUS
 62
     3
 10
114.8999999999998067
 20
173.8244460927446937
 30
-0.0000000000000386
 11
114.8999999999998067
 21
148.1515026088613922
 31
-0.0000000000000329
210
0.0
220
1.0
230
-0.0000000000000002
  0
LINE
  5
23274
  8
0
  6
CONTINUOUS
 62
     3
 10
-114.8999999999998067
 20
173.8244460927446937
 30
-0.0000000000000386
 11
-114.8999999999998067
 21
148.1515026088613922
 31
-0.0000000000000329
210
0.0
220
1.0
230
-0.0000000000000002
  0
ARC
  5
23275
  8
0
  6
CONTINUOUS
 62
     3
 10
132.8999999999946056
 20
173.8244460927458022
 30
0.0
 40
17.9999999999947917
210
0.0
220
-0.0000000000000002
230
-1.0
 50
149.3645523418518906
 51
180.0000000000034959
  0
ARC
  5
23276
  8
0
  6
CONTINUOUS
 62
     3
 10
-132.8999999999948045
 20
173.8244460927458022
 30
0.0
 40
17.999999999994909
210
0.0
220
-0.0000000000000002
230
-1.0
 50
0.0
 51
30.6354476581515094
  0
ARC
  5
23277
  8
0
  6
CONTINUOUS
 62
     3
 10
80.5000000000024158
 20
204.8574929943941072
 30
0.0
 40
42.8999999999976396
210
0.0
220
-0.0000000000000002
230
-1.0
 50
329.3645523418509242
 51
0.0000000000003817
  0
ARC
  5
23278
  8
0
  6
CONTINUOUS
 62
     3
 10
-80.5000000000022169
 20
204.8574929943941072
 30
0.0
 40
42.8999999999978527
210
0.0
220
-0.0000000000000002
230
-1.0
 50
179.9999999999996021
 51
210.6354476581489052
  0
LINE
  5
23279
  8
0
  6
CONTINUOUS
 62
     3
 10
123.4000000000001052
 20
237.1425070056054949
 30
-0.0000000000000527
 11
123.4000000000001052
 21
204.8574929943943914
 31
-0.0000000000000455
210
0.0
220
1.0
230
-0.0000000000000002
  0
LINE
  5
2327A
  8
0
  6
CONTINUOUS
 62
     3
 10
-123.4000000000001052
 20
237.1425070056054949
 30
-0.0000000000000527
 11
-123.4000000000001052
 21
204.8574929943943914
 31
-0.0000000000000455
210
0.0
220
1.0
230
-0.0000000000000002
  0
ARC
  5
2327B
  8
0
  6
CONTINUOUS
 62
     3
 10
80.4999999999963052
 20
237.1425070056041875
 30
0.0
 40
42.9000000000037787
210
0.0
220
-0.0000000000000002
230
-1.0
 50
0.0000000000018574
 51
30.6304422515277111
  0
ARC
  5
2327C
  8
0
  6
CONTINUOUS
 62
     3
 10
-80.4999999999966747
 20
237.1425070056043012
 30
0.0
 40
42.9000000000034092
210
0.0
220
-0.0000000000000002
230
-1.0
 50
149.3695577484722037
 51
179.9999999999982947
  0
ARC
  5
2327D
  8
0
  6
VERDECKT
 62
     1
 10
-120.300000000000594
 20
67.0013833064417099
 30
0.0
 40
12.9999999999993499
210
0.0
220
-0.0000000000000002
230
-1.0
 50
159.0265065786780951
 51
180.0000000000005116
  0
ARC
  5
2327E
  8
0
  6
VERDECKT
 62
     1
 10
120.2999999999995993
 20
67.0013833064414968
 30
0.0
 40
13.0000000000004192
210
0.0
220
-0.0000000000000002
230
-1.0
 50
0.0000000000003817
 51
20.9734934213198692
  0
LINE
  5
2327F
  8
0
  6
VERDECKT
 62
     1
 10
133.3000000000000114
 20
67.001383306441582
 30
-0.0000000000000149
 11
133.3000000000000114
 21
0.0
 31
0.0
210
0.0
220
1.0
230
-0.0000000000000002
  0
LINE
  5
23280
  8
0
  6
VERDECKT
 62
     1
 10
-133.3000000000000114
 20
67.001383306441582
 30
-0.0000000000000149
 11
-133.3000000000000114
 21
0.0
 31
0.0
210
0.0
220
1.0
230
-0.0000000000000002
  0
LINE
  5
23281
  8
0
  6
VERDECKT
 62
     1
 10
121.5729442503643014
 20
100.0
 30
-0.0000000000000222
 11
132.4386995249265908
 21
71.6545514576635725
 31
-0.0000000000000159
210
0.0
220
1.0
230
-0.0000000000000002
  0
LINE
  5
23282
  8
0
  6
VERDECKT
 62
     1
 10
-121.5729442503643014
 20
100.0
 30
-0.0000000000000222
 11
-132.4386995249267045
 21
71.6545514576633309
 31
-0.0000000000000159
210
0.0
220
1.0
230
-0.0000000000000002
  0
ARC
  5
23283
  8
0
  6
VERDECKT
 62
     1
 10
119.6500000000000057
 20
124.1236638552207978
 30
0.0
 40
13.0000000000000107
210
0.0
220
-0.0000000000000002
230
-1.0
 50
180.0
 51
216.6303448925939108
  0
ARC
  5
23284
  8
0
  6
VERDECKT
 62
     1
 10
-119.6500000000000057
 20
124.1236638552207978
 30
0.0
 40
13.0
210
0.0
220
-0.0000000000000002
230
-1.0
 50
323.3696551074060039
 51
0.0000000000000064
  0
LINE
  5
23285
  8
0
  6
VERDECKT
 62
     1
 10
109.2174793167968971
 20
116.367214139368798
 30
-0.0000000000000258
 11
121.3862999993184957
 21
100.0000000000000995
 31
-0.0000000000000222
210
0.0
220
1.0
230
-0.0000000000000002
  0
LINE
  5
23286
  8
0
  6
VERDECKT
 62
     1
 10
-109.2174793167968971
 20
116.367214139368798
 30
-0.0000000000000258
 11
-121.3862999993184957
 21
100.0
 31
-0.0000000000000222
210
0.0
220
1.0
230
-0.0000000000000002
  0
LINE
  5
23287
  8
0
  6
VERDECKT
 62
     1
 10
106.6500000000000057
 20
130.7731396249668876
 30
-0.000000000000029
 11
106.6500000000000057
 21
124.1236638552207978
 31
-0.0000000000000276
210
0.0
220
1.0
230
-0.0000000000000002
  0
LINE
  5
23288
  8
0
  6
VERDECKT
 62
     1
 10
-106.6500000000000057
 20
130.773139624965296
 30
-0.000000000000029
 11
-106.6500000000000057
 21
124.1236638552207978
 31
-0.0000000000000276
210
0.0
220
1.0
230
-0.0000000000000002
  0
ARC
  5
23289
  8
0
  6
VERDECKT
 62
     1
 10
80.4999999999992042
 20
237.1425070056054949
 30
0.0
 40
40.0000000000007887
210
0.0
220
-0.0000000000000002
230
-1.0
 50
359.9999999999993179
 51
33.1229402077433335
  0
ARC
  5
2328A
  8
0
  6
VERDECKT
 62
     1
 10
-80.4999999999993463
 20
237.1425070056056086
 30
0.0
 40
40.0000000000006324
210
0.0
220
-0.0000000000000002
230
-1.0
 50
146.8770597922566026
 51
180.0000000000007105
  0
LINE
  5
2328B
  8
0
  6
VERDECKT
 62
     1
 10
120.5
 20
237.142507005605097
 30
-0.0000000000000527
 11
120.5
 21
204.8574929943943914
 31
-0.0000000000000455
210
0.0
220
1.0
230
-0.0000000000000002
  0
LINE
  5
2328C
  8
0
  6
VERDECKT
 62
     1
 10
-120.5
 20
237.142507005605097
 30
-0.0000000000000527
 11
-120.5
 21
204.8574929943943914
 31
-0.0000000000000455
210
0.0
220
1.0
230
-0.0000000000000002
  0
ARC
  5
2328D
  8
0
  6
VERDECKT
 62
     1
 10
80.4999999999978257
 20
204.8574929943949883
 30
0.0
 40
40.00000000000216
210
0.0
220
-0.0000000000000002
230
-1.0
 50
329.3645523418529137
 51
359.9999999999992042
  0
ARC
  5
2328E
  8
0
  6
VERDECKT
 62
     1
 10
-80.4999999999975557
 20
204.857492994395102
 30
0.0
 40
40.0000000000024372
210
0.0
220
-0.0000000000000002
230
-1.0
 50
180.0000000000009095
 51
210.635447658146802
  0
ARC
  5
2328F
  8
0
  6
VERDECKT
 62
     1
 10
132.8999999999954866
 20
173.8244460927452906
 30
0.0
 40
20.8999999999957886
210
0.0
220
-0.0000000000000002
230
-1.0
 50
149.3645523418522885
 51
180.0000000000015916
  0
ARC
  5
23290
  8
0
  6
VERDECKT
 62
     1
 10
-132.8999999999950887
 20
173.8244460927454043
 30
0.0
 40
20.8999999999953801
210
0.0
220
-0.0000000000000002
230
-1.0
 50
359.9999999999980105
 51
30.6354476581484185
  0
LINE
  5
23291
  8
0
  6
VERDECKT
 62
     1
 10
112.0
 20
173.8244460927446937
 30
-0.0000000000000386
 11
112.0
 21
148.1515026088613922
 31
-0.0000000000000329
210
0.0
220
1.0
230
-0.0000000000000002
  0
LINE
  5
23292
  8
0
  6
VERDECKT
 62
     1
 10
-112.0
 20
173.8244460927446937
 30
-0.0000000000000386
 11
-112.0
 21
148.1515026088613922
 31
-0.0000000000000329
210
0.0
220
1.0
230
-0.0000000000000002
  0
ARC
  5
23293
  8
0
  6
VERDECKT
 62
     1
 10
93.9999999999972431
 20
148.1515026088607954
 30
0.0
 40
18.0000000000027498
210
0.0
220
-0.0000000000000002
230
-1.0
 50
325.7776080438375743
 51
0.0000000000019974
  0
ARC
  5
23294
  8
0
  6
VERDECKT
 62
     1
 10
-93.9999999999975984
 20
148.1515026088607101
 30
0.0
 40
18.0000000000024016
210
0.0
220
-0.0000000000000002
230
-1.0
 50
179.9999999999976978
 51
214.2223919561623973
  0
ARC
  5
23295
  8
0
  6
VERDECKT
 62
     1
 10
119.550000000001603
 20
130.7731396249646139
 30
0.0
 40
12.9000000000017394
210
0.0
220
-0.0000000000000002
230
-1.0
 50
145.7776080438335953
 51
179.9999999999967883
  0
ARC
  5
23296
  8
0
  6
VERDECKT
 62
     1
 10
-119.5500000000017025
 20
130.7731396249646139
 30
0.0
 40
12.9000000000018904
210
0.0
220
-0.0000000000000002
230
-1.0
 50
0.0000000000102287
 51
34.2223919561666321
  0
ENDBLK
  5
23298
  8
0
  0
BLOCK
  8
0
  2
A$CF5E0C1E4
 70
     0
 10
0.0
 20
0.0
 30
0.0
  3
A$CF5E0C1E4
  1

  0
CIRCLE
  5
2329C
  8
0
  6
CONTINUOUS
 62
     3
 10
0.0000000000000148
 20
0.0000000000000107
 30
0.0
 40
136.5
  0
CIRCLE
  5
2329D
  8
0
  6
CONTINUOUS
 62
     3
 10
0.0000000000000219
 20
0.000000000000013
 30
0.0
 40
125.0
  0
CIRCLE
  5
2329E
  8
0
  6
CONTINUOUS
 62
     3
 10
0.0000000000000287
 20
0.0000000000000149
 30
0.0
 40
106.6500000000000057
  0
CIRCLE
  5
2329F
  8
0
  6
CONTINUOUS
 62
     3
 10
0.0000000000000219
 20
0.000000000000013
 30
0.0
 40
125.0
  0
CIRCLE
  5
232A0
  8
0
  6
CONTINUOUS
 62
     3
 10
0.0000000000000567
 20
0.0000000000000228
 30
0.0
 40
114.0
  0
CIRCLE
  5
232A1
  8
0
  6
CONTINUOUS
 62
     3
 10
0.0000000000000381
 20
0.0000000000000176
 30
0.0
 40
111.9999999999997016
  0
CIRCLE
  5
232A2
  8
0
  6
CONTINUOUS
 62
     3
 10
0.000000000000052
 20
0.0000000000000214
 30
0.0
 40
123.4000000000001052
  0
CIRCLE
  5
232A3
  8
0
  6
CONTINUOUS
 62
     3
 10
0.0000000000000567
 20
0.0000000000000228
 30
0.0
 40
117.4142249004361958
  0
CIRCLE
  5
232A4
  8
0
  6
VERDECKT
 62
     1
 10
0.0000000000000147
 20
0.0000000000000104
 30
0.0
 40
133.3000000000000114
  0
CIRCLE
  5
232A5
  8
0
  6
VERDECKT
 62
     1
 10
0.0000000000000219
 20
0.0000000000000185
 30
0.0
 40
121.5729442503643014
  0
CIRCLE
  5
232A6
  8
0
  6
VERDECKT
 62
     1
 10
0.0000000000000219
 20
0.000000000000013
 30
0.0
 40
121.3862999993184957
  0
CIRCLE
  5
232A7
  8
0
  6
VERDECKT
 62
     1
 10
0.0000000000000287
 20
0.0000000000000149
 30
0.0
 40
109.5499999999999972
  0
CIRCLE
  5
232A8
  8
0
  6
VERDECKT
 62
     1
 10
0.000000000000052
 20
0.0000000000000214
 30
0.0
 40
120.5
  0
CIRCLE
  5
232A9
  8
0
  6
VERDECKT
 62
     1
 10
0.0000000000000381
 20
0.0000000000000176
 30
0.0
 40
114.8999999999998067
  0
ENDBLK
  5
232AB
  8
0
  0
ENDSEC
  0
SECTION
  2
ENTITIES
  0
TEXT
  5
8F
  8
VOLL
 10
78.076754716981128
 20
31.025947764705851
 30
0.0
 40
1.8
  1

  7
GREEKS
  0
INSERT
  5
18BF
  8
ADSK_ASSOC_ENTITY_BACKUPS
  2
*S0
 10
0.0
 20
0.0
 30
0.0
  0
INSERT
  5
23299
  8
STEMPEL
  2
A$C78F76DCF
 10
287.8700025228840786
 20
0.0
 30
233.0585523112023907
  0
INSERT
  5
232AC
  8
STEMPEL
  2
A$CF5E0C1E4
 10
287.8700025228840786
 20
-186.4999999999998863
 30
233.0585523112023907
  0
VIEWPORT
  5
C68
 67
     1
  8
0
 10
-444.7447509765623863
 20
-86.7499999999999432
 30
0.0
 40
802.3246303869141229
 41
422.1799307958477812
 68
     1
 69
     1
1001
ACAD
1000
MVIEW
1002
{
1070
    16
1010
0.0
1020
0.0
1030
0.0
1010
0.0
1020
0.0
1030
1.0
1040
0.0
1040
422.1799307958477812
1040
-444.7447509765623863
1040
-86.7499999999999432
1040
50.0
1040
0.0
1040
0.0
1070
     0
1070
     0
1070
     1
1070
     1
1070
     0
1070
     0
1070
     0
1070
     0
1040
0.0
1040
0.0
1040
0.0
1040
10.0
1040
10.0
1040
10.0
1040
10.0
1070
     0
1002
{
1002
}
1002
}
  0
TEXT
  5
1986
 67
     1
  8
VOLL
 10
405.6964831740547766
 20
-245.0781761654644981
 30
0.0
 40
3.6000000000000001
  1

  7
GREEKS
  0
ENDSEC
  0
EOF
