  0
SECTION
  2
HEADER
  9
$ACADVER
  1
AC1009
  9
$INSBASE
 10
0.0
 20
0.0
 30
0.0
  9
$EXTMIN
 10
-0.0000033745105945
 20
-0.0000018920081715
 30
0.0
  9
$EXTMAX
 10
116.9999966254896009
 20
1273.4313339230579913
 30
0.0
  9
$LIMMIN
 10
0.0
 20
0.0
  9
$LIMMAX
 10
595.0
 20
421.0
  9
$ORTHOMODE
 70
     1
  9
$REGENMODE
 70
     1
  9
$FILLMODE
 70
     1
  9
$QTEXTMODE
 70
     0
  9
$MIRRTEXT
 70
     1
  9
$DRAGMODE
 70
     2
  9
$LTSCALE
 40
20.0
  9
$OSMODE
 70
    39
  9
$ATTMODE
 70
     1
  9
$TEXTSIZE
 40
3.5
  9
$TRACEWID
 40
1.0
  9
$TEXTSTYLE
  7
STANDARD
  9
$CLAYER
  8
DEFPOINTS
  9
$CELTYPE
  6
BYLAYER
  9
$CECOLOR
 62
   256
  9
$DIMSCALE
 40
2.0
  9
$DIMASZ
 40
3.5
  9
$DIMEXO
 40
1.0
  9
$DIMDLI
 40
7.0
  9
$DIMRND
 40
0.0
  9
$DIMDLE
 40
0.0
  9
$DIMEXE
 40
1.0
  9
$DIMTP
 40
0.0
  9
$DIMTM
 40
0.0
  9
$DIMTXT
 40
3.5
  9
$DIMCEN
 40
1.5
  9
$DIMTSZ
 40
0.0
  9
$DIMTOL
 70
     0
  9
$DIMLIM
 70
     0
  9
$DIMTIH
 70
     0
  9
$DIMTOH
 70
     0
  9
$DIMSE1
 70
     0
  9
$DIMSE2
 70
     0
  9
$DIMTAD
 70
     1
  9
$DIMZIN
 70
     8
  9
$DIMBLK
  1

  9
$DIMASO
 70
     1
  9
$DIMSHO
 70
     0
  9
$DIMPOST
  1

  9
$DIMAPOST
  1

  9
$DIMALT
 70
     0
  9
$DIMALTD
 70
     2
  9
$DIMALTF
 40
25.3999999999999986
  9
$DIMLFAC
 40
1.0
  9
$DIMTOFL
 70
     1
  9
$DIMTVP
 40
0.0
  9
$DIMTIX
 70
     0
  9
$DIMSOXD
 70
     0
  9
$DIMSAH
 70
     0
  9
$DIMBLK1
  1

  9
$DIMBLK2
  1

  9
$DIMSTYLE
  2
STANDARD
  9
$DIMCLRD
 70
     0
  9
$DIMCLRE
 70
     0
  9
$DIMCLRT
 70
     1
  9
$DIMTFAC
 40
0.5142857142857143
  9
$DIMGAP
 40
1.5
  9
$LUNITS
 70
     2
  9
$LUPREC
 70
     8
  9
$SKETCHINC
 40
1.0
  9
$FILLETRAD
 40
0.0
  9
$AUNITS
 70
     0
  9
$AUPREC
 70
     0
  9
$MENU
  1
ACAD
  9
$ELEVATION
 40
0.0
  9
$PELEVATION
 40
0.0
  9
$THICKNESS
 40
0.0
  9
$LIMCHECK
 70
     0
  9
$BLIPMODE
 70
     0
  9
$CHAMFERA
 40
0.0
  9
$CHAMFERB
 40
0.0
  9
$SKPOLY
 70
     0
  9
$TDCREATE
 40
2457798.497071759775281
  9
$TDUPDATE
 40
2458418.3198379632085562
  9
$TDINDWG
 40
0.2803125
  9
$TDUSRTIMER
 40
0.2803125
  9
$USRTIMER
 70
     1
  9
$ANGBASE
 50
0.0
  9
$ANGDIR
 70
     0
  9
$PDMODE
 70
     0
  9
$PDSIZE
 40
0.0
  9
$PLINEWID
 40
0.0
  9
$COORDS
 70
     1
  9
$SPLFRAME
 70
     0
  9
$SPLINETYPE
 70
     6
  9
$SPLINESEGS
 70
     8
  9
$ATTDIA
 70
     1
  9
$ATTREQ
 70
     1
  9
$HANDLING
 70
     1
  9
$HANDSEED
  5
327E
  9
$SURFTAB1
 70
     6
  9
$SURFTAB2
 70
     6
  9
$SURFTYPE
 70
     6
  9
$SURFU
 70
     6
  9
$SURFV
 70
     6
  9
$UCSNAME
  2

  9
$UCSORG
 10
0.0
 20
0.0
 30
0.0
  9
$UCSXDIR
 10
1.0
 20
0.0
 30
0.0
  9
$UCSYDIR
 10
0.0
 20
1.0
 30
0.0
  9
$PUCSNAME
  2

  9
$PUCSORG
 10
0.0
 20
0.0
 30
0.0
  9
$PUCSXDIR
 10
1.0
 20
0.0
 30
0.0
  9
$PUCSYDIR
 10
0.0
 20
1.0
 30
0.0
  9
$USERI1
 70
     0
  9
$USERI2
 70
     0
  9
$USERI3
 70
     0
  9
$USERI4
 70
     0
  9
$USERI5
 70
     0
  9
$USERR1
 40
0.0
  9
$USERR2
 40
0.0
  9
$USERR3
 40
0.0
  9
$USERR4
 40
0.0
  9
$USERR5
 40
0.0
  9
$WORLDVIEW
 70
     1
  9
$SHADEDGE
 70
     3
  9
$SHADEDIF
 70
    70
  9
$TILEMODE
 70
     1
  9
$MAXACTVP
 70
    16
  9
$PLIMCHECK
 70
     0
  9
$PEXTMIN
 10
-746.9569268198623604
 20
-518.6775945849017262
 30
-0.0015258207003583
  9
$PEXTMAX
 10
216.6745950503901099
 20
582.4241126152377319
 30
0.0000000349246037
  9
$PLIMMIN
 10
54.0000019621661522
 20
-81.50000133499816
  9
$PLIMMAX
 10
351.0000019621660954
 20
338.4999986650018968
  9
$UNITMODE
 70
     0
  9
$VISRETAIN
 70
     0
  9
$PLINEGEN
 70
     0
  9
$PSLTSCALE
 70
     0
  0
ENDSEC
  0
SECTION
  2
TABLES
  0
TABLE
  2
VPORT
 70
     1
  0
VPORT
  2
*ACTIVE
 70
     0
 10
0.0
 20
0.0
 11
1.0
 21
1.0
 12
58.4999966254897572
 22
636.7156660155247891
 13
0.0
 23
0.0
 14
1.0
 24
1.0
 15
10.0
 25
10.0
 16
-0.0000000000000012
 26
0.0
 36
5.5852494427615733
 17
0.0
 27
0.0
 37
0.0
 40
1283.6052213209120509
 41
2.0800000000000001
 42
50.0
 43
0.0
 44
0.0
 50
0.0
 51
0.0
 71
     0
 72
  1500
 73
     1
 74
     1
 75
     0
 76
     0
 77
     0
 78
     0
  0
ENDTAB
  0
TABLE
  2
LTYPE
 70
     2
  0
LTYPE
  2
CONTINUOUS
 70
     0
  3
Solid line
 72
    65
 73
     0
 40
0.0
  0
LTYPE
  2
VERDECKT
 70
     0
  3
Verdeckt __ __ __ __ __ __ __ __ __ __ __ __ __
 72
    65
 73
     2
 40
9.5249999999999986
 49
6.3499999999999979
 49
-3.174999999999998
  0
ENDTAB
  0
TABLE
  2
LAYER
 70
     3
  0
LAYER
  2
0
 70
     0
 62
     7
  6
CONTINUOUS
  0
LAYER
  2
DEFPOINTS
 70
     0
 62
     7
  6
CONTINUOUS
  0
LAYER
  2
ADSK_ASSOC_ENTITY_BACKUPS
 70
     1
 62
    -7
  6
CONTINUOUS
  0
ENDTAB
  0
TABLE
  2
STYLE
 70
     3
  0
STYLE
  2
STANDARD
 70
     0
 40
0.0
 41
0.8
 50
0.0
 71
     0
 42
3.5
  3
simplex.shx
  4

  0
STYLE
  2
ANNOTATIVE
 70
     0
 40
0.0
 41
1.0
 50
0.0
 71
     0
 42
0.2
  3
txt
  4

  0
STYLE
  2
GREEKS
 70
     0
 40
0.0
 41
0.8
 50
0.0
 71
     0
 42
2.5
  3
SIMPLEX.shx
  4

  0
ENDTAB
  0
TABLE
  2
VIEW
 70
     0
  0
ENDTAB
  0
TABLE
  2
UCS
 70
     0
  0
ENDTAB
  0
TABLE
  2
APPID
 70
    23
  0
APPID
  2
ACAD
 70
     0
  0
APPID
  2
ACADANNOTATIVE
 70
     0
  0
APPID
  2
ACAD_NAV_VCDISPLAY
 70
     0
  0
APPID
  2
ACAD_EXEMPT_FROM_CAD_STANDARDS
 70
     0
  0
APPID
  2
ACAD_PSEXT
 70
     0
  0
APPID
  2
ACAUTHENVIRON
 70
     0
  0
APPID
  2
ACDBDYNAMICBLOCKTRUENAME
 70
     0
  0
APPID
  2
ACDBDYNAMICBLOCKGUID
 70
     0
  0
APPID
  2
ACAECLAYERSTANDARD
 70
     0
  0
APPID
  2
ACCMTRANSPARENCY
 70
     0
  0
APPID
  2
ACAD_STEPID
 70
     0
  0
APPID
  2
ACSYNERGY
 70
     0
  0
APPID
  2
SYNERGY_BODY_TBR_ID
 70
     0
  0
APPID
  2
ACAD_VIEW_EDGE_ID
 70
     0
  0
APPID
  2
ACAD_DSTYLE_DIMJAG
 70
     0
  0
APPID
  2
ACAD_DSTYLE_DIMTALN
 70
     0
  0
APPID
  2
ACADANNOMONITORALERTICONDI
 70
     0
  0
APPID
  2
ACSYNERGYSKETCH
 70
     0
  0
APPID
  2
ACAD_MODELDOC_XFORM
 70
     0
  0
APPID
  2
GRADIENTCOLOR1ACI
 70
     0
  0
APPID
  2
GRADIENTCOLOR2ACI
 70
     0
  0
APPID
  2
ACAD_DSTYLE_DIMRADIAL_EXTENSION
 70
     0
  0
APPID
  2
ACAD_MLEADERVER
 70
     0
  0
ENDTAB
  0
TABLE
  2
DIMSTYLE
 70
     2
  0
DIMSTYLE
  2
STANDARD
 70
     0
  3

  4

  5

  6

  7

 40
1.0
 41
0.18
 42
0.0625
 43
0.38
 44
0.18
 45
0.0
 46
0.0
 47
0.0
 48
0.0
140
0.18
141
0.09
142
0.0
143
25.3999999999999986
144
1.0
145
0.0
146
1.0
147
0.09
 71
     0
 72
     0
 73
     1
 74
     1
 75
     0
 76
     0
 77
     0
 78
     0
170
     0
171
     2
172
     0
173
     0
174
     0
175
     0
176
     0
177
     0
178
     0
  0
DIMSTYLE
  2
ANNOTATIVE
 70
     0
  3

  4

  5

  6

  7

 40
1.0
 41
0.18
 42
0.0625
 43
0.38
 44
0.18
 45
0.0
 46
0.0
 47
0.0
 48
0.0
140
0.18
141
0.09
142
0.0
143
25.3999999999999986
144
1.0
145
0.0
146
1.0
147
0.09
 71
     0
 72
     0
 73
     1
 74
     1
 75
     0
 76
     0
 77
     0
 78
     0
170
     0
171
     2
172
     0
173
     0
174
     0
175
     0
176
     0
177
     0
178
     0
  0
ENDTAB
  0
ENDSEC
  0
SECTION
  2
BLOCKS
  0
BLOCK
  8
0
  2
$MODEL_SPACE
 70
     0
 10
0.0
 20
0.0
 30
0.0
  3
$MODEL_SPACE
  1

  0
ENDBLK
  5
31E8
  8
0
  0
BLOCK
 67
     1
  8
0
  2
$PAPER_SPACE
 70
     0
 10
0.0
 20
0.0
 30
0.0
  3
$PAPER_SPACE
  1

  0
ENDBLK
  5
31E4
 67
     1
  8
0
  0
BLOCK
  8
0
  2
*U2
 70
     1
 10
0.0
 20
0.0
 30
0.0
  3
*U2
  1

  0
ENDBLK
  5
571
  8
0
  0
BLOCK
  8
0
  2
A$C23757FC7
 70
     0
 10
0.0
 20
0.0
 30
0.0
  3
A$C23757FC7
  1

  0
LINE
  5
30BF
  8
0
  6
CONTINUOUS
 62
     3
 10
309.3545381510296011
 20
870.0000000000002274
 30
0.0
 11
199.0444043941421057
 21
870.0000000000002274
 31
0.0
210
0.0
220
1.0
230
0.0
  0
LINE
  5
30C0
  8
0
  6
CONTINUOUS
 62
     3
 10
199.8118919172673031
 20
-129.999999999999801
 30
0.0
 11
308.5870506279043184
 21
-129.999999999999801
 31
0.0
210
0.0
220
1.0
230
0.0
  0
LINE
  5
30C1
  8
0
  6
CONTINUOUS
 62
     3
 10
309.3545381510296011
 20
870.0000000000002274
 30
0.0
 11
310.4040120549838093
 21
867.7493959500766323
 31
0.0
210
0.0
220
1.0
230
0.0
  0
LINE
  5
30C2
  8
0
  6
CONTINUOUS
 62
     3
 10
199.0444043941421057
 20
870.0000000000002274
 30
0.0
 11
197.9949304901880964
 21
867.7493959500766323
 31
0.0
210
0.0
220
1.0
230
0.0
  0
ARC
  5
30C3
  8
0
  6
CONTINUOUS
 62
     3
 10
-288.1994712725866066
 20
857.395248537429552
 30
0.0
 40
24.4999999999993285
210
0.0
220
0.0
230
-1.0
 50
155.0
 51
180.0000000000009948
  0
ARC
  5
30C4
  8
0
  6
CONTINUOUS
 62
     3
 10
-220.1994712725852992
 20
857.395248537429552
 30
0.0
 40
24.4999999999993214
210
0.0
220
0.0
230
-1.0
 50
359.9999999999988063
 51
25.0000000000000107
  0
LINE
  5
30C5
  8
0
  6
CONTINUOUS
 62
     3
 10
195.6994712725858108
 20
842.2330000000005157
 30
0.0
 11
195.6994712725858108
 21
857.395248537429211
 31
0.0
210
0.0
220
1.0
230
0.0
  0
LINE
  5
30C6
  8
0
  6
CONTINUOUS
 62
     3
 10
312.6994712725859245
 20
842.2330000000005157
 30
0.0
 11
312.6994712725859245
 21
857.395248537429211
 31
0.0
210
0.0
220
1.0
230
0.0
  0
ARC
  5
30C7
  8
0
  6
CONTINUOUS
 62
     3
 10
-288.1994712725846171
 20
842.2330000000008567
 30
0.0
 40
24.500000000001311
210
0.0
220
0.0
230
-1.0
 50
180.0000000000003979
 51
206.8880476177230037
  0
ARC
  5
30C8
  8
0
  6
CONTINUOUS
 62
     3
 10
-220.1994712725856971
 20
842.2330000000005157
 30
0.0
 40
24.4999999999998117
210
0.0
220
0.0
230
-1.0
 50
333.1119523822761153
 51
0.0000000000002913
  0
ARC
  5
30C9
  8
0
  6
CONTINUOUS
 62
     3
 10
-321.1994712725880277
 20
825.4997994693185319
 30
0.0
 40
12.5000000000020393
210
0.0
220
0.0
230
-1.0
 50
0.0
 51
26.8880476177208507
  0
ARC
  5
30CA
  8
0
  6
CONTINUOUS
 62
     3
 10
-187.1994712725852139
 20
825.4997994693185319
 30
0.0
 40
12.5000000000006004
210
0.0
220
0.0
230
-1.0
 50
153.1119523822758026
 51
179.999999999999801
  0
ARC
  5
30CB
  8
0
  6
CONTINUOUS
 62
     3
 10
-313.1994712725858108
 20
714.8755180837539456
 30
0.0
 40
7.9999999999998259
210
0.0
220
0.0
230
-1.0
 50
0.0
 51
32.3875385330939878
  0
ARC
  5
30CC
  8
0
  6
CONTINUOUS
 62
     3
 10
-195.1994712725868055
 20
714.8755180837544003
 30
0.0
 40
7.9999999999990212
210
0.0
220
0.0
230
-1.0
 50
147.6124614669076038
 51
180.0000000000046896
  0
ARC
  5
30CD
  8
0
  6
CONTINUOUS
 62
     3
 10
-294.1994712725850718
 20
726.9274888769483596
 30
0.0
 40
14.5000000000007905
210
0.0
220
0.0
230
-1.0
 50
180.0000000000007958
 51
212.3875385330931067
  0
ARC
  5
30CE
  8
0
  6
CONTINUOUS
 62
     3
 10
-214.1994712725860097
 20
726.9274888769482459
 30
0.0
 40
14.5000000000000906
210
0.0
220
0.0
230
-1.0
 50
327.6124614669063249
 51
0.0000000000000127
  0
LINE
  5
30CF
  8
0
  6
CONTINUOUS
 62
     3
 10
199.6994712725858108
 20
726.9274888769482459
 30
0.0
 11
199.6994712725858108
 21
825.4997994693185319
 31
0.0
210
0.0
220
1.0
230
0.0
  0
LINE
  5
30D0
  8
0
  6
CONTINUOUS
 62
     3
 10
308.6994712725859245
 20
726.9274888769482459
 30
0.0
 11
308.6994712725859245
 21
825.4997994693185319
 31
0.0
210
0.0
220
1.0
230
0.0
  0
LINE
  5
30D1
  8
0
  6
CONTINUOUS
 62
     3
 10
305.199471272586095
 20
714.8755180837538319
 30
0.0
 11
305.199471272586095
 21
-38.4593407714619389
 31
0.0
210
0.0
220
1.0
230
0.0
  0
LINE
  5
30D2
  8
0
  6
CONTINUOUS
 62
     3
 10
203.1994712725858108
 20
714.8755180837538319
 30
0.0
 11
203.1994712725856971
 21
-38.4593407714619389
 31
0.0
210
0.0
220
1.0
230
0.0
  0
ARC
  5
30D3
  8
0
  6
CONTINUOUS
 62
     3
 10
-195.1994712725862939
 20
-38.4593407714617825
 30
0.0
 40
7.9999999999994591
210
0.0
220
0.0
230
-1.0
 50
180.0000000000011084
 51
201.8014094863532932
  0
ARC
  5
30D4
  8
0
  6
CONTINUOUS
 62
     3
 10
-313.1994712725855265
 20
-38.4593407714617825
 30
0.0
 40
7.999999999999484
210
0.0
220
0.0
230
-1.0
 50
338.1985905136468205
 51
359.9999999999988063
  0
LINE
  5
30D5
  8
0
  6
CONTINUOUS
 62
     3
 10
305.7716577455037736
 20
-41.4304661822946017
 30
0.0
 11
308.6272847996676774
 21
-48.5695338177051923
 31
0.0
210
0.0
220
1.0
230
0.0
  0
LINE
  5
30D6
  8
0
  6
CONTINUOUS
 62
     3
 10
202.6272847996679047
 20
-41.4304661822946017
 30
0.0
 11
199.7716577455038021
 21
-48.5695338177051923
 31
0.0
210
0.0
220
1.0
230
0.0
  0
ARC
  5
30D7
  8
0
  6
CONTINUOUS
 62
     3
 10
-207.1994712725854129
 20
-51.540659228537848
 30
0.0
 40
7.9999999999994591
210
0.0
220
0.0
230
-1.0
 50
0.0000000000001018
 51
21.8014094863522203
  0
ARC
  5
30D8
  8
0
  6
CONTINUOUS
 62
     3
 10
-301.199471272587914
 20
-51.5406592285375424
 30
0.0
 40
7.9999999999979527
210
0.0
220
0.0
230
-1.0
 50
158.198590513645712
 51
180.0000000000019895
  0
LINE
  5
30D9
  8
0
  6
CONTINUOUS
 62
     3
 10
309.1994712725858108
 20
-51.5406592285378267
 30
0.0
 11
309.1994712725858108
 21
-122.9999999999997016
 31
0.0
210
0.0
220
1.0
230
0.0
  0
LINE
  5
30DA
  8
0
  6
CONTINUOUS
 62
     3
 10
199.1994712725860097
 20
-51.5406592285378267
 30
0.0
 11
199.1994712725860097
 21
-122.9999999999997016
 31
0.0
210
0.0
220
1.0
230
0.0
  0
LINE
  5
30DB
  8
0
  6
CONTINUOUS
 62
     3
 10
199.8118919172673031
 20
-129.999999999999801
 30
0.0
 11
199.1994712725860097
 21
-122.9999999999997016
 31
0.0
210
0.0
220
1.0
230
0.0
  0
LINE
  5
30DC
  8
0
  6
CONTINUOUS
 62
     3
 10
308.5870506279043184
 20
-129.999999999999801
 30
0.0
 11
309.1994712725856971
 21
-122.9999999999997016
 31
0.0
210
0.0
220
1.0
230
0.0
  0
LINE
  5
30DD
  8
0
  6
VERDECKT
 62
     1
 10
307.9950764704748281
 20
869.3660726073894693
 30
0.0
 11
200.4038660746971914
 21
869.3660726073894693
 31
0.0
210
0.0
220
1.0
230
0.0
  0
ARC
  5
30DE
  8
0
  6
VERDECKT
 62
     1
 10
-321.1994712725880277
 20
825.4997994693185319
 30
0.0
 40
14.0000000000020997
210
0.0
220
0.0
230
-1.0
 50
0.0000000000009287
 51
26.8880476177223713
  0
ARC
  5
30DF
  8
0
  6
VERDECKT
 62
     1
 10
-187.1994712725852139
 20
825.4997994693191004
 30
0.0
 40
14.0000000000006697
210
0.0
220
0.0
230
-1.0
 50
153.1119523822760868
 51
180.0000000000003979
  0
ARC
  5
30E0
  8
0
  6
VERDECKT
 62
     1
 10
-288.1994712725845034
 20
842.2330000000008567
 30
0.0
 40
23.0000000000014211
210
0.0
220
0.0
230
-1.0
 50
180.0000000000011084
 51
206.888047617722691
  0
ARC
  5
30E1
  8
0
  6
VERDECKT
 62
     1
 10
-220.1994712725858108
 20
842.2330000000005157
 30
0.0
 40
22.9999999999999005
210
0.0
220
0.0
230
-1.0
 50
333.1119523822765132
 51
0.0
  0
LINE
  5
30E2
  8
0
  6
VERDECKT
 62
     1
 10
197.199471272585896
 20
842.2330000000005157
 30
0.0
 11
197.199471272585896
 21
857.395248537429211
 31
0.0
210
0.0
220
1.0
230
0.0
  0
LINE
  5
30E3
  8
0
  6
VERDECKT
 62
     1
 10
311.1994712725859245
 20
842.2330000000005157
 30
0.0
 11
311.1994712725859245
 21
857.395248537429211
 31
0.0
210
0.0
220
1.0
230
0.0
  0
ARC
  5
30E4
  8
0
  6
VERDECKT
 62
     1
 10
-288.1994712725881982
 20
857.3952485374302341
 30
0.0
 40
22.9999999999976517
210
0.0
220
0.0
230
-1.0
 50
154.9999999999990905
 51
180.0000000000021885
  0
ARC
  5
30E5
  8
0
  6
VERDECKT
 62
     1
 10
-220.199471272585896
 20
857.395248537429552
 30
0.0
 40
22.9999999999999716
210
0.0
220
0.0
230
-1.0
 50
359.9999999999988063
 51
24.9999999999994813
  0
LINE
  5
30E6
  8
0
  6
VERDECKT
 62
     1
 10
307.9950764704748281
 20
869.3660726073894693
 30
0.0
 11
309.0445503744286952
 21
867.1154685574656469
 31
0.0
210
0.0
220
1.0
230
0.0
  0
LINE
  5
30E7
  8
0
  6
VERDECKT
 62
     1
 10
200.4038660746971914
 20
869.3660726073894693
 30
0.0
 11
199.3543921707430115
 21
867.1154685574656469
 31
0.0
210
0.0
220
1.0
230
0.0
  0
LINE
  5
30E8
  8
0
  6
VERDECKT
 62
     1
 10
200.4038660746971061
 20
869.3660726073890146
 30
0.0
 11
199.0444043941421057
 21
870.0000000000001137
 31
0.0
210
0.0
220
1.0
230
0.0
  0
LINE
  5
30E9
  8
0
  6
VERDECKT
 62
     1
 10
307.9950764704748281
 20
869.3660726073890146
 30
0.0
 11
309.3545381510297148
 21
870.0000000000001137
 31
0.0
210
0.0
220
1.0
230
0.0
  0
LINE
  5
30EA
  8
0
  6
VERDECKT
 62
     1
 10
201.199471272585896
 20
726.9274888769482459
 30
0.0
 11
201.199471272585896
 21
825.4997994693185319
 31
0.0
210
0.0
220
1.0
230
0.0
  0
LINE
  5
30EB
  8
0
  6
VERDECKT
 62
     1
 10
307.1994712725859245
 20
726.9274888769482459
 30
0.0
 11
307.1994712725859245
 21
825.4997994693185319
 31
0.0
210
0.0
220
1.0
230
0.0
  0
ARC
  5
30EC
  8
0
  6
VERDECKT
 62
     1
 10
-294.1994712725847876
 20
726.9274888769483596
 30
0.0
 40
13.00000000000108
210
0.0
220
0.0
230
-1.0
 50
180.0000000000015064
 51
212.3875385330925099
  0
ARC
  5
30ED
  8
0
  6
VERDECKT
 62
     1
 10
-214.1994712725862087
 20
726.9274888769482459
 30
0.0
 40
13.00000000000027
210
0.0
220
0.0
230
-1.0
 50
327.6124614669071207
 51
0.0
  0
ARC
  5
30EE
  8
0
  6
VERDECKT
 62
     1
 10
-313.1994712725849013
 20
714.8755180837544003
 30
0.0
 40
9.4999999999989768
210
0.0
220
0.0
230
-1.0
 50
0.0
 51
32.3875385330965528
  0
ARC
  5
30EF
  8
0
  6
VERDECKT
 62
     1
 10
-195.1994712725866066
 20
714.8755180837544003
 30
0.0
 40
9.4999999999992983
210
0.0
220
0.0
230
-1.0
 50
147.6124614669078881
 51
180.0000000000032117
  0
LINE
  5
30F0
  8
0
  6
VERDECKT
 62
     1
 10
303.699471272586095
 20
714.8755180837538319
 30
0.0
 11
303.6994712725859813
 21
-38.4593407714619389
 31
0.0
210
0.0
220
1.0
230
0.0
  0
LINE
  5
30F1
  8
0
  6
VERDECKT
 62
     1
 10
204.6994712725858108
 20
714.8755180837538319
 30
0.0
 11
204.6994712725858108
 21
-38.4593407714619389
 31
0.0
210
0.0
220
1.0
230
0.0
  0
LINE
  5
30F2
  8
0
  6
VERDECKT
 62
     1
 10
201.3176216735824084
 20
-129.9999999999994884
 30
0.0
 11
200.699471272586095
 21
-122.9345085856373032
 31
0.0
210
0.0
220
1.0
230
0.0
  0
LINE
  5
30F3
  8
0
  6
VERDECKT
 62
     1
 10
307.081320871589412
 20
-129.9999999999994884
 30
0.0
 11
307.6994712725856971
 21
-122.9345085856373032
 31
0.0
210
0.0
220
1.0
230
0.0
  0
LINE
  5
30F4
  8
0
  6
VERDECKT
 62
     1
 10
307.6994712725856971
 20
-51.5406592285378267
 30
0.0
 11
307.6994712725856971
 21
-122.9345085856373032
 31
0.0
210
0.0
220
1.0
230
0.0
  0
LINE
  5
30F5
  8
0
  6
VERDECKT
 62
     1
 10
200.6994712725860097
 20
-51.5406592285378267
 30
0.0
 11
200.6994712725860097
 21
-122.9345085856373032
 31
0.0
210
0.0
220
1.0
230
0.0
  0
ARC
  5
30F6
  8
0
  6
VERDECKT
 62
     1
 10
-207.1994712725849865
 20
-51.5406592285375922
 30
0.0
 40
6.4999999999990052
210
0.0
220
0.0
230
-1.0
 50
359.9999999999977263
 51
21.8014094863526289
  0
ARC
  5
30F7
  8
0
  6
VERDECKT
 62
     1
 10
-301.1994712725875729
 20
-51.5406592285373506
 30
0.0
 40
6.499999999998181
210
0.0
220
0.0
230
-1.0
 50
158.1985905136465931
 51
180.0000000000040075
  0
LINE
  5
30F8
  8
0
  6
VERDECKT
 62
     1
 10
304.3789427091759876
 20
-41.9875521968255896
 30
0.0
 11
307.2345697633401187
 21
-49.1266198322361802
 31
0.0
210
0.0
220
1.0
230
0.0
  0
LINE
  5
30F9
  8
0
  6
VERDECKT
 62
     1
 10
204.0199998359958045
 20
-41.9875521968255896
 30
0.0
 11
201.1643727818317018
 21
-49.1266198322361802
 31
0.0
210
0.0
220
1.0
230
0.0
  0
ARC
  5
30FA
  8
0
  6
VERDECKT
 62
     1
 10
-195.1994712725852139
 20
-38.4593407714615765
 30
0.0
 40
9.5000000000005684
210
0.0
220
0.0
230
-1.0
 50
180.0000000000021032
 51
201.8014094863505079
  0
ARC
  5
30FB
  8
0
  6
VERDECKT
 62
     1
 10
-313.1994712725850718
 20
-38.4593407714618891
 30
0.0
 40
9.4999999999989768
210
0.0
220
0.0
230
-1.0
 50
338.1985905136473889
 51
359.9999999999997158
  0
ENDBLK
  5
30FD
  8
0
  0
BLOCK
  8
0
  2
A$C3DD17501
 70
     0
 10
0.0
 20
0.0
 30
0.0
  3
A$C3DD17501
  1

  0
CIRCLE
  5
3101
  8
0
  6
CONTINUOUS
 62
     3
 10
271.7282561453096719
 20
351.9345342023506191
 30
0.0
 40
53.0
  0
CIRCLE
  5
3102
  8
0
  6
CONTINUOUS
 62
     3
 10
271.7282561453096719
 20
351.9345342023506191
 30
0.0
 40
53.7956051978887402
  0
CIRCLE
  5
3103
  8
0
  6
CONTINUOUS
 62
     3
 10
271.7282561453096719
 20
351.9345342023506191
 30
0.0
 40
55.1550668784437192
  0
CIRCLE
  5
3104
  8
0
  6
CONTINUOUS
 62
     3
 10
271.7282561453096719
 20
351.9345342023506191
 30
0.0
 40
58.5
  0
CIRCLE
  5
3105
  8
0
  6
CONTINUOUS
 62
     3
 10
271.7282561453096719
 20
351.9345342023506191
 30
0.0
 40
49.5
  0
CIRCLE
  5
3106
  8
0
  6
VERDECKT
 62
     1
 10
271.7282561453096719
 20
351.9345342023506191
 30
0.0
 40
56.9999999999999929
  0
CIRCLE
  5
3107
  8
0
  6
VERDECKT
 62
     1
 10
271.7282561453096719
 20
351.9345342023506191
 30
0.0
 40
54.5
  0
CIRCLE
  5
3108
  8
0
  6
VERDECKT
 62
     1
 10
271.7282561453096719
 20
351.9345342023506191
 30
0.0
 40
51.0
  0
CIRCLE
  5
3109
  8
0
  6
VERDECKT
 62
     1
 10
271.728256145309615
 20
351.9345342023506191
 30
0.0
 40
54.9999999999999218
  0
CIRCLE
  5
310A
  8
0
  6
VERDECKT
 62
     1
 10
271.728256145309615
 20
351.9345342023506191
 30
0.0
 40
54.3875793553184295
  0
CIRCLE
  5
310B
  8
0
  6
VERDECKT
 62
     1
 10
271.728256145309615
 20
351.9345342023506191
 30
0.0
 40
52.8818495990034805
  0
CIRCLE
  5
310C
  8
0
  6
VERDECKT
 62
     1
 10
271.728256145309615
 20
351.9345342023506191
 30
0.0
 40
53.4999999999999005
  0
ENDBLK
  5
310E
  8
0
  0
ENDSEC
  0
SECTION
  2
ENTITIES
  0
INSERT
  5
573
  8
ADSK_ASSOC_ENTITY_BACKUPS
  2
*U2
 10
0.0
 20
0.0
 30
0.0
  0
INSERT
  5
3225
  8
DEFPOINTS
  2
A$C23757FC7
 10
-195.6994746470963946
 20
403.4313339230575934
 30
0.0
  0
INSERT
  5
3226
  8
DEFPOINTS
  2
A$C3DD17501
 10
-213.2282595198201136
 20
-293.4345360943588048
 30
0.0
  0
VIEWPORT
  5
45D
 67
     1
  8
0
 10
109.5627621352204955
 20
-519.2179123489505628
 30
0.0
 40
8862.0892438677055907
 41
3464.4860884026820713
 68
     1
 69
     1
1001
ACAD
1000
MVIEW
1002
{
1070
    16
1010
0.0
1020
0.0
1030
0.0
1010
0.0
1020
0.0
1030
1.0
1040
0.0
1040
3464.4860884026820713
1040
109.5627621352204955
1040
-519.2179123489505628
1040
50.0
1040
0.0
1040
0.0
1070
     0
1070
  1500
1070
     1
1070
     1
1070
     0
1070
     0
1070
     0
1070
     0
1040
0.0
1040
0.0
1040
0.0
1040
10.0
1040
10.0
1040
10.0
1040
10.0
1070
     0
1002
{
1002
}
1002
}
  0
ENDSEC
  0
EOF
