  0
SECTION
  2
HEADER
  9
$ACADVER
  1
AC1009
  9
$INSBASE
 10
214.1896305907800127
 20
83.9878893283155321
 30
0.0
  9
$EXTMIN
 10
-59.0000000000001421
 20
-58.9999999999998721
 30
-0.0000000000000729
  9
$EXTMAX
 10
1906.4492269555580606
 20
520.0000000000004547
 30
320.0000000000002842
  9
$LIMMIN
 10
0.0
 20
0.0
  9
$LIMMAX
 10
420.0
 20
594.0
  9
$ORTHOMODE
 70
     1
  9
$REGENMODE
 70
     1
  9
$FILLMODE
 70
     1
  9
$QTEXTMODE
 70
     0
  9
$MIRRTEXT
 70
     1
  9
$DRAGMODE
 70
     2
  9
$LTSCALE
 40
10.0
  9
$OSMODE
 70
  1335
  9
$ATTMODE
 70
     1
  9
$TEXTSIZE
 40
3.5
  9
$TRACEWID
 40
1.0
  9
$TEXTSTYLE
  7
STANDARD
  9
$CLAYER
  8
BEM
  9
$CELTYPE
  6
BYLAYER
  9
$CECOLOR
 62
   256
  9
$DIMSCALE
 40
1.0
  9
$DIMASZ
 40
3.5
  9
$DIMEXO
 40
1.0
  9
$DIMDLI
 40
7.0
  9
$DIMRND
 40
0.0
  9
$DIMDLE
 40
0.0
  9
$DIMEXE
 40
1.0
  9
$DIMTP
 40
0.4
  9
$DIMTM
 40
0.0
  9
$DIMTXT
 40
3.5
  9
$DIMCEN
 40
1.5
  9
$DIMTSZ
 40
0.0
  9
$DIMTOL
 70
     0
  9
$DIMLIM
 70
     0
  9
$DIMTIH
 70
     0
  9
$DIMTOH
 70
     0
  9
$DIMSE1
 70
     0
  9
$DIMSE2
 70
     0
  9
$DIMTAD
 70
     1
  9
$DIMZIN
 70
     8
  9
$DIMBLK
  1

  9
$DIMASO
 70
     1
  9
$DIMSHO
 70
     0
  9
$DIMPOST
  1

  9
$DIMAPOST
  1

  9
$DIMALT
 70
     0
  9
$DIMALTD
 70
     2
  9
$DIMALTF
 40
25.3999999999999986
  9
$DIMLFAC
 40
1.0
  9
$DIMTOFL
 70
     1
  9
$DIMTVP
 40
0.5714285714285714
  9
$DIMTIX
 70
     0
  9
$DIMSOXD
 70
     0
  9
$DIMSAH
 70
     0
  9
$DIMBLK1
  1

  9
$DIMBLK2
  1

  9
$DIMSTYLE
  2
STANDARD
  9
$DIMCLRD
 70
     0
  9
$DIMCLRE
 70
     0
  9
$DIMCLRT
 70
     1
  9
$DIMTFAC
 40
0.5
  9
$DIMGAP
 40
1.5
  9
$LUNITS
 70
     2
  9
$LUPREC
 70
     2
  9
$SKETCHINC
 40
1.0
  9
$FILLETRAD
 40
6.5
  9
$AUNITS
 70
     0
  9
$AUPREC
 70
     0
  9
$MENU
  1
ACAD
  9
$ELEVATION
 40
0.0
  9
$PELEVATION
 40
0.0
  9
$THICKNESS
 40
0.0
  9
$LIMCHECK
 70
     0
  9
$BLIPMODE
 70
     0
  9
$CHAMFERA
 40
0.0
  9
$CHAMFERB
 40
0.0
  9
$SKPOLY
 70
     0
  9
$TDCREATE
 40
2451302.3435648148879409
  9
$TDUPDATE
 40
2460269.422858796082437
  9
$TDINDWG
 40
0.2603031019
  9
$TDUSRTIMER
 40
0.2603031019
  9
$USRTIMER
 70
     1
  9
$ANGBASE
 50
0.0
  9
$ANGDIR
 70
     0
  9
$PDMODE
 70
     0
  9
$PDSIZE
 40
0.0
  9
$PLINEWID
 40
0.0
  9
$COORDS
 70
     1
  9
$SPLFRAME
 70
     0
  9
$SPLINETYPE
 70
     6
  9
$SPLINESEGS
 70
     8
  9
$ATTDIA
 70
     1
  9
$ATTREQ
 70
     0
  9
$HANDLING
 70
     1
  9
$HANDSEED
  5
1BE2
  9
$SURFTAB1
 70
     6
  9
$SURFTAB2
 70
     6
  9
$SURFTYPE
 70
     6
  9
$SURFU
 70
     6
  9
$SURFV
 70
     6
  9
$UCSNAME
  2

  9
$UCSORG
 10
0.0
 20
0.0
 30
0.0
  9
$UCSXDIR
 10
1.0
 20
0.0
 30
0.0
  9
$UCSYDIR
 10
0.0
 20
1.0
 30
0.0
  9
$PUCSNAME
  2

  9
$PUCSORG
 10
0.0
 20
0.0
 30
0.0
  9
$PUCSXDIR
 10
1.0
 20
0.0
 30
0.0
  9
$PUCSYDIR
 10
0.0
 20
1.0
 30
0.0
  9
$USERI1
 70
     0
  9
$USERI2
 70
     0
  9
$USERI3
 70
     0
  9
$USERI4
 70
     0
  9
$USERI5
 70
     0
  9
$USERR1
 40
0.0
  9
$USERR2
 40
0.0
  9
$USERR3
 40
0.0
  9
$USERR4
 40
0.0
  9
$USERR5
 40
0.0
  9
$WORLDVIEW
 70
     1
  9
$SHADEDGE
 70
     3
  9
$SHADEDIF
 70
    70
  9
$TILEMODE
 70
     1
  9
$MAXACTVP
 70
    16
  9
$PLIMCHECK
 70
     0
  9
$PEXTMIN
 10
1.0000000000000000E+20
 20
1.0000000000000000E+20
 30
1.0000000000000000E+20
  9
$PEXTMAX
 10
-1.0000000000000000E+20
 20
-1.0000000000000000E+20
 30
-1.0000000000000000E+20
  9
$PLIMMIN
 10
-86.4798528089461627
 20
-181.0105272269861132
  9
$PLIMMAX
 10
123.5201471910537947
 20
115.9894727730138015
  9
$UNITMODE
 70
     0
  9
$VISRETAIN
 70
     0
  9
$PLINEGEN
 70
     0
  9
$PSLTSCALE
 70
     0
  0
ENDSEC
  0
SECTION
  2
TABLES
  0
TABLE
  2
VPORT
 70
     1
  0
VPORT
  2
*ACTIVE
 70
     0
 10
0.0
 20
0.0
 11
1.0
 21
1.0
 12
0.0
 22
0.0
 13
0.0
 23
0.0
 14
2.5
 24
2.5
 15
10.0
 25
10.0
 16
-0.0000000000004832
 26
0.0
 36
2225.5865226534237991
 17
115.7407483559468062
 27
212.5753064871003915
 37
160.0000000000003126
 40
802.2865866543457969
 41
2.1047227926078018
 42
50.0
 43
0.0
 44
0.0
 50
0.0
 51
0.0
 71
     0
 72
   500
 73
     1
 74
     0
 75
     0
 76
     1
 77
     0
 78
     0
  0
ENDTAB
  0
TABLE
  2
LTYPE
 70
     5
  0
LTYPE
  2
CONTINUOUS
 70
     0
  3
Solid line
 72
    65
 73
     0
 40
0.0
  0
LTYPE
  2
VERDECKT
 70
     0
  3
Verdeckt __ __ __ __ __ __ __ __ __ __ __ __ __
 72
    65
 73
     2
 40
0.375
 49
0.25
 49
-0.125
  0
ENDTAB
  0
TABLE
  2
LAYER
 70
    11
  0
LAYER
  2
0
 70
     0
 62
     7
  6
CONTINUOUS
  0
LAYER
  2
VOLL
 70
     0
 62
     1
  6
CONTINUOUS
  0
LAYER
  2
BEM
 70
     0
 62
     7
  6
CONTINUOUS
  0
LAYER
  2
TEXT
 70
     0
 62
     7
  6
CONTINUOUS
  0
LAYER
  2
DEFPOINTS
 70
     0
 62
     7
  6
CONTINUOUS
  0
LAYER
  2
ROHR
 70
     0
 62
     9
  6
CONTINUOUS
  0
LAYER
  2
ADSK_ASSOC_ENTITY_BACKUPS
 70
     1
 62
    -7
  6
CONTINUOUS
  0
ENDTAB
  0
TABLE
  2
STYLE
 70
     3
  0
STYLE
  2
STANDARD
 70
     0
 40
0.0
 41
0.8
 50
0.0
 71
     0
 42
3.5
  3
simplex.shx
  4

  0
STYLE
  2
GREEKS
 70
     0
 40
0.0
 41
0.8
 50
0.0
 71
     0
 42
1.8
  3
SIMPLEX.shx
  4

  0
STYLE
  2

 70
     1
 40
0.0
 41
1.0
 50
0.0
 71
     0
 42
1.8
  3
ltypeshp.shx
  4

  0
ENDTAB
  0
TABLE
  2
VIEW
 70
     5
  0
ENDTAB
  0
TABLE
  2
UCS
 70
     0
  0
ENDTAB
  0
TABLE
  2
APPID
 70
    19
  0
APPID
  2
ACAD
 70
     0
  0
APPID
  2
ACAD_EXEMPT_FROM_CAD_STANDARDS
 70
     0
  0
APPID
  2
ACADANNOTATIVE
 70
     0
  0
APPID
  2
ACAD_NAV_VCDISPLAY
 70
     0
  0
APPID
  2
ACAD_PSEXT
 70
     0
  0
APPID
  2
ACAD_MLEADERVER
 70
     0
  0
APPID
  2
ACAD_DSTYLE_DIMRADIAL_EXTENSION
 70
     0
  0
APPID
  2
ACAECLAYERSTANDARD
 70
     0
  0
APPID
  2
ACCMTRANSPARENCY
 70
     0
  0
APPID
  2
ACSYNERGY
 70
     0
  0
APPID
  2
SYNERGY_BODY_TBR_ID
 70
     0
  0
APPID
  2
ACAD_VIEW_EDGE_ID
 70
     0
  0
APPID
  2
ACAD_DIMASSOC_CALC_DIMLFAC
 70
     0
  0
APPID
  2
ACAD_DIMASSOC_DIMLFAC
 70
     0
  0
APPID
  2
ACAD_DIMASSOC_OVERRIDDEN_D
 70
     0
  0
APPID
  2
ACAD_DSTYLE_DIMJAG
 70
     0
  0
APPID
  2
ACAD_DSTYLE_DIMTALN
 70
     0
  0
APPID
  2
ACADANNOMONITORALERTICONDI
 70
     0
  0
APPID
  2
ACAD_ASSOCPERSSUBENTMANAGER
 70
     0
  0
ENDTAB
  0
TABLE
  2
DIMSTYLE
 70
     1
  0
DIMSTYLE
  2
STANDARD
 70
     0
  3

  4

  5

  6

  7

 40
1.0
 41
0.18
 42
0.0625
 43
0.38
 44
0.18
 45
0.0
 46
0.0
 47
0.0
 48
0.0
140
0.18
141
0.09
142
0.0
143
25.3999999999999986
144
1.0
145
0.0
146
1.0
147
0.09
 71
     0
 72
     0
 73
     1
 74
     1
 75
     0
 76
     0
 77
     0
 78
     0
170
     0
171
     2
172
     0
173
     0
174
     0
175
     0
176
     0
177
     0
178
     0
  0
ENDTAB
  0
ENDSEC
  0
SECTION
  2
BLOCKS
  0
BLOCK
  8
0
  2
$MODEL_SPACE
 70
     0
 10
0.0
 20
0.0
 30
0.0
  3
$MODEL_SPACE
  1

  0
ENDBLK
  5
60
  8
0
  0
BLOCK
 67
     1
  8
0
  2
$PAPER_SPACE
 70
     0
 10
0.0
 20
0.0
 30
0.0
  3
$PAPER_SPACE
  1

  0
ENDBLK
  5
5E
 67
     1
  8
0
  0
BLOCK
  8
0
  2
*S2
 70
     1
 10
0.0
 20
0.0
 30
0.0
  3
*S2
  1

  0
ENDBLK
  5
998
  8
0
  0
BLOCK
  8
0
  2
A$CCF3C9943
 70
     0
 10
0.0
 20
0.0
 30
0.0
  3
A$CCF3C9943
  1

  0
CIRCLE
  5
1AD0
  8
0
  6
CONTINUOUS
 62
     3
 10
0.0
 20
0.0000000000000135
 30
0.0
 40
34.4686451654237089
  0
CIRCLE
  5
1AD1
  8
0
  6
CONTINUOUS
 62
     3
 10
-0.0000000000000675
 20
0.0000000000000263
 30
0.0
 40
34.8999999999998494
  0
CIRCLE
  5
1AD2
  8
0
  6
CONTINUOUS
 62
     3
 10
-0.0000000000000638
 20
0.0000000000000273
 30
0.0
 40
38.4418540644129294
  0
CIRCLE
  5
1AD3
  8
0
  6
CONTINUOUS
 62
     3
 10
-0.0000000000000635
 20
0.0000000000000013
 30
0.0
 40
38.6546544120072895
  0
CIRCLE
  5
1AD4
  8
0
  6
CONTINUOUS
 62
     3
 10
-0.0000000000000595
 20
0.000000000000116
 30
0.0
 40
49.0000000000000284
  0
CIRCLE
  5
1AD5
  8
0
  6
CONTINUOUS
 62
     3
 10
-0.0000000000000525
 20
0.000000000000118
 30
0.0
 40
53.0000000000000426
  0
CIRCLE
  5
1AD6
  8
0
  6
CONTINUOUS
 62
     3
 10
-0.0000000000000428
 20
0.0000000000001207
 30
0.0
 40
53.8941402638517104
  0
CIRCLE
  5
1AD7
  8
0
  6
CONTINUOUS
 62
     3
 10
-0.0000000000000426
 20
0.0000000000001207
 30
0.0
 40
55.7067558379250372
  0
CIRCLE
  5
1AD8
  8
0
  6
CONTINUOUS
 62
     3
 10
-0.0000000000000454
 20
0.0000000000001199
 30
0.0
 40
59.0
  0
CIRCLE
  5
1AD9
  8
0
  6
VERDECKT
 62
     1
 10
0.0
 20
0.0000000000000135
 30
0.0
 40
36.0625566823705412
  0
CIRCLE
  5
1ADA
  8
0
  6
VERDECKT
 62
     1
 10
-0.0000000000000638
 20
0.0000000000000273
 30
0.0
 40
39.9999999999998721
  0
CIRCLE
  5
1ADB
  8
0
  6
VERDECKT
 62
     1
 10
-0.0000000000000675
 20
0.0000000000000263
 30
0.0
 40
36.4999999999998721
  0
CIRCLE
  5
1ADC
  8
0
  6
VERDECKT
 62
     1
 10
-0.0000000000000638
 20
0.0000000000000012
 30
0.0
 40
39.9999999999998934
  0
CIRCLE
  5
1ADD
  8
0
  6
VERDECKT
 62
     1
 10
-0.0000000000000595
 20
0.000000000000116
 30
0.0
 40
51.0000000000000284
  0
CIRCLE
  5
1ADE
  8
0
  6
VERDECKT
 62
     1
 10
-0.0000000000000454
 20
0.0000000000001199
 30
0.0
 40
57.0000000000000213
  0
CIRCLE
  5
1ADF
  8
0
  6
VERDECKT
 62
     1
 10
-0.0000000000000525
 20
0.000000000000118
 30
0.0
 40
55.0
  0
ENDBLK
  5
1AE1
  8
0
  0
BLOCK
  8
0
  2
A$C5F8FC719
 70
     0
 10
0.0
 20
0.0
 30
0.0
  3
A$C5F8FC719
  1

  0
LINE
  5
1B39
  8
0
  6
CONTINUOUS
 62
     3
 10
-36.0625566823705412
 20
-0.0000000000000853
 30
0.0
 11
36.0625566823705412
 21
0.0000000000000284
 31
0.0
210
0.0
220
1.0
230
-0.0000000000000002
  0
LINE
  5
1B3A
  8
0
  6
CONTINUOUS
 62
     3
 10
-40.0
 20
224.5
 30
-0.0000000000000498
 11
39.9999999999997726
 21
224.5
 31
-0.0000000000000498
210
0.0
220
1.0
230
-0.0000000000000002
  0
LINE
  5
1B3B
  8
0
  6
CONTINUOUS
 62
     3
 10
-36.8139054830984875
 20
210.8453092132801032
 30
-0.0000000000000468
 11
-40.0000000000000568
 21
224.5
 31
-0.0000000000000498
210
0.0
220
1.0
230
-0.0000000000000002
  0
LINE
  5
1B3C
  8
0
  6
CONTINUOUS
 62
     3
 10
36.8139054830982815
 20
210.8453092132801885
 30
-0.0000000000000468
 11
39.9999999999998224
 21
224.5
 31
-0.0000000000000498
210
0.0
220
1.0
230
-0.0000000000000002
  0
ARC
  5
1B3D
  8
0
  6
CONTINUOUS
 62
     3
 10
48.4999999999982307
 20
208.1185538260035059
 30
0.0
 40
11.9999999999982503
210
0.0
220
-0.0000000000000002
230
-1.0
 50
166.865977693603611
 51
180.0000000000021032
  0
ARC
  5
1B3E
  8
0
  6
CONTINUOUS
 62
     3
 10
-48.4999999999980105
 20
208.1185538260035912
 30
0.0
 40
11.9999999999982503
210
0.0
220
-0.0000000000000002
230
-1.0
 50
359.9999999999977831
 51
13.1340223063963393
  0
LINE
  5
1B3F
  8
0
  6
CONTINUOUS
 62
     3
 10
36.4999999999997087
 20
208.118553826003108
 30
-0.0000000000000462
 11
36.4999999999998366
 21
5.288162223196224
 31
-0.0000000000000012
210
0.0
220
1.0
230
-0.0000000000000002
  0
LINE
  5
1B40
  8
0
  6
CONTINUOUS
 62
     3
 10
-36.5000000000000711
 20
208.118553826003108
 30
-0.0000000000000462
 11
-36.4999999999999432
 21
5.288162223196168
 31
-0.0000000000000012
210
0.0
220
1.0
230
-0.0000000000000002
  0
ARC
  5
1B41
  8
0
  6
CONTINUOUS
 62
     3
 10
29.8999999999455603
 20
5.2881622231983592
 30
0.0
 40
6.6000000000545489
210
0.0
220
-0.0000000000000002
230
-1.0
 50
355.0000000000226237
 51
359.9999999999810143
  0
ARC
  5
1B42
  8
0
  6
CONTINUOUS
 62
     3
 10
-29.8999999999456101
 20
5.288162223198408
 30
0.0
 40
6.6000000000544947
210
0.0
220
-0.0000000000000002
230
-1.0
 50
180.0000000000190141
 51
184.9999999999774047
  0
LINE
  5
1B43
  8
0
  6
CONTINUOUS
 62
     3
 10
-36.0625566823705412
 20
-0.0000000000000289
 30
0.0
 11
-36.4748850074056534
 21
4.7129343210616534
 31
-0.000000000000001
210
0.0
220
1.0
230
-0.0000000000000002
  0
LINE
  5
1B44
  8
0
  6
CONTINUOUS
 62
     3
 10
36.0625566823705483
 20
0.0000000000000222
 30
0.0
 11
36.4748850074056534
 21
4.7129343210617041
 31
-0.000000000000001
210
0.0
220
1.0
230
-0.0000000000000002
  0
LINE
  5
1B45
  8
0
  6
CONTINUOUS
 62
     3
 10
39.9999999999997726
 20
224.5
 30
-0.0000000000000498
 11
-40.0
 21
224.5
 31
-0.0000000000000498
210
0.0
220
1.0
230
-0.0000000000000002
  0
LINE
  5
1B46
  8
0
  6
CONTINUOUS
 62
     3
 10
-55.7067558379251579
 20
320.0000000000003979
 30
-0.0000000000000711
 11
55.7067558379249306
 21
320.0000000000003979
 31
-0.0000000000000711
210
0.0
220
1.0
230
-0.0000000000000002
  0
LINE
  5
1B47
  8
0
  6
CONTINUOUS
 62
     3
 10
-39.9999999999999929
 20
224.5
 30
-0.0000000000000498
 11
-45.762764703941528
 21
229.7388770035832124
 31
-0.000000000000051
210
0.0
220
1.0
230
-0.0000000000000002
  0
LINE
  5
1B48
  8
0
  6
CONTINUOUS
 62
     3
 10
39.9999999999997584
 20
224.5
 30
-0.0000000000000498
 11
45.7627647039413006
 21
229.7388770035832124
 31
-0.000000000000051
210
0.0
220
1.0
230
-0.0000000000000002
  0
ARC
  5
1B49
  8
0
  6
CONTINUOUS
 62
     3
 10
-35.0000000000002416
 20
241.5779181779174962
 30
0.0
 40
15.9999999999995293
210
0.0
220
-0.0000000000000002
230
-1.0
 50
180.000000000000199
 51
227.726310993904292
  0
ARC
  5
1B4A
  8
0
  6
CONTINUOUS
 62
     3
 10
35.000000000000469
 20
241.5779181779174962
 30
0.0
 40
15.9999999999995204
210
0.0
220
-0.0000000000000002
230
-1.0
 50
312.2736890060958217
 51
359.9999999999997158
  0
LINE
  5
1B4B
  8
0
  6
CONTINUOUS
 62
     3
 10
-51.0000000000001208
 20
241.577918177917411
 30
-0.0000000000000536
 11
-51.0000000000001208
 21
243.9660074801321912
 31
-0.0000000000000542
210
0.0
220
1.0
230
-0.0000000000000002
  0
LINE
  5
1B4C
  8
0
  6
CONTINUOUS
 62
     3
 10
50.9999999999998792
 20
241.577918177917411
 30
-0.0000000000000536
 11
50.9999999999998792
 21
243.9660074801321912
 31
-0.0000000000000542
210
0.0
220
1.0
230
-0.0000000000000002
  0
LINE
  5
1B4D
  8
0
  6
CONTINUOUS
 62
     3
 10
55.7067558379249519
 20
320.0000000000003979
 30
-0.0000000000000711
 11
56.657694675916332
 21
317.9607050809464113
 31
-0.0000000000000706
210
0.0
220
1.0
230
-0.0000000000000002
  0
LINE
  5
1B4E
  8
0
  6
CONTINUOUS
 62
     3
 10
-55.7067558379251722
 20
320.0000000000003979
 30
-0.0000000000000711
 11
-56.6576946759165523
 21
317.9607050809464113
 31
-0.0000000000000706
210
0.0
220
1.0
230
-0.0000000000000002
  0
ARC
  5
1B4F
  8
0
  6
CONTINUOUS
 62
     3
 10
34.0000000000002629
 20
307.3952485374293815
 30
0.0
 40
24.9999999999998614
210
0.0
220
-0.0000000000000002
230
-1.0
 50
359.9999999999997726
 51
24.9999999999990195
  0
ARC
  5
1B50
  8
0
  6
CONTINUOUS
 62
     3
 10
-33.9999999999997584
 20
307.395248537429211
 30
0.0
 40
25.0000000000001386
210
0.0
220
-0.0000000000000002
230
-1.0
 50
155.0000000000009948
 51
180.0
  0
LINE
  5
1B51
  8
0
  6
CONTINUOUS
 62
     3
 10
58.9999999999999005
 20
307.395248537429211
 30
-0.0000000000000683
 11
58.9999999999999005
 21
292.2332005306819838
 31
-0.0000000000000649
210
0.0
220
1.0
230
-0.0000000000000002
  0
LINE
  5
1B52
  8
0
  6
CONTINUOUS
 62
     3
 10
-59.0000000000001208
 20
307.3952485374293246
 30
-0.0000000000000683
 11
-59.0000000000001208
 21
292.2332005306819838
 31
-0.0000000000000649
210
0.0
220
1.0
230
-0.0000000000000002
  0
ARC
  5
1B53
  8
0
  6
CONTINUOUS
 62
     3
 10
34.0000000000059686
 20
292.2332005306806195
 30
0.0
 40
24.99999999999417
210
0.0
220
-0.0000000000000002
230
-1.0
 50
333.1119523822737278
 51
0.0000000000032429
  0
ARC
  5
1B54
  8
0
  6
CONTINUOUS
 62
     3
 10
-34.0000000000057199
 20
292.2332005306806195
 30
0.0
 40
24.9999999999941913
210
0.0
220
-0.0000000000000002
230
-1.0
 50
179.9999999999967883
 51
206.8880476177263006
  0
ARC
  5
1B55
  8
0
  6
CONTINUOUS
 62
     3
 10
67.0000000000000426
 20
275.5000000000005116
 30
0.0
 40
11.9999999999999094
210
0.0
220
-0.0000000000000002
230
-1.0
 50
153.1119523822738131
 51
180.000000000000199
  0
ARC
  5
1B56
  8
0
  6
CONTINUOUS
 62
     3
 10
-66.9999999999999432
 20
275.5000000000003979
 30
0.0
 40
12.0000000000000497
210
0.0
220
-0.0000000000000002
230
-1.0
 50
0.0
 51
26.8880476177264889
  0
LINE
  5
1B57
  8
0
  6
CONTINUOUS
 62
     3
 10
54.9999999999999005
 20
275.5000000000003979
 30
-0.0000000000000612
 11
54.9999999999999005
 21
256.9274888769477911
 31
-0.000000000000057
210
0.0
220
1.0
230
-0.0000000000000002
  0
LINE
  5
1B58
  8
0
  6
CONTINUOUS
 62
     3
 10
-55.0000000000001279
 20
275.5000000000003979
 30
-0.0000000000000612
 11
-55.0000000000001279
 21
256.9274888769479048
 31
-0.000000000000057
210
0.0
220
1.0
230
-0.0000000000000002
  0
ARC
  5
1B59
  8
0
  6
CONTINUOUS
 62
     3
 10
40.0000000000003695
 20
256.9274888769477911
 30
0.0
 40
14.9999999999997602
210
0.0
220
-0.0000000000000002
230
-1.0
 50
325.6988472432080926
 51
0.0000000000002226
  0
ARC
  5
1B5A
  8
0
  6
CONTINUOUS
 62
     3
 10
-40.0000000000000924
 20
256.9274888769479048
 30
0.0
 40
14.9999999999998099
210
0.0
220
-0.0000000000000002
230
-1.0
 50
180.0
 51
214.3011527567919074
  0
ARC
  5
1B5B
  8
0
  6
CONTINUOUS
 62
     3
 10
59.0000000000001634
 20
243.9660074801321912
 30
0.0
 40
8.0000000000000213
210
0.0
220
-0.0000000000000002
230
-1.0
 50
145.6988472432084905
 51
179.9999999999996021
  0
ARC
  5
1B5C
  8
0
  6
CONTINUOUS
 62
     3
 10
-58.9999999999999432
 20
243.9660074801321912
 30
0.0
 40
8.0000000000000213
210
0.0
220
-0.0000000000000002
230
-1.0
 50
0.0000000000004071
 51
34.3011527567914172
  0
LINE
  5
1B5D
  8
0
  6
VERDECKT
 62
     1
 10
-34.4686451654237089
 20
0.1394491883962701
 30
0.0
 11
34.4686451654237089
 21
0.1394491883962701
 31
0.0
210
0.0
220
1.0
230
-0.0000000000000002
  0
LINE
  5
1B5E
  8
0
  6
VERDECKT
 62
     1
 10
-38.4418540644130715
 20
224.8635673849703096
 30
-0.0000000000000499
 11
38.441854064412837
 21
224.8635673849703096
 31
-0.0000000000000499
210
0.0
220
1.0
230
-0.0000000000000002
  0
LINE
  5
1B5F
  8
0
  6
VERDECKT
 62
     1
 10
34.4686451654237089
 20
0.1394491883962814
 30
0.0
 11
36.0625566823705412
 21
0.0000000000000417
 31
0.0
210
0.0
220
1.0
230
-0.0000000000000002
  0
LINE
  5
1B60
  8
0
  6
VERDECKT
 62
     1
 10
-34.4686451654237089
 20
0.139449188396239
 30
0.0
 11
-36.0625566823705412
 21
-0.0000000000000027
 31
0.0
210
0.0
220
1.0
230
-0.0000000000000002
  0
LINE
  5
1B61
  8
0
  6
VERDECKT
 62
     1
 10
-34.4686451654237089
 20
0.1394491883962128
 30
0.0
 11
-34.8809734904588211
 21
4.8523835094578951
 31
-0.0000000000000011
210
0.0
220
1.0
230
-0.0000000000000002
  0
LINE
  5
1B62
  8
0
  6
VERDECKT
 62
     1
 10
34.4686451654237089
 20
0.139449188396263
 30
0.0
 11
34.8809734904588069
 21
4.8523835094579439
 31
-0.0000000000000011
210
0.0
220
1.0
230
-0.0000000000000002
  0
ARC
  5
1B63
  8
0
  6
VERDECKT
 62
     1
 10
29.8999999999486192
 20
5.2881622231984862
 30
0.0
 40
5.0000000000514708
210
0.0
220
-0.0000000000000002
230
-1.0
 50
355.0000000000251248
 51
359.9999999999733973
  0
ARC
  5
1B64
  8
0
  6
VERDECKT
 62
     1
 10
-29.8999999999486192
 20
5.288162223198535
 30
0.0
 40
5.0000000000514708
210
0.0
220
-0.0000000000000002
230
-1.0
 50
180.000000000026489
 51
184.9999999999747899
  0
LINE
  5
1B65
  8
0
  6
VERDECKT
 62
     1
 10
34.8999999999997996
 20
208.118553826003108
 30
-0.0000000000000462
 11
34.8999999999999275
 21
5.288162223196224
 31
-0.0000000000000012
210
0.0
220
1.0
230
-0.0000000000000002
  0
LINE
  5
1B66
  8
0
  6
VERDECKT
 62
     1
 10
-34.900000000000162
 20
208.118553826003108
 30
-0.0000000000000462
 11
-34.900000000000027
 21
5.288162223196168
 31
-0.0000000000000012
210
0.0
220
1.0
230
-0.0000000000000002
  0
ARC
  5
1B67
  8
0
  6
VERDECKT
 62
     1
 10
48.5000000000028066
 20
208.1185538260027101
 30
0.0
 40
13.60000000000284
210
0.0
220
-0.0000000000000002
230
-1.0
 50
166.8659776936046057
 51
179.9999999999984936
  0
ARC
  5
1B68
  8
0
  6
VERDECKT
 62
     1
 10
-48.5000000000027782
 20
208.1185538260027954
 30
0.0
 40
13.6000000000030408
210
0.0
220
-0.0000000000000002
230
-1.0
 50
0.0000000000014376
 51
13.1340223063953605
  0
LINE
  5
1B69
  8
0
  6
VERDECKT
 62
     1
 10
-35.2557595475116088
 20
211.2088765982504128
 30
-0.0000000000000469
 11
-38.4418540644130573
 21
224.8635673849701959
 31
-0.0000000000000499
210
0.0
220
1.0
230
-0.0000000000000002
  0
LINE
  5
1B6A
  8
0
  6
VERDECKT
 62
     1
 10
35.2557595475114027
 20
211.2088765982504981
 30
-0.0000000000000469
 11
38.4418540644128299
 21
224.8635673849703096
 31
-0.0000000000000499
210
0.0
220
1.0
230
-0.0000000000000002
  0
LINE
  5
1B6B
  8
0
  6
VERDECKT
 62
     1
 10
38.4418540644128086
 20
224.8635673849703096
 30
-0.0000000000000499
 11
39.9999999999997584
 21
224.5
 31
-0.0000000000000498
210
0.0
220
1.0
230
-0.0000000000000002
  0
LINE
  5
1B6C
  8
0
  6
VERDECKT
 62
     1
 10
-38.4418540644130715
 20
224.8635673849701959
 30
-0.0000000000000499
 11
-40.0
 21
224.5
 31
-0.0000000000000498
210
0.0
220
1.0
230
-0.0000000000000002
  0
LINE
  5
1B6D
  8
0
  6
VERDECKT
 62
     1
 10
38.6546544120071829
 20
225.9798801467919134
 30
-0.0000000000000502
 11
-38.6546544120074032
 21
225.9798801467919134
 31
-0.0000000000000502
210
0.0
220
1.0
230
-0.0000000000000002
  0
LINE
  5
1B6E
  8
0
  6
VERDECKT
 62
     1
 10
-53.894140263851817
 20
319.1547634765190082
 30
-0.0000000000000709
 11
53.8941402638515967
 21
319.1547634765190082
 31
-0.0000000000000709
210
0.0
220
1.0
230
-0.0000000000000002
  0
LINE
  5
1B6F
  8
0
  6
VERDECKT
 62
     1
 10
38.6546544120071616
 20
225.9798801467919134
 30
-0.0000000000000502
 11
39.9999999999997584
 21
224.5
 31
-0.0000000000000498
210
0.0
220
1.0
230
-0.0000000000000002
  0
LINE
  5
1B70
  8
0
  6
VERDECKT
 62
     1
 10
-38.6546544120073889
 20
225.9798801467919134
 30
-0.0000000000000502
 11
-39.9999999999999929
 21
224.5
 31
-0.0000000000000498
210
0.0
220
1.0
230
-0.0000000000000002
  0
LINE
  5
1B71
  8
0
  6
VERDECKT
 62
     1
 10
-49.0000000000000497
 20
241.5779181779174962
 30
-0.0000000000000536
 11
-49.0000000000000497
 21
243.9660074801321912
 31
-0.0000000000000542
210
0.0
220
1.0
230
-0.0000000000000002
  0
LINE
  5
1B72
  8
0
  6
VERDECKT
 62
     1
 10
48.9999999999998295
 20
241.5779181779174962
 30
-0.0000000000000536
 11
48.9999999999998295
 21
243.9660074801321912
 31
-0.0000000000000542
210
0.0
220
1.0
230
-0.0000000000000002
  0
ARC
  5
1B73
  8
0
  6
VERDECKT
 62
     1
 10
-34.9999999999997868
 20
241.5779181779178089
 30
0.0
 40
13.9999999999999591
210
0.0
220
-0.0000000000000002
230
-1.0
 50
180.0000000000009095
 51
227.7263109939038088
  0
ARC
  5
1B74
  8
0
  6
VERDECKT
 62
     1
 10
35.0000000000000213
 20
241.5779181779178089
 30
0.0
 40
13.9999999999999698
210
0.0
220
-0.0000000000000002
230
-1.0
 50
312.2736890060962196
 51
359.99999999999892
  0
LINE
  5
1B75
  8
0
  6
VERDECKT
 62
     1
 10
-38.6546544120074316
 20
225.9798801467917997
 30
-0.0000000000000502
 11
-44.4174191159488316
 21
231.2187571503748984
 31
-0.0000000000000513
210
0.0
220
1.0
230
-0.0000000000000002
  0
LINE
  5
1B76
  8
0
  6
VERDECKT
 62
     1
 10
38.6546544120072113
 20
225.9798801467917997
 30
-0.0000000000000502
 11
44.4174191159485972
 21
231.2187571503748984
 31
-0.0000000000000513
210
0.0
220
1.0
230
-0.0000000000000002
  0
ARC
  5
1B77
  8
0
  6
VERDECKT
 62
     1
 10
59.0000000000009024
 20
243.9660074801319922
 30
0.0
 40
10.0000000000007496
210
0.0
220
-0.0000000000000002
230
-1.0
 50
145.6988472432090873
 51
179.9999999999984936
  0
ARC
  5
1B78
  8
0
  6
VERDECKT
 62
     1
 10
-59.0000000000007319
 20
243.9660074801319922
 30
0.0
 40
10.00000000000081
210
0.0
220
-0.0000000000000002
230
-1.0
 50
0.0
 51
34.3011527567892216
  0
ARC
  5
1B79
  8
0
  6
VERDECKT
 62
     1
 10
39.9999999999999503
 20
256.9274888769480185
 30
0.0
 40
13.0000000000002007
210
0.0
220
-0.0000000000000002
230
-1.0
 50
325.6988472432091726
 51
359.9999999999997158
  0
ARC
  5
1B7A
  8
0
  6
VERDECKT
 62
     1
 10
-39.9999999999997868
 20
256.9274888769480185
 30
0.0
 40
13.0000000000001297
210
0.0
220
-0.0000000000000002
230
-1.0
 50
180.0
 51
214.301152756790799
  0
LINE
  5
1B7B
  8
0
  6
VERDECKT
 62
     1
 10
52.9999999999999076
 20
275.4997994693188161
 30
-0.0000000000000612
 11
52.9999999999999076
 21
256.9274888769480185
 31
-0.000000000000057
210
0.0
220
1.0
230
-0.0000000000000002
  0
LINE
  5
1B7C
  8
0
  6
VERDECKT
 62
     1
 10
-53.0000000000001421
 20
275.499799469318873
 30
-0.0000000000000612
 11
-53.0000000000001421
 21
256.9274888769480185
 31
-0.000000000000057
210
0.0
220
1.0
230
-0.0000000000000002
  0
ARC
  5
1B7D
  8
0
  6
VERDECKT
 62
     1
 10
66.9999999999994458
 20
275.4997994693189867
 30
0.0
 40
13.9999999999992895
210
0.0
220
-0.0000000000000002
230
-1.0
 50
153.1119523822758879
 51
180.0000000000003979
  0
ARC
  5
1B7E
  8
0
  6
VERDECKT
 62
     1
 10
-66.9999999999993463
 20
275.499799469318873
 30
0.0
 40
13.9999999999994191
210
0.0
220
-0.0000000000000002
230
-1.0
 50
359.9999999999997158
 51
26.8880476177240411
  0
ARC
  5
1B7F
  8
0
  6
VERDECKT
 62
     1
 10
34.0000000000004619
 20
292.2330000000001746
 30
0.0
 40
22.9999999999996696
210
0.0
220
-0.0000000000000002
230
-1.0
 50
333.1119523822753763
 51
0.0000000000002799
  0
ARC
  5
1B80
  8
0
  6
VERDECKT
 62
     1
 10
-33.9999999999998721
 20
292.2330000000002883
 30
0.0
 40
23.0000000000000497
210
0.0
220
-0.0000000000000002
230
-1.0
 50
179.999999999999801
 51
206.8880476177243963
  0
LINE
  5
1B81
  8
0
  6
VERDECKT
 62
     1
 10
56.9999999999999218
 20
307.3952485374293815
 30
-0.0000000000000683
 11
56.9999999999999218
 21
292.233000000000402
 31
-0.0000000000000649
210
0.0
220
1.0
230
-0.0000000000000002
  0
LINE
  5
1B82
  8
0
  6
VERDECKT
 62
     1
 10
-57.0000000000001421
 20
307.3952485374293246
 30
-0.0000000000000683
 11
-57.0000000000001421
 21
292.233000000000402
 31
-0.0000000000000649
210
0.0
220
1.0
230
-0.0000000000000002
  0
ARC
  5
1B83
  8
0
  6
VERDECKT
 62
     1
 10
33.9999999999993605
 20
307.395248537429211
 30
0.0
 40
23.0000000000007816
210
0.0
220
-0.0000000000000002
230
-1.0
 50
0.0000000000002926
 51
24.9999999999995985
  0
ARC
  5
1B84
  8
0
  6
VERDECKT
 62
     1
 10
-33.9999999999991331
 20
307.395248537429211
 30
0.0
 40
23.0000000000007709
210
0.0
220
-0.0000000000000002
230
-1.0
 50
155.0000000000003979
 51
179.9999999999996874
  0
LINE
  5
1B85
  8
0
  6
VERDECKT
 62
     1
 10
53.8941402638516109
 20
319.1547634765190082
 30
-0.0000000000000709
 11
54.845079101842849
 21
317.1154685574654764
 31
-0.0000000000000704
210
0.0
220
1.0
230
-0.0000000000000002
  0
LINE
  5
1B86
  8
0
  6
VERDECKT
 62
     1
 10
-53.8941402638518525
 20
319.1547634765190082
 30
-0.0000000000000709
 11
-54.8450791018430834
 21
317.1154685574654764
 31
-0.0000000000000704
210
0.0
220
1.0
230
-0.0000000000000002
  0
LINE
  5
1B87
  8
0
  6
VERDECKT
 62
     1
 10
-53.894140263851817
 20
319.1547634765190082
 30
-0.0000000000000709
 11
-55.7067558379251579
 21
320.0000000000003979
 31
-0.0000000000000711
210
0.0
220
1.0
230
-0.0000000000000002
  0
LINE
  5
1B88
  8
0
  6
VERDECKT
 62
     1
 10
53.8941402638515967
 20
319.1547634765190082
 30
-0.0000000000000709
 11
55.7067558379249306
 21
320.0000000000003979
 31
-0.0000000000000711
210
0.0
220
1.0
230
-0.0000000000000002
  0
ENDBLK
  5
1B8A
  8
0
  0
ENDSEC
  0
SECTION
  2
ENTITIES
  0
TEXT
  5
4A6
  8
VOLL
 10
624.2181993280528332
 20
153.5301393177705052
 30
0.0
 40
1.8
  1

  7
GREEKS
  0
TEXT
  5
4A7
  8
VOLL
 10
713.8843732537259257
 20
158.8222560334897935
 30
0.0
 40
1.8
  1

  7
GREEKS
  0
TEXT
  5
4A8
  8
TEXT
 10
1045.7166414573189286
 20
164.3804915667153921
 30
0.0
 40
2.5
  1
  
  7
GREEKS
 72
     1
 11
1047.978546219223972
 21
164.3804915667153921
 31
0.0
  0
TEXT
  5
4A9
  8
BEM
 10
1289.8363587698011088
 20
299.9393735971175943
 30
0.0
 40
2.5
  1
 
 72
     4
 11
1290.9673111507529484
 21
299.9393735971175943
 31
0.0
  0
TEXT
  5
4AB
  8
BEM
 10
855.5257028996504687
 20
182.4589702246512104
 30
0.0
 40
2.5
  1

  7
GREEKS
  0
TEXT
  5
4AC
  8
VOLL
 10
841.4595098799289872
 20
162.2757095676161043
 30
0.0
 40
1.8
  1

  7
GREEKS
  0
TEXT
  5
4AD
  8
BEM
 10
875.9475747192136623
 20
167.0014338908366938
 30
0.0
 40
2.5
  1

 41
0.8
  7
GREEKS
  0
TEXT
  5
4AE
  8
BEM
 10
875.9475747192136623
 20
162.307665336784595
 30
0.0
 40
2.5
  1

 41
0.8
  7
GREEKS
  0
TEXT
  5
4AF
  8
BEM
 10
875.9475747192136623
 20
157.0698215181211026
 30
0.0
 40
2.5
  1

 41
0.8
  7
GREEKS
  0
TEXT
  5
4B0
  8
BEM
 10
875.8746302418392133
 20
152.5646325680233986
 30
0.0
 40
1.8
  1

 41
0.8
  7
GREEKS
  0
TEXT
  5
4B1
  8
BEM
 10
863.1910593622280885
 20
178.1562216642487044
 30
0.0
 40
2.0
  1

 41
0.8
  7
GREEKS
 72
     1
 11
863.1910593622280885
 21
178.1562216642487044
 31
0.0
  0
TEXT
  5
4B2
  8
TEXT
 10
1173.2917780835221038
 20
167.8339451008417029
 30
0.0
 40
2.5
  1
  
  7
GREEKS
 72
     1
 11
1175.5536828454260103
 21
167.8339451008417029
 31
0.0
  0
TEXT
  5
4B3
  8
BEM
 10
1417.4114953960040566
 20
303.3928271312439051
 30
0.0
 40
2.5
  1
 
 72
     4
 11
1418.5424477769558962
 21
303.3928271312439051
 31
0.0
  0
TEXT
  5
4B4
  8
VOLL
 10
766.1762742752141548
 20
169.7272236296053052
 30
0.0
 40
1.8
  1

  7
GREEKS
  0
TEXT
  5
4B5
  8
TEXT
 10
1098.0085424788069304
 20
175.2854591628307901
 30
0.0
 40
2.5
  1
  
  7
GREEKS
 72
     1
 11
1100.2704472407119738
 21
175.2854591628307901
 31
0.0
  0
TEXT
  5
4B6
  8
BEM
 10
1342.1282597912891106
 20
310.844341193233106
 30
0.0
 40
2.5
  1
 
 72
     4
 11
1343.2592121722409502
 21
310.844341193233106
 31
0.0
  0
TEXT
  5
4B7
  8
BEM
 10
921.3158764320099863
 20
190.0606345192817912
 30
0.0
 40
2.5
  1

  7
GREEKS
  0
TEXT
  5
4B8
  8
VOLL
 10
907.2496834122887321
 20
169.8773738622467135
 30
0.0
 40
1.8
  1

  7
GREEKS
  0
TEXT
  5
4B9
  8
BEM
 10
941.7377482515731799
 20
174.603098185467303
 30
0.0
 40
2.5
  1

 41
0.8
  7
GREEKS
  0
TEXT
  5
4BA
  8
BEM
 10
941.7377482515731799
 20
169.9093296314152042
 30
0.0
 40
2.5
  1

 41
0.8
  7
GREEKS
  0
TEXT
  5
4BB
  8
BEM
 10
941.7377482515731799
 20
164.6714858127515981
 30
0.0
 40
2.5
  1

 41
0.8
  7
GREEKS
  0
TEXT
  5
4BC
  8
BEM
 10
941.6648037741988446
 20
160.1662968626540078
 30
0.0
 40
1.8
  1

 41
0.8
  7
GREEKS
  0
TEXT
  5
4BD
  8
BEM
 10
928.9812328945878335
 20
185.7578859588793136
 30
0.0
 40
2.0
  1

 41
0.8
  7
GREEKS
 72
     1
 11
928.9812328945878335
 21
185.7578859588793136
 31
0.0
  0
TEXT
  5
4BE
  8
TEXT
 10
1239.0819516158810529
 20
175.4356093954723121
 30
0.0
 40
2.5
  1
  
  7
GREEKS
 72
     1
 11
1241.3438563777860963
 21
175.4356093954723121
 31
0.0
  0
TEXT
  5
4BF
  8
BEM
 10
1483.2016689283639153
 20
310.9944914258745143
 30
0.0
 40
2.5
  1
 
 72
     4
 11
1484.3326213093159822
 21
310.9944914258745143
 31
0.0
  0
TEXT
  5
4C0
  8
VOLL
 10
702.1540628484577837
 20
157.9115141038568026
 30
0.0
 40
1.8
  1

  7
GREEKS
  0
TEXT
  5
4C1
  8
TEXT
 10
1033.9863310520499908
 20
163.4697496370822876
 30
0.0
 40
2.5
  1
  
  7
GREEKS
 72
     1
 11
1036.2482358139550342
 21
163.4697496370822876
 31
0.0
  0
TEXT
  5
4C2
  8
BEM
 10
1278.1060483645330805
 20
299.0286316674846034
 30
0.0
 40
2.5
  1
 
 72
     4
 11
1279.2370007454849201
 21
299.0286316674846034
 31
0.0
  0
TEXT
  5
4C3
  8
BEM
 10
867.4996759281076493
 20
198.0647448024423909
 30
0.0
 40
2.5
  1

  7
GREEKS
  0
TEXT
  5
4C4
  8
VOLL
 10
853.4334829083861678
 20
177.8814841454073132
 30
0.0
 40
1.8
  1

  7
GREEKS
  0
TEXT
  5
4C5
  8
BEM
 10
887.9215477476709566
 20
182.6072084686279027
 30
0.0
 40
2.5
  1

 41
0.8
  7
GREEKS
  0
TEXT
  5
4C6
  8
BEM
 10
887.9215477476709566
 20
177.9134399145758039
 30
0.0
 40
2.5
  1

 41
0.8
  7
GREEKS
  0
TEXT
  5
4C7
  8
BEM
 10
887.9215477476709566
 20
172.6755960959121978
 30
0.0
 40
2.5
  1

 41
0.8
  7
GREEKS
  0
TEXT
  5
4C8
  8
BEM
 10
887.8486032702963939
 20
168.1704071458146075
 30
0.0
 40
1.8
  1

 41
0.8
  7
GREEKS
  0
TEXT
  5
4C9
  8
BEM
 10
875.1650323906852691
 20
193.7619962420399133
 30
0.0
 40
2.0
  1

 41
0.8
  7
GREEKS
 72
     1
 11
875.1650323906852691
 21
193.7619962420399133
 31
0.0
  0
TEXT
  5
4CA
  8
TEXT
 10
1185.2657511119789433
 20
183.4397196786327981
 30
0.0
 40
2.5
  1
  
  7
GREEKS
 72
     1
 11
1187.5276558738839867
 21
183.4397196786327981
 31
0.0
  0
TEXT
  5
4CB
  8
BEM
 10
1429.3854684244608961
 20
318.9986017090351993
 30
0.0
 40
2.5
  1
 
 72
     4
 11
1430.5164208054129631
 21
318.9986017090351993
 31
0.0
  0
TEXT
  5
4CC
  8
VOLL
 10
1029.7356391015689496
 20
163.029957481359304
 30
0.0
 40
1.8
  1

  7
GREEKS
  0
TEXT
  5
4CD
  8
VOLL
 10
1119.4018130272420422
 20
168.3220741970785923
 30
0.0
 40
1.8
  1

  7
GREEKS
  0
TEXT
  5
4CE
  8
TEXT
 10
1451.2340812308350451
 20
173.8803097303041909
 30
0.0
 40
2.5
  1
  
  7
GREEKS
 72
     1
 11
1453.4959859927400885
 21
173.8803097303041909
 31
0.0
  0
TEXT
  5
4CF
  8
BEM
 10
1695.3537985433169979
 20
309.4391917607064215
 30
0.0
 40
2.5
  1
 
 72
     4
 11
1696.4847509242690649
 21
309.4391917607064215
 31
0.0
  0
TEXT
  5
4D0
  8
BEM
 10
1261.043142673165903
 20
191.9587883882400092
 30
0.0
 40
2.5
  1

  7
GREEKS
  0
TEXT
  5
4D1
  8
VOLL
 10
1246.97694965344499
 20
171.7755277312049031
 30
0.0
 40
1.8
  1

  7
GREEKS
  0
TEXT
  5
4D2
  8
BEM
 10
1281.4650144927300062
 20
176.5012520544254926
 30
0.0
 40
2.5
  1

 41
0.8
  7
GREEKS
  0
TEXT
  5
4D3
  8
BEM
 10
1281.4650144927300062
 20
171.8074835003733085
 30
0.0
 40
2.5
  1

 41
0.8
  7
GREEKS
  0
TEXT
  5
4D4
  8
BEM
 10
1281.4650144927300062
 20
166.5696396817097877
 30
0.0
 40
2.5
  1

 41
0.8
  7
GREEKS
  0
TEXT
  5
4D5
  8
BEM
 10
1281.3920700153551024
 20
162.0644507316121974
 30
0.0
 40
1.8
  1

 41
0.8
  7
GREEKS
  0
TEXT
  5
4D6
  8
BEM
 10
1268.7084991357439776
 20
187.6560398278375033
 30
0.0
 40
2.0
  1

 41
0.8
  7
GREEKS
 72
     1
 11
1268.7084991357439776
 21
187.6560398278375033
 31
0.0
  0
TEXT
  5
4D7
  8
TEXT
 10
1578.8092178570379929
 20
177.3337632644303881
 30
0.0
 40
2.5
  1
  
  7
GREEKS
 72
     1
 11
1581.0711226189430363
 21
177.3337632644303881
 31
0.0
  0
TEXT
  5
4D8
  8
BEM
 10
1822.9289351695210826
 20
312.8926452948326755
 30
0.0
 40
2.5
  1
 
 72
     4
 11
1824.0598875504729222
 21
312.8926452948326755
 31
0.0
  0
TEXT
  5
4D9
  8
VOLL
 10
1037.6489537933518932
 20
140.0808845888587086
 30
0.0
 40
1.8
  1

  7
GREEKS
  0
TEXT
  5
4DA
  8
VOLL
 10
1127.3151277190249857
 20
145.3730013045781106
 30
0.0
 40
1.8
  1

  7
GREEKS
  0
TEXT
  5
4DB
  8
TEXT
 10
1459.1473959226179886
 20
150.9312368378035956
 30
0.0
 40
2.5
  1
  
  7
GREEKS
 72
     1
 11
1461.409300684523032
 21
150.9312368378035956
 31
0.0
  0
TEXT
  5
4DC
  8
BEM
 10
1703.2671132350999414
 20
286.4901188682059114
 30
0.0
 40
2.5
  1
 
 72
     4
 11
1704.3980656160529179
 21
286.4901188682059114
 31
0.0
  0
TEXT
  5
4DD
  8
BEM
 10
1268.9564573649499835
 20
169.0097154957394991
 30
0.0
 40
2.5
  1

  7
GREEKS
  0
TEXT
  5
4DE
  8
VOLL
 10
1254.8902643452290704
 20
148.8264548387043931
 30
0.0
 40
1.8
  1

  7
GREEKS
  0
TEXT
  5
4DF
  8
BEM
 10
1289.3783291845129497
 20
153.5521791619250109
 30
0.0
 40
2.5
  1

 41
0.8
  7
GREEKS
  0
TEXT
  5
4E0
  8
BEM
 10
1289.3783291845129497
 20
148.8584106078727984
 30
0.0
 40
2.5
  1

 41
0.8
  7
GREEKS
  0
TEXT
  5
4E1
  8
BEM
 10
1289.3783291845129497
 20
143.6205667892093061
 30
0.0
 40
2.5
  1

 41
0.8
  7
GREEKS
  0
TEXT
  5
4E2
  8
BEM
 10
1289.305384707138046
 20
139.1153778391116873
 30
0.0
 40
1.8
  1

 41
0.8
  7
GREEKS
  0
TEXT
  5
4E3
  8
BEM
 10
1276.6218138275269212
 20
164.7069669353369932
 30
0.0
 40
2.0
  1

 41
0.8
  7
GREEKS
 72
     1
 11
1276.6218138275269212
 21
164.7069669353369932
 31
0.0
  0
TEXT
  5
4E4
  8
TEXT
 10
1586.7225325488209364
 20
154.3846903719299064
 30
0.0
 40
2.5
  1
  
  7
GREEKS
 72
     1
 11
1588.9844373107259798
 21
154.3846903719299064
 31
0.0
  0
TEXT
  5
4E5
  8
BEM
 10
1830.8422498613028893
 20
289.9435724023322223
 30
0.0
 40
2.5
  1
 
 72
     4
 11
1831.9732022422560931
 21
289.9435724023322223
 31
0.0
  0
TEXT
  5
4E6
  8
VOLL
 10
1179.6070287405129875
 20
156.2779689006935087
 30
0.0
 40
1.8
  1

  7
GREEKS
  0
TEXT
  5
4E7
  8
TEXT
 10
1511.4392969441068999
 20
161.8362044339191073
 30
0.0
 40
2.5
  1
  
  7
GREEKS
 72
     1
 11
1513.7012017060110338
 21
161.8362044339191073
 31
0.0
  0
TEXT
  5
4E8
  8
BEM
 10
1755.5590142565890801
 20
297.3950864643213094
 30
0.0
 40
2.5
  1
 
 72
     4
 11
1756.6899666375409197
 21
297.3950864643213094
 31
0.0
  0
TEXT
  5
4E9
  8
BEM
 10
1334.7466308973100695
 20
176.6113797903701084
 30
0.0
 40
2.5
  1

  7
GREEKS
  0
TEXT
  5
4EA
  8
VOLL
 10
1320.6804378775880195
 20
156.4281191333350023
 30
0.0
 40
1.8
  1

  7
GREEKS
  0
TEXT
  5
4EB
  8
BEM
 10
1355.1685027168730358
 20
161.1538434565555917
 30
0.0
 40
2.5
  1

 41
0.8
  7
GREEKS
  0
TEXT
  5
4EC
  8
BEM
 10
1355.1685027168730358
 20
156.4600749025034077
 30
0.0
 40
2.5
  1

 41
0.8
  7
GREEKS
  0
TEXT
  5
4ED
  8
BEM
 10
1355.1685027168730358
 20
151.2222310838398869
 30
0.0
 40
2.5
  1

 41
0.8
  7
GREEKS
  0
TEXT
  5
4EE
  8
BEM
 10
1355.0955582394979047
 20
146.7170421337422965
 30
0.0
 40
1.8
  1

 41
0.8
  7
GREEKS
  0
TEXT
  5
4EF
  8
BEM
 10
1342.4119873598870072
 20
172.3086312299676024
 30
0.0
 40
2.0
  1

 41
0.8
  7
GREEKS
 72
     1
 11
1342.4119873598870072
 21
172.3086312299676024
 31
0.0
  0
TEXT
  5
4F0
  8
TEXT
 10
1652.5127060811810225
 20
161.9863546665604872
 30
0.0
 40
2.5
  1
  
  7
GREEKS
 72
     1
 11
1654.7746108430860659
 21
161.9863546665604872
 31
0.0
  0
TEXT
  5
4F1
  8
BEM
 10
1896.6324233936629753
 20
297.5452366969627178
 30
0.0
 40
2.5
  1
 
 72
     4
 11
1897.7633757746159517
 21
297.5452366969627178
 31
0.0
  0
TEXT
  5
4F2
  8
VOLL
 10
810.2241690536294527
 20
350.9401983804995098
 30
0.0
 40
1.8
  1

  7
GREEKS
  0
TEXT
  5
4F3
  8
VOLL
 10
899.8903429793025452
 20
356.2323150962188265
 30
0.0
 40
1.8
  1

  7
GREEKS
  0
TEXT
  5
4F4
  8
TEXT
 10
1231.7226111828958892
 20
361.7905506294443967
 30
0.0
 40
2.5
  1
  
  7
GREEKS
 72
     1
 11
1233.9845159448000231
 21
361.7905506294443967
 31
0.0
  0
TEXT
  5
4F5
  8
BEM
 10
1475.8423284953780694
 20
497.3494326598465136
 30
0.0
 40
2.5
  1
 
 72
     4
 11
1476.973280876329909
 21
497.3494326598465136
 31
0.0
  0
TEXT
  5
4F6
  8
BEM
 10
1041.5316726252269746
 20
379.869029287380215
 30
0.0
 40
2.5
  1

  7
GREEKS
  0
TEXT
  5
4F7
  8
VOLL
 10
1027.4654796055060615
 20
359.6857686303450805
 30
0.0
 40
1.8
  1

  7
GREEKS
  0
TEXT
  5
4F8
  8
BEM
 10
1061.9535444447899408
 20
364.4114929535655847
 30
0.0
 40
2.5
  1

 41
0.8
  7
GREEKS
  0
TEXT
  5
4F9
  8
BEM
 10
1061.9535444447899408
 20
359.7177243995134859
 30
0.0
 40
2.5
  1

 41
0.8
  7
GREEKS
  0
TEXT
  5
4FA
  8
BEM
 10
1061.9535444447899408
 20
354.4798805808500219
 30
0.0
 40
2.5
  1

 41
0.8
  7
GREEKS
  0
TEXT
  5
4FB
  8
BEM
 10
1061.8805999674159466
 20
349.9746916307523747
 30
0.0
 40
1.8
  1

 41
0.8
  7
GREEKS
  0
TEXT
  5
4FC
  8
BEM
 10
1049.1970290878050491
 20
375.5662807269775954
 30
0.0
 40
2.0
  1

 41
0.8
  7
GREEKS
 72
     1
 11
1049.1970290878050491
 21
375.5662807269775954
 31
0.0
  0
TEXT
  5
4FD
  8
TEXT
 10
1359.2977478090990644
 20
365.2440041635705938
 30
0.0
 40
2.5
  1
  
  7
GREEKS
 72
     1
 11
1361.5596525710029709
 21
365.2440041635705938
 31
0.0
  0
TEXT
  5
4FE
  8
BEM
 10
1603.4174651215801077
 20
500.8028861939727108
 30
0.0
 40
2.5
  1
 
 72
     4
 11
1604.5484175025330842
 21
500.8028861939727108
 31
0.0
  0
TEXT
  5
4FF
  8
VOLL
 10
952.1822440007908881
 20
367.1372826923342245
 30
0.0
 40
1.8
  1

  7
GREEKS
  0
TEXT
  5
500
  8
TEXT
 10
1284.014512204383891
 20
372.695518225559681
 30
0.0
 40
2.5
  1
  
  7
GREEKS
 72
     1
 11
1286.2764169662889344
 21
372.695518225559681
 31
0.0
  0
TEXT
  5
501
  8
BEM
 10
1528.1342295168660712
 20
508.2544002559619116
 30
0.0
 40
2.5
  1
 
 72
     4
 11
1529.2651818978179108
 21
508.2544002559619116
 31
0.0
  0
TEXT
  5
502
  8
BEM
 10
1107.3218461575870606
 20
387.4706935820108242
 30
0.0
 40
2.5
  1

  7
GREEKS
  0
TEXT
  5
503
  8
VOLL
 10
1093.2556531378650106
 20
367.287432924975576
 30
0.0
 40
1.8
  1

  7
GREEKS
  0
TEXT
  5
504
  8
BEM
 10
1127.7437179771500269
 20
372.0131572481963076
 30
0.0
 40
2.5
  1

 41
0.8
  7
GREEKS
  0
TEXT
  5
505
  8
BEM
 10
1127.7437179771500269
 20
367.3193886941440951
 30
0.0
 40
2.5
  1

 41
0.8
  7
GREEKS
  0
TEXT
  5
506
  8
BEM
 10
1127.7437179771500269
 20
362.0815448754805743
 30
0.0
 40
2.5
  1

 41
0.8
  7
GREEKS
  0
TEXT
  5
507
  8
BEM
 10
1127.6707734997748958
 20
357.576355925382984
 30
0.0
 40
1.8
  1

 41
0.8
  7
GREEKS
  0
TEXT
  5
508
  8
BEM
 10
1114.9872026201639983
 20
383.1679450216082046
 30
0.0
 40
2.0
  1

 41
0.8
  7
GREEKS
 72
     1
 11
1114.9872026201639983
 21
383.1679450216082046
 31
0.0
  0
TEXT
  5
509
  8
TEXT
 10
1425.0879213414580136
 20
372.8456684582012031
 30
0.0
 40
2.5
  1
  
  7
GREEKS
 72
     1
 11
1427.349826103363057
 21
372.8456684582012031
 31
0.0
  0
TEXT
  5
50A
  8
BEM
 10
1669.2076386539399664
 20
508.4045504886033768
 30
0.0
 40
2.5
  1
 
 72
     4
 11
1670.3385910348929428
 21
508.4045504886033768
 31
0.0
  0
TEXT
  5
50B
  8
VOLL
 10
888.160032574034517
 20
355.321573166585722
 30
0.0
 40
1.8
  1

  7
GREEKS
  0
TEXT
  5
50C
  8
TEXT
 10
1219.9923007776269515
 20
360.8798086998111785
 30
0.0
 40
2.5
  1
  
  7
GREEKS
 72
     1
 11
1222.2542055395319949
 21
360.8798086998111785
 31
0.0
  0
TEXT
  5
50D
  8
BEM
 10
1464.1120180901089043
 20
496.4386907302134091
 30
0.0
 40
2.5
  1
 
 72
     4
 11
1465.2429704710621081
 21
496.4386907302134091
 31
0.0
  0
TEXT
  5
50E
  8
BEM
 10
1053.5056456536840415
 20
395.4748038651713955
 30
0.0
 40
2.5
  1

  7
GREEKS
  0
TEXT
  5
50F
  8
VOLL
 10
1039.439452633962901
 20
375.2915432081362042
 30
0.0
 40
1.8
  1

  7
GREEKS
  0
TEXT
  5
510
  8
BEM
 10
1073.9275174732470077
 20
380.017267531356822
 30
0.0
 40
2.5
  1

 41
0.8
  7
GREEKS
  0
TEXT
  5
511
  8
BEM
 10
1073.9275174732470077
 20
375.3234989773047232
 30
0.0
 40
2.5
  1

 41
0.8
  7
GREEKS
  0
TEXT
  5
512
  8
BEM
 10
1073.9275174732470077
 20
370.0856551586412024
 30
0.0
 40
2.5
  1

 41
0.8
  7
GREEKS
  0
TEXT
  5
513
  8
BEM
 10
1073.8545729958730135
 20
365.5804662085436121
 30
0.0
 40
1.8
  1

 41
0.8
  7
GREEKS
  0
TEXT
  5
514
  8
BEM
 10
1061.1710021162618887
 20
391.1720553047688895
 30
0.0
 40
2.0
  1

 41
0.8
  7
GREEKS
 72
     1
 11
1061.1710021162618887
 21
391.1720553047688895
 31
0.0
  0
TEXT
  5
515
  8
TEXT
 10
1371.2717208375559039
 20
380.8497787413617743
 30
0.0
 40
2.5
  1
  
  7
GREEKS
 72
     1
 11
1373.5336255994609473
 21
380.8497787413617743
 31
0.0
  0
TEXT
  5
516
  8
BEM
 10
1615.3914381500380841
 20
516.4086607717639481
 30
0.0
 40
2.5
  1
 
 72
     4
 11
1616.5223905309899237
 21
516.4086607717639481
 31
0.0
  0
TEXT
  5
517
  8
VOLL
 10
816.6255219861702699
 20
329.2841013719354919
 30
0.0
 40
1.8
  1

  7
GREEKS
  0
TEXT
  5
518
  8
VOLL
 10
906.2916959118432487
 20
334.5762180876548086
 30
0.0
 40
1.8
  1

  7
GREEKS
  0
TEXT
  5
519
  8
TEXT
 10
1238.1239641154359106
 20
340.1344536208803788
 30
0.0
 40
2.5
  1
  
  7
GREEKS
 72
     1
 11
1240.385868877340954
 21
340.1344536208803788
 31
0.0
  0
TEXT
  5
51A
  8
BEM
 10
1482.2436814279180908
 20
475.6933356512824957
 30
0.0
 40
2.5
  1
 
 72
     4
 11
1483.3746338088699304
 21
475.6933356512824957
 31
0.0
  0
TEXT
  5
51B
  8
BEM
 10
1047.9330255577679054
 20
358.2129322788161971
 30
0.0
 40
2.5
  1

  7
GREEKS
  0
TEXT
  5
51C
  8
VOLL
 10
1033.8668325380460828
 20
338.0296716217811195
 30
0.0
 40
1.8
  1

  7
GREEKS
  0
TEXT
  5
51D
  8
BEM
 10
1068.3548973773310991
 20
342.7553959450016805
 30
0.0
 40
2.5
  1

 41
0.8
  7
GREEKS
  0
TEXT
  5
51E
  8
BEM
 10
1068.3548973773310991
 20
338.0616273909495817
 30
0.0
 40
2.5
  1

 41
0.8
  7
GREEKS
  0
TEXT
  5
51F
  8
BEM
 10
1068.3548973773310991
 20
332.8237835722861178
 30
0.0
 40
2.5
  1

 41
0.8
  7
GREEKS
  0
TEXT
  5
520
  8
BEM
 10
1068.281952899955968
 20
328.3185946221884137
 30
0.0
 40
1.8
  1

 41
0.8
  7
GREEKS
  0
TEXT
  5
521
  8
BEM
 10
1055.5983820203450705
 20
353.9101837184136912
 30
0.0
 40
2.0
  1

 41
0.8
  7
GREEKS
 72
     1
 11
1055.5983820203450705
 21
353.9101837184136912
 31
0.0
  0
TEXT
  5
522
  8
TEXT
 10
1365.6991007416390858
 20
343.587907155006576
 30
0.0
 40
2.5
  1
  
  7
GREEKS
 72
     1
 11
1367.9610055035439018
 21
343.587907155006576
 31
0.0
  0
TEXT
  5
523
  8
BEM
 10
1609.8188180541210386
 20
479.1467891854089203
 30
0.0
 40
2.5
  1
 
 72
     4
 11
1610.9497704350731055
 21
479.1467891854089203
 31
0.0
  0
TEXT
  5
524
  8
VOLL
 10
958.5835969333314779
 20
345.4811856837702067
 30
0.0
 40
1.8
  1

  7
GREEKS
  0
TEXT
  5
525
  8
TEXT
 10
1290.4158651369239124
 20
351.0394212169957768
 30
0.0
 40
2.5
  1
  
  7
GREEKS
 72
     1
 11
1292.6777698988289558
 21
351.0394212169957768
 31
0.0
  0
TEXT
  5
526
  8
BEM
 10
1534.5355824494060926
 20
486.5983032473978938
 30
0.0
 40
2.5
  1
 
 72
     4
 11
1535.666534830359069
 21
486.5983032473978938
 31
0.0
  0
TEXT
  5
527
  8
BEM
 10
1113.7231990901270819
 20
365.8145965734468064
 30
0.0
 40
2.5
  1

  7
GREEKS
  0
TEXT
  5
528
  8
VOLL
 10
1099.6570060704059415
 20
345.6313359164116719
 30
0.0
 40
1.8
  1

  7
GREEKS
  0
TEXT
  5
529
  8
BEM
 10
1134.1450709096900482
 20
350.3570602396322897
 30
0.0
 40
2.5
  1

 41
0.8
  7
GREEKS
  0
TEXT
  5
52A
  8
BEM
 10
1134.1450709096900482
 20
345.6632916855800772
 30
0.0
 40
2.5
  1

 41
0.8
  7
GREEKS
  0
TEXT
  5
52B
  8
BEM
 10
1134.1450709096900482
 20
340.4254478669166133
 30
0.0
 40
2.5
  1

 41
0.8
  7
GREEKS
  0
TEXT
  5
52C
  8
BEM
 10
1134.072126432316054
 20
335.9202589168190229
 30
0.0
 40
1.8
  1

 41
0.8
  7
GREEKS
  0
TEXT
  5
52D
  8
BEM
 10
1121.3885555527049291
 20
361.5118480130443004
 30
0.0
 40
2.0
  1

 41
0.8
  7
GREEKS
 72
     1
 11
1121.3885555527049291
 21
361.5118480130443004
 31
0.0
  0
TEXT
  5
52E
  8
TEXT
 10
1431.4892742739989444
 20
351.1895714496371852
 30
0.0
 40
2.5
  1
  
  7
GREEKS
 72
     1
 11
1433.7511790359039878
 21
351.1895714496371852
 31
0.0
  0
TEXT
  5
52F
  8
BEM
 10
1675.6089915864808972
 20
486.7484534800394727
 30
0.0
 40
2.5
  1
 
 72
     4
 11
1676.7399439674329642
 21
486.7484534800394727
 31
0.0
  0
TEXT
  5
530
  8
VOLL
 10
894.5613855065753341
 20
333.6654761580217041
 30
0.0
 40
1.8
  1

  7
GREEKS
  0
TEXT
  5
531
  8
TEXT
 10
1226.3936537101681097
 20
339.2237116912472743
 30
0.0
 40
2.5
  1
  
  7
GREEKS
 72
     1
 11
1228.6555584720729257
 21
339.2237116912472743
 31
0.0
  0
TEXT
  5
532
  8
BEM
 10
1470.5133710226500625
 20
474.7825937216495049
 30
0.0
 40
2.5
  1
 
 72
     4
 11
1471.6443234036019021
 21
474.7825937216495049
 31
0.0
  0
TEXT
  5
533
  8
BEM
 10
1059.9069985862249723
 20
373.8187068566073776
 30
0.0
 40
2.5
  1

  7
GREEKS
  0
TEXT
  5
534
  8
VOLL
 10
1045.8408055665029224
 20
353.6354461995723
 30
0.0
 40
1.8
  1

  7
GREEKS
  0
TEXT
  5
535
  8
BEM
 10
1080.3288704057879386
 20
358.3611705227929178
 30
0.0
 40
2.5
  1

 41
0.8
  7
GREEKS
  0
TEXT
  5
536
  8
BEM
 10
1080.3288704057879386
 20
353.667401968740819
 30
0.0
 40
2.5
  1

 41
0.8
  7
GREEKS
  0
TEXT
  5
537
  8
BEM
 10
1080.3288704057879386
 20
348.4295581500771846
 30
0.0
 40
2.5
  1

 41
0.8
  7
GREEKS
  0
TEXT
  5
538
  8
BEM
 10
1080.2559259284139443
 20
343.9243691999795942
 30
0.0
 40
1.8
  1

 41
0.8
  7
GREEKS
  0
TEXT
  5
539
  8
BEM
 10
1067.57235504880191
 20
369.5159582962048717
 30
0.0
 40
2.0
  1

 41
0.8
  7
GREEKS
 72
     1
 11
1067.57235504880191
 21
369.5159582962048717
 31
0.0
  0
TEXT
  5
53A
  8
TEXT
 10
1377.6730737700959253
 20
359.193681732797927
 30
0.0
 40
2.5
  1
  
  7
GREEKS
 72
     1
 11
1379.9349785320009687
 21
359.193681732797927
 31
0.0
  0
TEXT
  5
53B
  8
BEM
 10
1621.792791082579015
 20
494.7525637632001008
 30
0.0
 40
2.5
  1
 
 72
     4
 11
1622.9237434635310819
 21
494.7525637632001008
 31
0.0
  0
TEXT
  5
53C
  8
VOLL
 10
1172.9625243623208917
 20
314.07488642498339
 30
0.0
 40
1.8
  1

  7
GREEKS
  0
TEXT
  5
53D
  8
TEXT
 10
1504.7947925659138946
 20
319.6331219582090171
 30
0.0
 40
2.5
  1
  
  7
GREEKS
 72
     1
 11
1507.056697327818938
 21
319.6331219582090171
 31
0.0
  0
TEXT
  5
53E
  8
BEM
 10
1748.9145098783969843
 20
455.1920039886111908
 30
0.0
 40
2.5
  1
 
 72
     4
 11
1750.0454622593490512
 21
455.1920039886111908
 31
0.0
  0
TEXT
  5
53F
  8
VOLL
 10
1330.4972414394831048
 20
319.6304420600545768
 30
0.0
 40
1.8
  1

  7
GREEKS
  0
TEXT
  5
540
  8
BEM
 10
1364.9853062787678937
 20
324.3561663832751947
 30
0.0
 40
2.5
  1

 41
0.8
  7
GREEKS
  0
TEXT
  5
541
  8
BEM
 10
1364.9853062787678937
 20
319.6623978292230959
 30
0.0
 40
2.5
  1

 41
0.8
  7
GREEKS
  0
TEXT
  5
542
  8
BEM
 10
1364.9853062787678937
 20
314.4245540105595751
 30
0.0
 40
2.5
  1

 41
0.8
  7
GREEKS
  0
TEXT
  5
543
  8
BEM
 10
1364.9123618013929899
 20
309.9193650604619847
 30
0.0
 40
1.8
  1

 41
0.8
  7
GREEKS
  0
TEXT
  5
544
  8
TEXT
 10
1662.3295096430761077
 20
325.1886775932800902
 30
0.0
 40
2.5
  1
  
  7
GREEKS
 72
     1
 11
1664.5914144049809238
 21
325.1886775932800902
 31
0.0
  0
TEXT
  5
545
  8
BEM
 10
1906.4492269555580606
 20
460.7475596236823776
 30
0.0
 40
2.5
  1
 
 72
     4
 11
1907.580179336511037
 21
460.7475596236823776
 31
0.0
  0
TEXT
  5
8C7
  8
VOLL
 10
697.7061936334578149
 20
459.5243591320736982
 30
0.0
 40
1.8
  1

  7
GREEKS
  0
INSERT
  5
99A
  8
ADSK_ASSOC_ENTITY_BACKUPS
  2
*S2
 10
0.0
 20
0.0
 30
0.0
  0
INSERT
  5
1AE2
  8
BEM
  2
A$CCF3C9943
 10
0.0
 20
0.0
 30
0.0
  0
INSERT
  5
1B8B
  8
BEM
  2
A$C5F8FC719
 10
0.0
 20
200.0
 30
0.0
  0
VIEWPORT
  5
979
 67
     1
  8
0
 10
27.3063636992221213
 20
-32.5105272269861416
 30
0.0
 40
628.8420672274756953
 41
307.3657323716735164
 68
     1
 69
     1
1001
ACAD
1000
MVIEW
1002
{
1070
    16
1010
0.0
1020
0.0
1030
0.0
1010
0.0
1020
0.0
1030
1.0
1040
0.0
1040
307.3657323716735164
1040
27.3063636992221213
1040
-32.5105272269861416
1040
50.0
1040
0.0
1040
0.0
1070
     0
1070
   500
1070
     1
1070
     1
1070
     0
1070
     0
1070
     0
1070
     0
1040
0.0
1040
0.0
1040
0.0
1040
10.0
1040
10.0
1040
10.0
1040
10.0
1070
     0
1002
{
1002
}
1002
}
  0
ENDSEC
  0
EOF
