  0
SECTION
  2
HEADER
  9
$ACADVER
  1
AC1009
  9
$INSBASE
 10
0.0
 20
0.0
 30
0.0
  9
$EXTMIN
 10
-0.4272942125767259
 20
-0.0210062236129858
 30
-0.0000000000000131
  9
$EXTMAX
 10
3835.1496318340059588
 20
689.0493378112962546
 30
0.0000000000000131
  9
$LIMMIN
 10
0.0
 20
0.0
  9
$LIMMAX
 10
840.0
 20
594.0
  9
$ORTHOMODE
 70
     1
  9
$REGENMODE
 70
     1
  9
$FILLMODE
 70
     1
  9
$QTEXTMODE
 70
     0
  9
$MIRRTEXT
 70
     1
  9
$DRAGMODE
 70
     2
  9
$LTSCALE
 40
20.0
  9
$OSMODE
 70
   183
  9
$ATTMODE
 70
     1
  9
$TEXTSIZE
 40
3.5
  9
$TRACEWID
 40
1.0
  9
$TEXTSTYLE
  7
STANDARD
  9
$CLAYER
  8
DEFPOINTS
  9
$CELTYPE
  6
BYLAYER
  9
$CECOLOR
 62
   256
  9
$DIMSCALE
 40
2.0
  9
$DIMASZ
 40
3.5
  9
$DIMEXO
 40
1.0
  9
$DIMDLI
 40
7.0
  9
$DIMRND
 40
0.0
  9
$DIMDLE
 40
0.0
  9
$DIMEXE
 40
1.0
  9
$DIMTP
 40
0.0
  9
$DIMTM
 40
0.0
  9
$DIMTXT
 40
3.5
  9
$DIMCEN
 40
1.5
  9
$DIMTSZ
 40
0.0
  9
$DIMTOL
 70
     0
  9
$DIMLIM
 70
     0
  9
$DIMTIH
 70
     0
  9
$DIMTOH
 70
     0
  9
$DIMSE1
 70
     0
  9
$DIMSE2
 70
     0
  9
$DIMTAD
 70
     1
  9
$DIMZIN
 70
     8
  9
$DIMBLK
  1

  9
$DIMASO
 70
     1
  9
$DIMSHO
 70
     0
  9
$DIMPOST
  1

  9
$DIMAPOST
  1

  9
$DIMALT
 70
     0
  9
$DIMALTD
 70
     2
  9
$DIMALTF
 40
25.3999999999999986
  9
$DIMLFAC
 40
1.0
  9
$DIMTOFL
 70
     1
  9
$DIMTVP
 40
0.0
  9
$DIMTIX
 70
     0
  9
$DIMSOXD
 70
     0
  9
$DIMSAH
 70
     0
  9
$DIMBLK1
  1

  9
$DIMBLK2
  1

  9
$DIMSTYLE
  2
STANDARD
  9
$DIMCLRD
 70
     0
  9
$DIMCLRE
 70
     0
  9
$DIMCLRT
 70
     1
  9
$DIMTFAC
 40
0.5142857142857143
  9
$DIMGAP
 40
1.5
  9
$LUNITS
 70
     2
  9
$LUPREC
 70
     2
  9
$SKETCHINC
 40
1.0
  9
$FILLETRAD
 40
0.0
  9
$AUNITS
 70
     0
  9
$AUPREC
 70
     0
  9
$MENU
  1
ACAD
  9
$ELEVATION
 40
0.0
  9
$PELEVATION
 40
0.0
  9
$THICKNESS
 40
0.0
  9
$LIMCHECK
 70
     0
  9
$BLIPMODE
 70
     0
  9
$CHAMFERA
 40
0.0
  9
$CHAMFERB
 40
0.0
  9
$SKPOLY
 70
     0
  9
$TDCREATE
 40
2455397.867048610933125
  9
$TDUPDATE
 40
2458382.3639930561184883
  9
$TDINDWG
 40
0.1055286111
  9
$TDUSRTIMER
 40
0.1055286111
  9
$USRTIMER
 70
     1
  9
$ANGBASE
 50
0.0
  9
$ANGDIR
 70
     0
  9
$PDMODE
 70
     0
  9
$PDSIZE
 40
0.0
  9
$PLINEWID
 40
0.0
  9
$COORDS
 70
     1
  9
$SPLFRAME
 70
     0
  9
$SPLINETYPE
 70
     6
  9
$SPLINESEGS
 70
     8
  9
$ATTDIA
 70
     1
  9
$ATTREQ
 70
     1
  9
$HANDLING
 70
     1
  9
$HANDSEED
  5
2153
  9
$SURFTAB1
 70
     6
  9
$SURFTAB2
 70
     6
  9
$SURFTYPE
 70
     6
  9
$SURFU
 70
     6
  9
$SURFV
 70
     6
  9
$UCSNAME
  2

  9
$UCSORG
 10
0.0
 20
0.0
 30
0.0
  9
$UCSXDIR
 10
1.0
 20
0.0
 30
0.0
  9
$UCSYDIR
 10
0.0
 20
1.0
 30
0.0
  9
$PUCSNAME
  2

  9
$PUCSORG
 10
0.0
 20
0.0
 30
0.0
  9
$PUCSXDIR
 10
1.0
 20
0.0
 30
0.0
  9
$PUCSYDIR
 10
0.0
 20
1.0
 30
0.0
  9
$USERI1
 70
     0
  9
$USERI2
 70
     0
  9
$USERI3
 70
     0
  9
$USERI4
 70
     0
  9
$USERI5
 70
     0
  9
$USERR1
 40
0.0
  9
$USERR2
 40
0.0
  9
$USERR3
 40
0.0
  9
$USERR4
 40
0.0
  9
$USERR5
 40
0.0
  9
$WORLDVIEW
 70
     1
  9
$SHADEDGE
 70
     3
  9
$SHADEDIF
 70
    70
  9
$TILEMODE
 70
     1
  9
$MAXACTVP
 70
    16
  9
$PLIMCHECK
 70
     0
  9
$PEXTMIN
 10
-0.2040054618450924
 20
-0.2080658174952319
 30
-0.0000000000000058
  9
$PEXTMAX
 10
25.2957785363227288
 20
17.7126109138808587
 30
0.0000000000000104
  9
$PLIMMIN
 10
-0.2500002402958907
 20
-0.2499999962453767
  9
$PLIMMAX
 10
10.7499995194082203
 20
8.2499997634587334
  9
$UNITMODE
 70
     0
  9
$VISRETAIN
 70
     0
  9
$PLINEGEN
 70
     0
  9
$PSLTSCALE
 70
     0
  0
ENDSEC
  0
SECTION
  2
TABLES
  0
TABLE
  2
VPORT
 70
     1
  0
VPORT
  2
*ACTIVE
 70
     0
 10
0.0
 20
0.0
 11
1.0
 21
1.0
 12
0.0
 22
0.0
 13
0.0
 23
0.0
 14
1.0
 24
1.0
 15
10.0
 25
10.0
 16
0.0000000003501555
 26
0.0
 36
2240.9597432356122226
 17
3476.8082792913651247
 27
394.5443546418077858
 37
0.0000000000405204
 40
905.5420169570686539
 41
1.8224299065420559
 42
50.0
 43
0.0
 44
0.0
 50
0.0
 51
0.0
 71
     0
 72
  1500
 73
     1
 74
     0
 75
     0
 76
     0
 77
     0
 78
     0
  0
ENDTAB
  0
TABLE
  2
LTYPE
 70
     4
  0
LTYPE
  2
CONTINUOUS
 70
     0
  3
Solid line
 72
    65
 73
     0
 40
0.0
  0
LTYPE
  2
VERDECKT
 70
     0
  3
Verdeckt __ __ __ __ __ __ __ __ __ __ __ __ __
 72
    65
 73
     2
 40
0.375
 49
0.25
 49
-0.125
  0
ENDTAB
  0
TABLE
  2
LAYER
 70
    10
  0
LAYER
  2
0
 70
     0
 62
     7
  6
CONTINUOUS
  0
LAYER
  2
DEFPOINTS
 70
     0
 62
     7
  6
CONTINUOUS
  0
LAYER
  2
ROHR
 70
     0
 62
     9
  6
CONTINUOUS
  0
ENDTAB
  0
TABLE
  2
STYLE
 70
     4
  0
STYLE
  2
STANDARD
 70
     0
 40
0.0
 41
0.8
 50
0.0
 71
     0
 42
3.5
  3
simplex.shx
  4

  0
ENDTAB
  0
TABLE
  2
VIEW
 70
     1
  0
ENDTAB
  0
TABLE
  2
UCS
 70
     0
  0
ENDTAB
  0
TABLE
  2
APPID
 70
    11
  0
APPID
  2
ACAD
 70
     0
  0
APPID
  2
ACAD_NAV_VCDISPLAY
 70
     0
  0
APPID
  2
ACAD_PSEXT
 70
     0
  0
APPID
  2
ACAD_EXEMPT_FROM_CAD_STANDARDS
 70
     0
  0
APPID
  2
ACAD_MLEADERVER
 70
     0
  0
APPID
  2
GRADIENTCOLOR1ACI
 70
     0
  0
APPID
  2
GRADIENTCOLOR2ACI
 70
     0
  0
APPID
  2
ACAECLAYERSTANDARD
 70
     0
  0
APPID
  2
ACCMTRANSPARENCY
 70
     0
  0
APPID
  2
ACAD_OBJECT_CHANGE_GUID
 70
     0
  0
APPID
  2
ACADANNOMONITORALERTICONDI
 70
     0
  0
ENDTAB
  0
TABLE
  2
DIMSTYLE
 70
     2
  0
DIMSTYLE
  2
STANDARD
 70
     0
  3

  4

  5

  6

  7

 40
1.0
 41
0.18
 42
0.0625
 43
0.38
 44
0.18
 45
0.0
 46
0.0
 47
0.0
 48
0.0
140
0.18
141
0.09
142
0.0
143
25.3999999999999986
144
1.0
145
0.0
146
1.0
147
0.09
 71
     0
 72
     0
 73
     1
 74
     1
 75
     0
 76
     0
 77
     0
 78
     0
170
     0
171
     2
172
     0
173
     0
174
     0
175
     0
176
     0
177
     0
178
     0
  0
ENDTAB
  0
ENDSEC
  0
SECTION
  2
BLOCKS
  0
BLOCK
  8
0
  2
$MODEL_SPACE
 70
     0
 10
0.0
 20
0.0
 30
0.0
  3
$MODEL_SPACE
  1

  0
ENDBLK
  5
38
  8
0
  0
BLOCK
 67
     1
  8
0
  2
$PAPER_SPACE
 70
     0
 10
0.0
 20
0.0
 30
0.0
  3
$PAPER_SPACE
  1

  0
ENDBLK
  5
36
 67
     1
  8
0
  0
BLOCK
  8
0
  2
A$C11B25114
 70
     0
 10
0.0
 20
0.0
 30
0.0
  3
A$C11B25114
  1

  0
LINE
  5
207A
  8
0
  6
CONTINUOUS
 62
     3
 10
1031.4683082697590635
 20
496.0703440349091125
 30
0.0
 11
1133.5394028492089546
 21
496.0703440349091125
 31
0.0
  0
LINE
  5
207B
  8
0
  6
CONTINUOUS
 62
     3
 10
1026.7970997215591069
 20
571.0703440349093398
 30
0.0
 11
1138.2106113974089112
 21
571.0703440349093398
 31
0.0
  0
LINE
  5
207C
  8
0
  6
CONTINUOUS
 62
     3
 10
1582.5038555594840091
 20
476.3780744017890925
 30
0.0
 11
1582.5038555594840091
 21
375.7626136680304967
 31
0.0
  0
ARC
  5
207D
  8
0
  6
CONTINUOUS
 62
     3
 10
1152.5038555594840091
 20
496.0703440349099083
 30
0.0
 40
121.0000000000000995
 50
180.0
 51
270.0
  0
ARC
  5
207E
  8
0
  6
CONTINUOUS
 62
     3
 10
1152.5038555594840091
 20
496.0703440349100788
 30
0.0
 40
19.0000000000004512
 50
180.0000000000007958
 51
270.0
  0
LINE
  5
207F
  8
0
  6
CONTINUOUS
 62
     3
 10
1138.2106113974089112
 20
571.0703440349093398
 30
0.0
 11
1139.1615502354
 21
569.0310491158553532
 31
0.0
  0
LINE
  5
2080
  8
0
  6
CONTINUOUS
 62
     3
 10
1026.7970997215591069
 20
571.0703440349093398
 30
0.0
 11
1025.8461608835680181
 21
569.0310491158553532
 31
0.0
  0
ARC
  5
2081
  8
0
  6
CONTINUOUS
 62
     3
 10
1048.5038555594840091
 20
558.4655925723373002
 30
0.0
 40
25.0000000000002309
 50
155.0000000000013927
 51
180.0
  0
ARC
  5
2082
  8
0
  6
CONTINUOUS
 62
     3
 10
1116.5038555594840091
 20
558.4655925723373002
 30
0.0
 40
25.0000000000002096
 50
0.0000000000024427
 51
25.0000000000008313
  0
LINE
  5
2083
  8
0
  6
CONTINUOUS
 62
     3
 10
1141.5038555594840091
 20
558.4655925723382097
 30
0.0
 11
1141.5038555594840091
 21
543.3035445655907552
 31
0.0
  0
LINE
  5
2084
  8
0
  6
CONTINUOUS
 62
     3
 10
1023.5038555594840091
 20
558.4655925723382097
 30
0.0
 11
1023.5038555594840091
 21
543.3035445655907552
 31
0.0
  0
ARC
  5
2085
  8
0
  6
CONTINUOUS
 62
     3
 10
1048.5038555594899208
 20
543.3035445655917783
 30
0.0
 40
25.0000000000054499
 50
180.0000000000023874
 51
206.8880476177195078
  0
ARC
  5
2086
  8
0
  6
CONTINUOUS
 62
     3
 10
1116.5038555594790068
 20
543.3035445655917783
 30
0.0
 40
25.0000000000054605
 50
333.1119523822803785
 51
359.9999999999976126
  0
ARC
  5
2087
  8
0
  6
CONTINUOUS
 62
     3
 10
1015.5038555594900345
 20
526.5703440349104767
 30
0.0
 40
11.9999999999938698
 50
359.9999999999935199
 51
26.8880476177333598
  0
ARC
  5
2088
  8
0
  6
CONTINUOUS
 62
     3
 10
1149.5038555594780973
 20
526.5703440349104767
 30
0.0
 40
11.9999999999938591
 50
153.111952382266594
 51
180.0000000000065086
  0
LINE
  5
2089
  8
0
  6
CONTINUOUS
 62
     3
 10
1137.5038555594840091
 20
526.5703440349093398
 30
0.0
 11
1137.5038555594840091
 21
507.9978329118566762
 31
0.0
  0
LINE
  5
208A
  8
0
  6
CONTINUOUS
 62
     3
 10
1027.5038555594840091
 20
526.5703440349093398
 30
0.0
 11
1027.5038555594840091
 21
507.9978329118566762
 31
0.0
  0
ARC
  5
208B
  8
0
  6
CONTINUOUS
 62
     3
 10
1042.5038555594849186
 20
507.9978329118566194
 30
0.0
 40
15.0000000000006697
 50
179.9999999999992042
 51
215.1060887534482049
  0
ARC
  5
208C
  8
0
  6
CONTINUOUS
 62
     3
 10
1122.5038555594830996
 20
507.9978329118566194
 30
0.0
 40
15.0000000000006803
 50
324.8939112465516814
 51
0.0
  0
ARC
  5
208D
  8
0
  6
CONTINUOUS
 62
     3
 10
1024.5059061902989015
 20
495.3458046750748736
 30
0.0
 40
7.000000000001922
 50
5.9410759245651663
 51
35.1060887534410568
  0
ARC
  5
208E
  8
0
  6
CONTINUOUS
 62
     3
 10
1140.5018049286700261
 20
495.3458046750751009
 30
0.0
 40
7.0000000000018829
 50
144.8939112465596111
 51
174.0589240754356126
  0
LINE
  5
208F
  8
0
  6
CONTINUOUS
 62
     3
 10
1582.5038555594840091
 20
375.7626136680304967
 30
0.0
 11
1574.5911774453020371
 21
375.0703440349097946
 31
0.0
  0
LINE
  5
2090
  8
0
  6
CONTINUOUS
 62
     3
 10
1582.5038555594840091
 20
476.3780744017890925
 30
0.0
 11
1574.5911774453020371
 21
477.0703440349096809
 31
0.0
  0
LINE
  5
2091
  8
0
  6
CONTINUOUS
 62
     3
 10
1574.5911774453020371
 20
375.0703440349097946
 30
0.0
 11
1152.5038555594840091
 21
375.0703440349097946
 31
0.0
  0
LINE
  5
2092
  8
0
  6
CONTINUOUS
 62
     3
 10
1574.5911774453020371
 20
477.0703440349096809
 30
0.0
 11
1152.5038555594840091
 21
477.0703440349096809
 31
0.0
  0
ARC
  5
2093
  8
0
  6
VERDECKT
 62
     1
 10
1152.5038555594840091
 20
496.0703440349095104
 30
0.0
 40
118.9999999999997016
 50
180.0
 51
270.0
  0
ARC
  5
2094
  8
0
  6
VERDECKT
 62
     1
 10
1152.5038555594830996
 20
496.070344034909283
 30
0.0
 40
20.9999999999993214
 50
180.0
 51
270.0000000000032969
  0
ARC
  5
2095
  8
0
  6
VERDECKT
 62
     1
 10
1024.5059061903000384
 20
495.3458046750749872
 30
0.0
 40
9.0000000000009273
 50
4.617557709297273
 51
35.1060887534489297
  0
ARC
  5
2096
  8
0
  6
VERDECKT
 62
     1
 10
1140.5018049286688893
 20
495.3458046750749872
 30
0.0
 40
9.000000000000913
 50
144.893911246551113
 51
175.3824422907026985
  0
ARC
  5
2097
  8
0
  6
VERDECKT
 62
     1
 10
1042.5038555594849186
 20
507.9978329118567899
 30
0.0
 40
13.0000000000011404
 50
180.0
 51
215.1060887534468975
  0
ARC
  5
2098
  8
0
  6
VERDECKT
 62
     1
 10
1122.5038555594830996
 20
507.9978329118569036
 30
0.0
 40
13.0000000000015898
 50
324.8939112465537846
 51
0.0
  0
LINE
  5
2099
  8
0
  6
VERDECKT
 62
     1
 10
1135.5038555594840091
 20
526.5701435042276444
 30
0.0
 11
1135.5038555594840091
 21
507.9978329118567899
 31
0.0
  0
LINE
  5
209A
  8
0
  6
VERDECKT
 62
     1
 10
1029.5038555594840091
 20
526.5701435042276444
 30
0.0
 11
1029.5038555594840091
 21
507.9978329118567899
 31
0.0
  0
ARC
  5
209B
  8
0
  6
VERDECKT
 62
     1
 10
1015.5038555594840091
 20
526.5701435042276444
 30
0.0
 40
13.9999999999997495
 50
0.0000000000008142
 51
26.8880476177216998
  0
ARC
  5
209C
  8
0
  6
VERDECKT
 62
     1
 10
1149.5038555594840091
 20
526.5701435042276444
 30
0.0
 40
13.9999999999993197
 50
153.1119523822760868
 51
179.9999999999992042
  0
ARC
  5
209D
  8
0
  6
VERDECKT
 62
     1
 10
1048.5038555594840091
 20
543.3033440349088323
 30
0.0
 40
22.9999999999993108
 50
179.9999999999992042
 51
206.8880476177253058
  0
ARC
  5
209E
  8
0
  6
VERDECKT
 62
     1
 10
1116.5038555594849186
 20
543.3033440349088323
 30
0.0
 40
22.9999999999995417
 50
333.1119523822745805
 51
0.0000000000008142
  0
LINE
  5
209F
  8
0
  6
VERDECKT
 62
     1
 10
1139.5038555594840091
 20
558.4655925723382097
 30
0.0
 11
1139.5038555594840091
 21
543.3033440349090597
 31
0.0
  0
LINE
  5
20A0
  8
0
  6
VERDECKT
 62
     1
 10
1025.5038555594840091
 20
558.4655925723382097
 30
0.0
 11
1025.5038555594840091
 21
543.3033440349090597
 31
0.0
  0
ARC
  5
20A1
  8
0
  6
VERDECKT
 62
     1
 10
1048.5038555594810532
 20
558.4655925723388918
 30
0.0
 40
22.9999999999961311
 50
154.9999999999992042
 51
180.0000000000015916
  0
ARC
  5
20A2
  8
0
  6
VERDECKT
 62
     1
 10
1116.5038555594881018
 20
558.4655925723388918
 30
0.0
 40
22.9999999999961204
 50
359.9999999999984084
 51
25.0000000000008313
  0
LINE
  5
20A3
  8
0
  6
VERDECKT
 62
     1
 10
1136.0038555594840091
 20
571.0703440349093398
 30
0.0
 11
1137.3489346613268935
 21
568.1858125923737362
 31
0.0
  0
LINE
  5
20A4
  8
0
  6
VERDECKT
 62
     1
 10
1029.0038555594840091
 20
571.0703440349093398
 30
0.0
 11
1027.6587764576408972
 21
568.1858125923737362
 31
0.0
  0
LINE
  5
20A5
  8
0
  6
VERDECKT
 62
     1
 10
1574.5038555594830996
 20
377.0703440349096809
 30
0.0
 11
1152.5038555594840091
 21
377.0703440349096809
 31
0.0
  0
LINE
  5
20A6
  8
0
  6
VERDECKT
 62
     1
 10
1574.5038555594830996
 20
475.0703440349097946
 30
0.0
 11
1152.5038555594840091
 21
475.0703440349097946
 31
0.0
  0
LINE
  5
20A7
  8
0
  6
VERDECKT
 62
     1
 10
1582.5038555594840091
 20
377.7702533431173038
 30
0.0
 11
1574.5038555594830996
 21
377.0703440349096809
 31
0.0
  0
LINE
  5
20A8
  8
0
  6
VERDECKT
 62
     1
 10
1582.5038555594840091
 20
474.3704347267022854
 30
0.0
 11
1574.5038555594830996
 21
475.0703440349097946
 31
0.0
  0
ENDBLK
  5
20A9
  8
0
  0
BLOCK
  8
0
  2
A$C07A11E87
 70
     0
 10
0.0
 20
0.0
 30
0.0
  3
A$C07A11E87
  1

  0
CIRCLE
  5
20AC
  8
0
  6
CONTINUOUS
 62
     3
 10
1340.940358536372969
 20
0.0000000000001642
 30
0.0
 40
49.0
210
0.0
220
-0.0000000000000002
230
-1.0
  0
CIRCLE
  5
20AD
  8
0
  6
CONTINUOUS
 62
     3
 10
1340.940358536372969
 20
0.0000000000001642
 30
0.0
 40
49.0271610695940581
210
0.0
220
-0.0000000000000002
230
-1.0
  0
CIRCLE
  5
20AE
  8
0
  6
CONTINUOUS
 62
     3
 10
1340.940358536372969
 20
0.0000000000001642
 30
0.0
 40
53.0
210
0.0
220
-0.0000000000000002
230
-1.0
  0
CIRCLE
  5
20AF
  8
0
  6
CONTINUOUS
 62
     3
 10
1340.940358536372969
 20
0.0000000000001642
 30
0.0
 40
53.5
210
0.0
220
-0.0000000000000002
230
-1.0
  0
CIRCLE
  5
20B0
  8
0
  6
CONTINUOUS
 62
     3
 10
1340.940358536372969
 20
0.0000000000001642
 30
0.0
 40
55.7067558379249022
210
0.0
220
-0.0000000000000002
230
-1.0
  0
CIRCLE
  5
20B1
  8
0
  6
CONTINUOUS
 62
     3
 10
1340.940358536372969
 20
0.0000000000001642
 30
0.0
 40
59.0
210
0.0
220
-0.0000000000000002
230
-1.0
  0
LINE
  5
20B2
  8
0
  6
CONTINUOUS
 62
     3
 10
-1840.940358536372969
 20
-50.3077303668790492
 30
0.0000000000000112
 11
-1840.940358536372969
 21
0.0000000000002255
 31
0.0
210
0.0000000000000001
220
1.0
230
-0.0000000000000002
  0
LINE
  5
20B3
  8
0
  6
CONTINUOUS
 62
     3
 10
-1840.940358536372969
 20
0.0000000000002382
 30
0.0
 11
-1840.940358536372969
 21
50.3077303668795324
 31
-0.0000000000000112
210
0.0000000000000001
220
1.0
230
-0.0000000000000002
  0
LINE
  5
20B4
  8
0
  6
CONTINUOUS
 62
     3
 10
-1410.9403585363741058
 20
-50.9999999999998366
 30
0.0000000000000113
 11
-1370.6051524847559904
 21
-50.9999999999998366
 31
0.0000000000000113
210
0.0000000000000001
220
1.0
230
-0.0000000000000002
  0
LINE
  5
20B5
  8
0
  6
CONTINUOUS
 62
     3
 10
-1370.6051524847559904
 20
51.0000000000001918
 30
-0.0000000000000113
 11
-1410.9403585363741058
 21
51.0000000000001918
 31
-0.0000000000000113
210
0.0000000000000001
220
1.0
230
-0.0000000000000002
  0
LINE
  5
20B6
  8
0
  6
CONTINUOUS
 62
     3
 10
-1840.940358536372969
 20
50.3077303668795111
 30
-0.0000000000000112
 11
-1833.0276804221900875
 21
51.0000000000002132
 31
-0.0000000000000113
210
0.0000000000000001
220
1.0
230
-0.0000000000000002
  0
LINE
  5
20B7
  8
0
  6
CONTINUOUS
 62
     3
 10
-1840.940358536372969
 20
-50.3077303668790492
 30
0.0000000000000112
 11
-1833.0276804221900875
 21
-50.9999999999997584
 31
0.0000000000000113
210
0.0000000000000001
220
1.0
230
-0.0000000000000002
  0
LINE
  5
20B8
  8
0
  6
CONTINUOUS
 62
     3
 10
-1833.0276804221900875
 20
51.0000000000002416
 30
-0.0000000000000113
 11
-1410.940358536372969
 21
51.0000000000001918
 31
-0.0000000000000113
210
0.0000000000000001
220
1.0
230
-0.0000000000000002
  0
LINE
  5
20B9
  8
0
  6
CONTINUOUS
 62
     3
 10
-1833.0276804221900875
 20
-50.9999999999997868
 30
0.0000000000000113
 11
-1410.940358536372969
 21
-50.9999999999998366
 31
0.0000000000000113
210
0.0000000000000001
220
1.0
230
-0.0000000000000002
  0
CIRCLE
  5
20BA
  8
0
  6
VERDECKT
 62
     1
 10
-1340.940358536372969
 20
0.0000000000001642
 30
0.0
 40
51.0
  0
CIRCLE
  5
20BB
  8
0
  6
VERDECKT
 62
     1
 10
1340.940358536372969
 20
0.0000000000001642
 30
0.0
 40
51.0355472897249385
210
0.0
220
-0.0000000000000002
230
-1.0
  0
CIRCLE
  5
20BC
  8
0
  6
VERDECKT
 62
     1
 10
1340.940358536372969
 20
0.0000000000001642
 30
0.0
 40
57.0
210
0.0
220
-0.0000000000000002
230
-1.0
  0
CIRCLE
  5
20BD
  8
0
  6
VERDECKT
 62
     1
 10
1340.940358536372969
 20
0.0000000000001642
 30
0.0
 40
55.0
210
0.0
220
-0.0000000000000002
230
-1.0
  0
LINE
  5
20BE
  8
0
  6
VERDECKT
 62
     1
 10
-1410.9403585363741058
 20
-48.9999999999998366
 30
0.0000000000000109
 11
-1340.940358536372969
 21
-48.9999999999998508
 31
0.0000000000000109
210
0.0000000000000001
220
1.0
230
-0.0000000000000002
  0
LINE
  5
20BF
  8
0
  6
VERDECKT
 62
     1
 10
-1340.940358536372969
 20
49.0000000000001776
 30
-0.0000000000000109
 11
-1410.9403585363741058
 21
49.0000000000001918
 31
-0.0000000000000109
210
0.0000000000000001
220
1.0
230
-0.0000000000000002
  0
LINE
  5
20C0
  8
0
  6
VERDECKT
 62
     1
 10
-1370.6051524847559904
 20
-50.9999999999998366
 30
0.0000000000000113
 11
-1340.940358536372969
 21
-50.9999999999998508
 31
0.0000000000000113
210
0.0000000000000001
220
1.0
230
-0.0000000000000002
  0
LINE
  5
20C1
  8
0
  6
VERDECKT
 62
     1
 10
-1340.940358536372969
 20
51.0000000000001776
 30
-0.0000000000000113
 11
-1370.6051524847559904
 21
51.0000000000001918
 31
-0.0000000000000113
210
0.0000000000000001
220
1.0
230
-0.0000000000000002
  0
LINE
  5
20C2
  8
0
  6
VERDECKT
 62
     1
 10
-1832.9403585363720595
 20
49.0000000000002984
 30
-0.0000000000000109
 11
-1410.9403585363741058
 21
49.0000000000002416
 31
-0.0000000000000109
210
0.0000000000000001
220
1.0
230
-0.0000000000000002
  0
LINE
  5
20C3
  8
0
  6
VERDECKT
 62
     1
 10
-1832.9403585363720595
 20
-48.9999999999998366
 30
0.0000000000000109
 11
-1410.9403585363741058
 21
-48.9999999999999005
 31
0.0000000000000109
210
0.0000000000000001
220
1.0
230
-0.0000000000000002
  0
LINE
  5
20C4
  8
0
  6
VERDECKT
 62
     1
 10
-1840.940358536372969
 20
48.3000906917927608
 30
-0.0000000000000107
 11
-1832.9403585363720595
 21
49.00000000000027
 31
-0.0000000000000109
210
0.0000000000000001
220
1.0
230
-0.0000000000000002
  0
LINE
  5
20C5
  8
0
  6
VERDECKT
 62
     1
 10
-1840.940358536372969
 20
-48.300090691792299
 30
0.0000000000000107
 11
-1832.9403585363720595
 21
-48.9999999999998082
 31
0.0000000000000109
210
0.0000000000000001
220
1.0
230
-0.0000000000000002
  0
ENDBLK
  5
20C6
  8
0
  0
BLOCK
  8
0
  2
A$C31686CCD
 70
     0
 10
0.0
 20
0.0
 30
0.0
  3
A$C31686CCD
  1

  0
ARC
  5
20C9
  8
0
  6
CONTINUOUS
 62
     3
 10
-93.0411485316753328
 20
88.9514887181466491
 30
0.0
 40
50.9999999999999503
 50
0.0
 51
90.0
  0
ARC
  5
20CA
  8
0
  6
CONTINUOUS
 62
     3
 10
-93.0411485316753328
 20
88.9514887181466207
 30
0.0
 40
51.0
 50
270.0
 51
0.0
  0
LINE
  5
20CB
  8
0
  6
CONTINUOUS
 62
     3
 10
-163.0411485316747928
 20
37.9159414284216609
 30
0.0000000000000113
 11
-163.0411485316747928
 21
88.9514887181466207
 31
0.0
210
-0.0000000000000002
220
1.0
230
-0.0000000000000002
  0
LINE
  5
20CC
  8
0
  6
CONTINUOUS
 62
     3
 10
-163.0411485316747928
 20
88.9514887181466349
 30
0.0
 11
-163.0411485316747928
 21
139.9870360078716089
 31
-0.0000000000000113
210
-0.0000000000000002
220
1.0
230
-0.0000000000000002
  0
LINE
  5
20CD
  8
0
  6
CONTINUOUS
 62
     3
 10
-238.0411485316749065
 20
33.2447328802218323
 30
0.0000000000000124
 11
-238.0411485316749065
 21
88.9514887181466065
 31
0.0
210
-0.0000000000000002
220
1.0
230
-0.0000000000000002
  0
LINE
  5
20CE
  8
0
  6
CONTINUOUS
 62
     3
 10
-238.0411485316749065
 20
88.9514887181466207
 30
0.0
 11
-238.0411485316749065
 21
144.6582445560715087
 31
-0.0000000000000124
210
-0.0000000000000002
220
1.0
230
-0.0000000000000002
  0
LINE
  5
20CF
  8
0
  6
CONTINUOUS
 62
     3
 10
-163.0411485316755034
 20
37.9514887181466065
 30
0.0000000000000113
 11
-93.0411485316753755
 21
37.9514887181466207
 31
0.0000000000000113
210
-0.0000000000000002
220
1.0
230
-0.0000000000000002
  0
LINE
  5
20D0
  8
0
  6
CONTINUOUS
 62
     3
 10
-93.0411485316753328
 20
139.9514887181466065
 30
-0.0000000000000113
 11
-163.0411485316755034
 21
139.9514887181466065
 31
-0.0000000000000113
210
-0.0000000000000002
220
1.0
230
-0.0000000000000002
  0
LINE
  5
20D1
  8
0
  6
CONTINUOUS
 62
     3
 10
-238.0411485316749065
 20
144.6582445560715087
 30
-0.0000000000000124
 11
-236.0018536126208915
 21
145.6091833940625975
 31
-0.0000000000000126
210
-0.0000000000000002
220
1.0
230
-0.0000000000000002
  0
LINE
  5
20D2
  8
0
  6
CONTINUOUS
 62
     3
 10
-238.0411485316749065
 20
33.2447328802216902
 30
0.0000000000000124
 11
-236.0018536126208915
 21
32.2937940422305871
 31
0.0000000000000126
210
-0.0000000000000002
220
1.0
230
-0.0000000000000002
  0
ARC
  5
20D3
  8
0
  6
CONTINUOUS
 62
     3
 10
225.4363970691028953
 20
54.9514887181465923
 30
-0.0000000000000198
 40
25.0000000000000213
210
0.0
220
-0.0000000000000002
230
-1.0
 50
270.0
 51
294.9999999999997158
  0
ARC
  5
20D4
  8
0
  6
CONTINUOUS
 62
     3
 10
225.4363970691028953
 20
122.951488718146507
 30
-0.0000000000000198
 40
25.0000000000001386
210
0.0
220
-0.0000000000000002
230
-1.0
 50
64.9999999999999574
 51
89.9999999999967457
  0
LINE
  5
20D5
  8
0
  6
CONTINUOUS
 62
     3
 10
-225.4363970691038048
 20
147.9514887181466065
 30
-0.0000000000000131
 11
-210.2743490623564924
 21
147.9514887181466065
 31
-0.0000000000000131
210
-0.0000000000000002
220
1.0
230
-0.0000000000000002
  0
LINE
  5
20D6
  8
0
  6
CONTINUOUS
 62
     3
 10
-225.4363970691038048
 20
29.9514887181465888
 30
0.0000000000000131
 11
-210.2743490623564924
 21
29.9514887181465888
 31
0.0000000000000131
210
-0.0000000000000002
220
1.0
230
-0.0000000000000002
  0
ARC
  5
20D7
  8
0
  6
CONTINUOUS
 62
     3
 10
210.2743490623574871
 20
54.9514887181519569
 30
-0.0000000000000198
 40
25.000000000005361
210
0.0
220
-0.0000000000000002
230
-1.0
 50
243.1119523822796964
 51
269.9999999999968168
  0
ARC
  5
20D8
  8
0
  6
CONTINUOUS
 62
     3
 10
210.2743490623574871
 20
122.9514887181412064
 30
-0.0000000000000198
 40
25.0000000000053717
210
0.0
220
-0.0000000000000002
230
-1.0
 50
90.0000000000032543
 51
116.8880476177202041
  0
ARC
  5
20D9
  8
0
  6
CONTINUOUS
 62
     3
 10
193.5411485316761002
 20
21.951488718152131
 30
-0.0000000000000198
 40
11.9999999999944293
210
0.0
220
-0.0000000000000002
230
-1.0
 50
63.1119523822684627
 51
90.0000000000065086
  0
ARC
  5
20DA
  8
0
  6
CONTINUOUS
 62
     3
 10
193.5411485316762139
 20
155.9514887181410074
 30
-0.0000000000000198
 40
11.9999999999942908
210
0.0
220
-0.0000000000000002
230
-1.0
 50
270.0
 51
296.8880476177388914
  0
LINE
  5
20DB
  8
0
  6
CONTINUOUS
 62
     3
 10
-193.5411485316747928
 20
143.9514887181466065
 30
-0.0000000000000122
 11
-174.9686374086224134
 21
143.9514887181466065
 31
-0.0000000000000122
210
-0.0000000000000002
220
1.0
230
-0.0000000000000002
  0
LINE
  5
20DC
  8
0
  6
CONTINUOUS
 62
     3
 10
-193.5411485316747928
 20
33.9514887181465994
 30
0.0000000000000122
 11
-174.9686374086224134
 21
33.9514887181465994
 31
0.0000000000000122
210
-0.0000000000000002
220
1.0
230
-0.0000000000000002
  0
ARC
  5
20DD
  8
0
  6
CONTINUOUS
 62
     3
 10
174.9686374086222997
 20
48.9514887181476865
 30
-0.0000000000000198
 40
15.0000000000010694
210
0.0
220
-0.0000000000000002
230
-1.0
 50
234.8939112465519088
 51
270.0
  0
ARC
  5
20DE
  8
0
  6
CONTINUOUS
 62
     3
 10
174.9686374086222997
 20
128.9514887181454981
 30
-0.0000000000000198
 40
15.0000000000010907
210
0.0
220
-0.0000000000000002
230
-1.0
 50
90.0
 51
125.1060887534480059
  0
ARC
  5
20DF
  8
0
  6
CONTINUOUS
 62
     3
 10
162.316609171840895
 20
30.9535393489618613
 30
-0.0000000000000198
 40
7.000000000001056
210
0.0
220
-0.0000000000000002
230
-1.0
 50
54.8939112465564776
 51
84.0589240754381564
  0
ARC
  5
20E0
  8
0
  6
CONTINUOUS
 62
     3
 10
162.316609171840895
 20
146.9494380873314014
 30
-0.0000000000000198
 40
7.0000000000010543
210
0.0
220
-0.0000000000000002
230
-1.0
 50
275.9410759245619147
 51
305.1060887534434869
  0
CIRCLE
  5
20E1
  8
0
  6
VERDECKT
 62
     1
 10
-93.0411485316753755
 20
88.9514887181466349
 30
0.0
 40
49.0000000000000213
  0
ARC
  5
20E2
  8
0
  6
VERDECKT
 62
     1
 10
-93.0411485316753755
 20
88.9514887181466349
 30
0.0
 40
51.0000000000000071
 50
90.0
 51
270.0
  0
CIRCLE
  5
20E3
  8
0
  6
VERDECKT
 62
     1
 10
-93.0411485316753328
 20
88.9514887181466349
 30
0.0
 40
48.3000906917925619
  0
CIRCLE
  5
20E4
  8
0
  6
VERDECKT
 62
     1
 10
-93.0411485316753328
 20
88.9514887181466349
 30
0.0
 40
50.3077303668793121
  0
LINE
  5
20E5
  8
0
  6
VERDECKT
 62
     1
 10
-163.0411485316749065
 20
39.9514887181466065
 30
0.0000000000000109
 11
-93.0411485316753755
 21
39.9514887181466207
 31
0.0000000000000109
210
-0.0000000000000002
220
1.0
230
-0.0000000000000002
  0
LINE
  5
20E6
  8
0
  6
VERDECKT
 62
     1
 10
-93.0411485316753328
 20
137.9514887181466065
 30
-0.0000000000000109
 11
-163.0411485316749065
 21
137.9514887181466065
 31
-0.0000000000000109
210
-0.0000000000000002
220
1.0
230
-0.0000000000000002
  0
ARC
  5
20E7
  8
0
  6
VERDECKT
 62
     1
 10
162.3166091718406108
 20
30.9535393489619786
 30
-0.0000000000000198
 40
9.0000000000011102
210
0.0
220
-0.0000000000000002
230
-1.0
 50
54.8939112465514825
 51
85.3824422907027838
  0
ARC
  5
20E8
  8
0
  6
VERDECKT
 62
     1
 10
162.3166091718406108
 20
146.9494380873312878
 30
-0.0000000000000198
 40
9.0000000000011173
210
0.0
220
-0.0000000000000002
230
-1.0
 50
274.6175577092972162
 51
305.1060887534486028
  0
ARC
  5
20E9
  8
0
  6
VERDECKT
 62
     1
 10
174.9686374086224987
 20
48.9514887181479565
 30
-0.0000000000000198
 40
13.00000000000135
210
0.0
220
-0.0000000000000002
230
-1.0
 50
234.893911246552392
 51
270.0
  0
ARC
  5
20EA
  8
0
  6
VERDECKT
 62
     1
 10
174.9686374086224987
 20
128.9514887181451002
 30
-0.0000000000000198
 40
13.0000000000014904
210
0.0
220
-0.0000000000000002
230
-1.0
 50
90.0
 51
125.1060887534475938
  0
LINE
  5
20EB
  8
0
  6
VERDECKT
 62
     1
 10
-193.5409480009932963
 20
141.9514887181466065
 30
-0.0000000000000118
 11
-174.9686374086224134
 21
141.9514887181466065
 31
-0.0000000000000118
210
-0.0000000000000002
220
1.0
230
-0.0000000000000002
  0
LINE
  5
20EC
  8
0
  6
VERDECKT
 62
     1
 10
-193.5409480009932963
 20
35.9514887181465994
 30
0.0000000000000118
 11
-174.9686374086224134
 21
35.9514887181465994
 31
0.0000000000000118
210
-0.0000000000000002
220
1.0
230
-0.0000000000000002
  0
ARC
  5
20ED
  8
0
  6
VERDECKT
 62
     1
 10
193.5409480009932111
 20
21.951488718147079
 30
-0.0000000000000198
 40
13.9999999999995204
210
0.0
220
-0.0000000000000002
230
-1.0
 50
63.1119523822761224
 51
90.0
  0
ARC
  5
20EE
  8
0
  6
VERDECKT
 62
     1
 10
193.5409480009932963
 20
155.951488718145896
 30
-0.0000000000000198
 40
13.9999999999992806
210
0.0
220
-0.0000000000000002
230
-1.0
 50
270.0
 51
296.8880476177238847
  0
ARC
  5
20EF
  8
0
  6
VERDECKT
 62
     1
 10
210.2741485316743137
 20
54.9514887181451499
 30
-0.0000000000000198
 40
22.9999999999985612
210
0.0
220
-0.0000000000000002
230
-1.0
 50
243.1119523822725057
 51
270.0
  0
ARC
  5
20F0
  8
0
  6
VERDECKT
 62
     1
 10
210.2741485316743137
 20
122.9514887181478997
 30
-0.0000000000000198
 40
22.9999999999986784
210
0.0
220
-0.0000000000000002
230
-1.0
 50
90.0
 51
116.8880476177274943
  0
LINE
  5
20F1
  8
0
  6
VERDECKT
 62
     1
 10
-225.4363970691038048
 20
145.9514887181466065
 30
-0.0000000000000127
 11
-210.2741485316747969
 21
145.9514887181466065
 31
-0.0000000000000127
210
-0.0000000000000002
220
1.0
230
-0.0000000000000002
  0
LINE
  5
20F2
  8
0
  6
VERDECKT
 62
     1
 10
-225.4363970691038048
 20
31.9514887181465888
 30
0.0000000000000127
 11
-210.2741485316747969
 21
31.9514887181465888
 31
0.0000000000000127
210
-0.0000000000000002
220
1.0
230
-0.0000000000000002
  0
ARC
  5
20F3
  8
0
  6
VERDECKT
 62
     1
 10
225.4363970691044017
 20
54.9514887181429401
 30
-0.0000000000000198
 40
22.9999999999963407
210
0.0
220
-0.0000000000000002
230
-1.0
 50
270.0
 51
295.000000000002899
  0
ARC
  5
20F4
  8
0
  6
VERDECKT
 62
     1
 10
225.4363970691044017
 20
122.9514887181501024
 30
-0.0000000000000198
 40
22.9999999999964793
210
0.0
220
-0.0000000000000002
230
-1.0
 50
64.9999999999999574
 51
90.0
  0
LINE
  5
20F5
  8
0
  6
VERDECKT
 62
     1
 10
-238.0411485316749065
 20
142.4514887181466065
 30
-0.0000000000000119
 11
-235.1566170891393028
 21
143.7965678199898036
 31
-0.0000000000000122
210
-0.0000000000000002
220
1.0
230
-0.0000000000000002
  0
LINE
  5
20F6
  8
0
  6
VERDECKT
 62
     1
 10
-238.0411485316749065
 20
35.451488718146571
 30
0.0000000000000119
 11
-235.1566170891393028
 21
34.1064096163034733
 31
0.0000000000000122
210
-0.0000000000000002
220
1.0
230
-0.0000000000000002
  0
ENDBLK
  5
20F7
  8
0
  0
ENDSEC
  0
SECTION
  2
ENTITIES
  0
INSERT
  5
2102
  8
DEFPOINTS
  2
A$C11B25114
 10
1840.5130643237969252
 20
58.9789937763869077
 30
0.0
  0
INSERT
  5
2103
  8
DEFPOINTS
  2
A$C07A11E87
 10
1582.0765613469070558
 20
272.9961903186527934
 30
0.0
 50
180.0
  0
INSERT
  5
2104
  8
DEFPOINTS
  2
A$C31686CCD
 10
3534.0654311651342141
 20
392.0081892796213197
 30
0.0
 50
270.0
  0
VIEWPORT
  5
1E26
 67
     1
  8
0
 10
6.7114991730958797
 20
4.0318743243888937
 30
0.0
 40
20.4629473224824601
 41
11.2283864795160202
 68
     1
 69
     1
1001
ACAD
1000
MVIEW
1002
{
1070
    16
1010
0.0
1020
0.0
1030
0.0
1010
0.0
1020
0.0
1030
1.0
1040
0.0
1040
11.2283864795160202
1040
6.7114991730958797
1040
4.0318743243888937
1040
50.0
1040
0.0
1040
0.0
1070
     0
1070
  1500
1070
     1
1070
     1
1070
     0
1070
     0
1070
     0
1070
     0
1040
0.0
1040
0.0
1040
0.0
1040
10.0
1040
10.0
1040
10.0
1040
10.0
1070
     0
1002
{
1002
}
1002
}
  0
ENDSEC
  0
EOF
