  0
SECTION
  2
HEADER
  9
$ACADVER
  1
AC1009
  9
$INSBASE
 10
0.0
 20
0.0
 30
0.0
  9
$EXTMIN
 10
1112.667220710229
 20
-239.31795835628139
 30
-0.0000000000000438
  9
$EXTMAX
 10
2525.0154036075401
 20
706.31904639590743
 30
202.00000000000239
  9
$LIMMIN
 10
0.0
 20
0.0
  9
$LIMMAX
 10
840.0
 20
594.0
  9
$ORTHOMODE
 70
     1
  9
$REGENMODE
 70
     1
  9
$FILLMODE
 70
     1
  9
$QTEXTMODE
 70
     0
  9
$MIRRTEXT
 70
     1
  9
$DRAGMODE
 70
     2
  9
$LTSCALE
 40
20.0
  9
$OSMODE
 70
   311
  9
$ATTMODE
 70
     1
  9
$TEXTSIZE
 40
3.5
  9
$TRACEWID
 40
1.0
  9
$TEXTSTYLE
  7
STANDARD
  9
$CLAYER
  8
ROHR
  9
$CELTYPE
  6
BYLAYER
  9
$CECOLOR
 62
   256
  9
$DIMSCALE
 40
2.0
  9
$DIMASZ
 40
3.5
  9
$DIMEXO
 40
1.0
  9
$DIMDLI
 40
7.0
  9
$DIMRND
 40
0.0
  9
$DIMDLE
 40
0.0
  9
$DIMEXE
 40
1.0
  9
$DIMTP
 40
0.0
  9
$DIMTM
 40
0.0
  9
$DIMTXT
 40
3.5
  9
$DIMCEN
 40
1.5
  9
$DIMTSZ
 40
0.0
  9
$DIMTOL
 70
     0
  9
$DIMLIM
 70
     0
  9
$DIMTIH
 70
     0
  9
$DIMTOH
 70
     0
  9
$DIMSE1
 70
     0
  9
$DIMSE2
 70
     0
  9
$DIMTAD
 70
     1
  9
$DIMZIN
 70
     8
  9
$DIMBLK
  1

  9
$DIMASO
 70
     1
  9
$DIMSHO
 70
     0
  9
$DIMPOST
  1

  9
$DIMAPOST
  1

  9
$DIMALT
 70
     0
  9
$DIMALTD
 70
     2
  9
$DIMALTF
 40
25.399999999999999
  9
$DIMLFAC
 40
1.0
  9
$DIMTOFL
 70
     1
  9
$DIMTVP
 40
0.0
  9
$DIMTIX
 70
     0
  9
$DIMSOXD
 70
     0
  9
$DIMSAH
 70
     0
  9
$DIMBLK1
  1

  9
$DIMBLK2
  1

  9
$DIMSTYLE
  2
STANDARD
  9
$DIMCLRD
 70
     0
  9
$DIMCLRE
 70
     0
  9
$DIMCLRT
 70
     1
  9
$DIMTFAC
 40
0.5142857142857144
  9
$DIMGAP
 40
1.5
  9
$LUNITS
 70
     2
  9
$LUPREC
 70
     2
  9
$SKETCHINC
 40
1.0
  9
$FILLETRAD
 40
0.0
  9
$AUNITS
 70
     0
  9
$AUPREC
 70
     0
  9
$MENU
  1
ACAD
  9
$ELEVATION
 40
0.0
  9
$PELEVATION
 40
0.0
  9
$THICKNESS
 40
0.0
  9
$LIMCHECK
 70
     0
  9
$BLIPMODE
 70
     0
  9
$CHAMFERA
 40
0.0
  9
$CHAMFERB
 40
0.0
  9
$SKPOLY
 70
     0
  9
$TDCREATE
 40
2455397.825393172
  9
$TDUPDATE
 40
2458431.3422872229
  9
$TDINDWG
 40
0.1846769444
  9
$TDUSRTIMER
 40
0.1846769444
  9
$USRTIMER
 70
     1
  9
$ANGBASE
 50
0.0
  9
$ANGDIR
 70
     0
  9
$PDMODE
 70
     0
  9
$PDSIZE
 40
0.0
  9
$PLINEWID
 40
0.0
  9
$COORDS
 70
     1
  9
$SPLFRAME
 70
     0
  9
$SPLINETYPE
 70
     6
  9
$SPLINESEGS
 70
     8
  9
$ATTDIA
 70
     0
  9
$ATTREQ
 70
     0
  9
$HANDLING
 70
     1
  9
$HANDSEED
  5
1CC7
  9
$SURFTAB1
 70
     6
  9
$SURFTAB2
 70
     6
  9
$SURFTYPE
 70
     6
  9
$SURFU
 70
     6
  9
$SURFV
 70
     6
  9
$UCSNAME
  2

  9
$UCSORG
 10
0.0
 20
0.0
 30
0.0
  9
$UCSXDIR
 10
1.0
 20
0.0
 30
0.0
  9
$UCSYDIR
 10
0.0
 20
1.0
 30
0.0
  9
$PUCSNAME
  2

  9
$PUCSORG
 10
0.0
 20
0.0
 30
0.0
  9
$PUCSXDIR
 10
1.0
 20
0.0
 30
0.0
  9
$PUCSYDIR
 10
0.0
 20
1.0
 30
0.0
  9
$USERI1
 70
     0
  9
$USERI2
 70
     0
  9
$USERI3
 70
     0
  9
$USERI4
 70
     0
  9
$USERI5
 70
     0
  9
$USERR1
 40
0.0
  9
$USERR2
 40
0.0
  9
$USERR3
 40
0.0
  9
$USERR4
 40
0.0
  9
$USERR5
 40
0.0
  9
$WORLDVIEW
 70
     1
  9
$SHADEDGE
 70
     3
  9
$SHADEDIF
 70
    70
  9
$TILEMODE
 70
     1
  9
$MAXACTVP
 70
    16
  9
$PLIMCHECK
 70
     0
  9
$PEXTMIN
 10
-0.0039919200930854
 20
-0.027688620950812
 30
-0.0000000349181948
  9
$PEXTMAX
 10
895.45870164402902
 20
633.21722920303637
 30
0.0000000814935746
  9
$PLIMMIN
 10
-0.2500002402958907
 20
-0.2499999962453767
  9
$PLIMMAX
 10
10.74999951940822
 20
8.2499997634587334
  9
$UNITMODE
 70
     0
  9
$VISRETAIN
 70
     0
  9
$PLINEGEN
 70
     0
  9
$PSLTSCALE
 70
     0
  0
ENDSEC
  0
SECTION
  2
TABLES
  0
TABLE
  2
VPORT
 70
     1
  0
VPORT
  2
*ACTIVE
 70
     0
 10
0.0
 20
0.0
 11
1.0
 21
1.0
 12
-119.7904107679783
 22
397.29767155073301
 13
0.0
 23
0.0
 14
1.0
 24
1.0
 15
10.0
 25
10.0
 16
-0.0000000000009095
 26
0.0
 36
3863.3852392871358
 17
2230.8947619800779
 27
91.894579008498567
 37
-710.54375033460292
 40
551.6802047306802
 41
2.1217510259917911
 42
50.0
 43
0.0
 44
0.0
 50
0.0
 51
0.0
 71
     0
 72
  1500
 73
     1
 74
     1
 75
     0
 76
     0
 77
     0
 78
     0
  0
ENDTAB
  0
TABLE
  2
LTYPE
 70
     4
  0
LTYPE
  2
CONTINUOUS
 70
     0
  3
Solid line
 72
    65
 73
     0
 40
0.0
  0
LTYPE
  2
PHANTOM2
 70
     0
  3
Phantom (.5x) ___ _ _ ___ _ _ ___ _ _ ___ _ _
 72
    65
 73
     6
 40
1.25
 49
0.625
 49
-0.125
 49
0.125
 49
-0.125
 49
0.125
 49
-0.125
  0
LTYPE
  2
VERDECKT
 70
     0
  3
Verdeckt __ __ __ __ __ __ __ __ __ __ __ __ __
 72
    65
 73
     2
 40
0.375
 49
0.25
 49
-0.125
  0
ENDTAB
  0
TABLE
  2
LAYER
 70
    10
  0
LAYER
  2
0
 70
     0
 62
     7
  6
CONTINUOUS
  0
LAYER
  2
VOLL
 70
     0
 62
     1
  6
CONTINUOUS
  0
LAYER
  2
DEFPOINTS
 70
     0
 62
     7
  6
CONTINUOUS
  0
LAYER
  2
ROHR
 70
     0
 62
   252
  6
CONTINUOUS
  0
ENDTAB
  0
TABLE
  2
STYLE
 70
     5
  0
STYLE
  2
STANDARD
 70
     0
 40
0.0
 41
0.8
 50
0.0
 71
     0
 42
3.5
  3
simplex.shx
  4

  0
STYLE
  2
GREEKS
 70
     0
 40
0.0
 41
0.8
 50
0.0
 71
     0
 42
2.5
  3
SIMPLEX.shx
  4

  0
ENDTAB
  0
TABLE
  2
VIEW
 70
     4
  0
ENDTAB
  0
TABLE
  2
UCS
 70
     0
  0
ENDTAB
  0
TABLE
  2
APPID
 70
    15
  0
APPID
  2
ACAD
 70
     0
  0
APPID
  2
ACAD_NAV_VCDISPLAY
 70
     0
  0
APPID
  2
ACAD_MLEADERVER
 70
     0
  0
APPID
  2
ACAD_EXEMPT_FROM_CAD_STANDARDS
 70
     0
  0
APPID
  2
GRADIENTCOLOR1ACI
 70
     0
  0
APPID
  2
GRADIENTCOLOR2ACI
 70
     0
  0
APPID
  2
ACAD_PSEXT
 70
     0
  0
APPID
  2
ACDBDYNAMICBLOCKGUID
 70
     0
  0
APPID
  2
ACAD_OBJECT_CHANGE_GUID
 70
     0
  0
APPID
  2
ACAD_DSTYLE_DIMRADIAL_EXTENSION
 70
     0
  0
APPID
  2
ACADANNOMONITORALERTICONDI
 70
     0
  0
APPID
  2
ACAECLAYERSTANDARD
 70
     0
  0
APPID
  2
ACCMTRANSPARENCY
 70
     0
  0
APPID
  2
ACAD_STEPID
 70
     0
  0
APPID
  2
ACAD_ASSOCPERSSUBENTMANAGER
 70
     0
  0
ENDTAB
  0
TABLE
  2
DIMSTYLE
 70
     3
  0
DIMSTYLE
  2
STANDARD
 70
     0
  3

  4

  5

  6

  7

 40
1.0
 41
0.18
 42
0.0625
 43
0.38
 44
0.18
 45
0.0
 46
0.0
 47
0.0
 48
0.0
140
0.18
141
0.09
142
0.0
143
25.399999999999999
144
1.0
145
0.0
146
1.0
147
0.09
 71
     0
 72
     0
 73
     1
 74
     1
 75
     0
 76
     0
 77
     0
 78
     0
170
     0
171
     2
172
     0
173
     0
174
     0
175
     0
176
     0
177
     0
178
     0
  0
ENDTAB
  0
ENDSEC
  0
SECTION
  2
BLOCKS
  0
BLOCK
  8
0
  2
$MODEL_SPACE
 70
     0
 10
0.0
 20
0.0
 30
0.0
  3
$MODEL_SPACE
  1

  0
ENDBLK
  5
38
  8
0
  0
BLOCK
 67
     1
  8
0
  2
$PAPER_SPACE
 70
     0
 10
0.0
 20
0.0
 30
0.0
  3
$PAPER_SPACE
  1

  0
ENDBLK
  5
36
 67
     1
  8
0
  0
BLOCK
  8
0
  2
A$C7A6D1E84
 70
     0
 10
0.0
 20
0.0
 30
0.0
  3
A$C7A6D1E84
  1

  0
LINE
  5
1B96
  8
0
  6
CONTINUOUS
 62
     3
 10
1140.8838085965599
 20
103.47723998902001
 30
0.000000000000023
 11
1172.8838085965619
 21
103.47723998902001
 31
0.000000000000023
210
0.0
220
1.0
230
0.0000000000000002
  0
ARC
  5
1B97
  8
0
  6
CONTINUOUS
 62
     3
 10
-1140.883808596561
 20
106.47723998902011
 30
0.0
 40
3.000000000000155
210
0.0
220
0.0000000000000002
230
-1.0
 50
270.0
 51
359.99999999999272
  0
ARC
  5
1B98
  8
0
  6
CONTINUOUS
 62
     3
 10
-1172.883808596561
 20
106.47723998902011
 30
0.0
 40
3.0000000000002269
210
0.0
220
0.0000000000000002
230
-1.0
 50
180.0000000000029
 51
269.99999999999562
  0
LINE
  5
1B99
  8
0
  6
CONTINUOUS
 62
     3
 10
1122.883808596561
 20
106.47723998902001
 30
0.0000000000000236
 11
1190.883808596561
 21
106.47723998902001
 31
0.0000000000000236
210
0.0
220
1.0
230
0.0000000000000002
  0
ARC
  5
1B9A
  8
0
  6
CONTINUOUS
 62
     3
 10
-1124.199226858201
 20
108.7316022174012
 30
0.0
 40
2.610071696296508
210
0.0
220
0.0000000000000002
230
-1.0
 50
300.26352172036411
 51
38.268462399960612
  0
ARC
  5
1B9B
  8
0
  6
CONTINUOUS
 62
     3
 10
-1189.5683903349211
 20
108.7316022174012
 30
0.0
 40
2.6100716962964752
210
0.0
220
0.0000000000000002
230
-1.0
 50
141.7315376000393
 51
239.73647827963589
  0
LINE
  5
1B9C
  8
0
  6
CONTINUOUS
 62
     3
 10
1117.1184112682861
 20
202.00000000000239
 30
0.0000000000000449
 11
1196.649205924836
 21
202.00000000000239
 31
0.0000000000000449
210
0.0
220
1.0
230
0.0000000000000002
  0
LINE
  5
1B9D
  8
0
  6
CONTINUOUS
 62
     3
 10
1198.9838085965609
 20
191.45107759288371
 30
0.0000000000000425
 11
1198.9838085965609
 21
186.63171995180511
 31
0.0000000000000414
210
0.0
220
1.0
230
0.0000000000000002
  0
LINE
  5
1B9E
  8
0
  6
CONTINUOUS
 62
     3
 10
1114.7838085965609
 20
191.45107759288371
 30
0.0000000000000425
 11
1114.7838085965609
 21
186.63171995180511
 31
0.0000000000000414
210
0.0
220
1.0
230
0.0000000000000002
  0
ARC
  5
1B9F
  8
0
  6
CONTINUOUS
 62
     3
 10
-1139.7838085965529
 20
186.70000000000061
 30
0.0
 40
25.00009324311733
210
0.0
220
0.0000000000000002
230
-1.0
 50
338.81684560696038
 51
359.84351404563762
  0
ARC
  5
1BA0
  8
0
  6
CONTINUOUS
 62
     3
 10
-1173.98380859657
 20
186.70000000000061
 30
0.0
 40
25.000093243117099
210
0.0
220
0.0000000000000002
230
-1.0
 50
180.1564859543623
 51
201.18315439303959
  0
ARC
  5
1BA1
  8
0
  6
CONTINUOUS
 62
     3
 10
-1105.2838085965709
 20
173.33000000000411
 30
0.0
 40
11.999999999990241
210
0.0
220
0.0000000000000002
230
-1.0
 50
158.81684560695649
 51
180.00000000000821
  0
ARC
  5
1BA2
  8
0
  6
CONTINUOUS
 62
     3
 10
-1208.4838085965509
 20
173.33000000000419
 30
0.0
 40
11.99999999998999
210
0.0
220
0.0000000000000002
230
-1.0
 50
359.99999999999159
 51
21.183154393043608
  0
LINE
  5
1BA3
  8
0
  6
CONTINUOUS
 62
     3
 10
1196.4838085965609
 20
173.3300000000024
 30
0.0000000000000385
 11
1196.4838085965609
 21
152.38872641741949
 31
0.0000000000000338
210
0.0
220
1.0
230
0.0000000000000002
  0
LINE
  5
1BA4
  8
0
  6
CONTINUOUS
 62
     3
 10
1117.2838085965609
 20
173.3300000000024
 30
0.0000000000000385
 11
1117.2838085965609
 21
152.38872641741949
 31
0.0000000000000338
210
0.0
220
1.0
230
0.0000000000000002
  0
ARC
  5
1BA5
  8
0
  6
CONTINUOUS
 62
     3
 10
-1129.28380859656
 20
152.38872641741901
 30
0.0
 40
11.999999999998639
210
0.0
220
0.0000000000000002
230
-1.0
 50
327.67193587783669
 51
0.0000000000021755
  0
ARC
  5
1BA6
  8
0
  6
CONTINUOUS
 62
     3
 10
-1184.4838085965621
 20
152.38872641741901
 30
0.0
 40
11.99999999999863
210
0.0
220
0.0000000000000002
230
-1.0
 50
179.99999999999781
 51
212.3280641221632
  0
ARC
  5
1BA7
  8
0
  6
CONTINUOUS
 62
     3
 10
-1112.3838085965631
 20
141.69340033543469
 30
0.0
 40
7.999999999997951
210
0.0
220
0.0000000000000002
230
-1.0
 50
147.67193587783331
 51
180.00000000000659
  0
ARC
  5
1BA8
  8
0
  6
CONTINUOUS
 62
     3
 10
-1201.383808596559
 20
141.69340033543469
 30
0.0
 40
7.9999999999979527
210
0.0
220
0.0000000000000002
230
-1.0
 50
359.99999999999329
 51
32.328064122166609
  0
LINE
  5
1BA9
  8
0
  6
CONTINUOUS
 62
     3
 10
1193.383808596561
 20
141.69340033543381
 30
0.0000000000000315
 11
1193.383808596561
 21
117.4650648593439
 31
0.0000000000000261
210
0.0
220
1.0
230
0.0000000000000002
  0
LINE
  5
1BAA
  8
0
  6
CONTINUOUS
 62
     3
 10
1120.383808596561
 20
141.69340033543381
 30
0.0000000000000315
 11
1120.383808596561
 21
117.4650648593439
 31
0.0000000000000261
210
0.0
220
1.0
230
0.0000000000000002
  0
ARC
  5
1BAB
  8
0
  6
CONTINUOUS
 62
     3
 10
-1130.5324898703291
 20
117.5499909055935
 30
0.0
 40
10.149036605996271
210
0.0
220
0.0000000000000002
230
-1.0
 50
342.64597536373941
 51
359.52054948681888
  0
ARC
  5
1BAC
  8
0
  6
CONTINUOUS
 62
     3
 10
-1183.235127322793
 20
117.5499909055935
 30
0.0
 40
10.149036605996271
210
0.0
220
0.0000000000000002
230
-1.0
 50
180.47945051318089
 51
197.3540246362605
  0
LINE
  5
1BAD
  8
0
  6
CONTINUOUS
 62
     3
 10
1122.1500141550359
 20
110.3481422128833
 30
0.0000000000000245
 11
1120.845437633561
 21
114.5227870816036
 31
0.0000000000000254
210
0.0
220
1.0
230
0.0000000000000002
  0
LINE
  5
1BAE
  8
0
  6
CONTINUOUS
 62
     3
 10
1191.6176030380859
 20
110.3481422128833
 30
0.0000000000000245
 11
1192.922179559562
 21
114.5227870816036
 31
0.0000000000000254
210
0.0
220
1.0
230
0.0000000000000002
  0
ARC
  5
1BAF
  8
0
  6
CONTINUOUS
 62
     3
 10
-1139.7838085965641
 20
191.451077592883
 30
0.0
 40
25.000000000003411
210
0.0
220
0.0000000000000002
230
-1.0
 50
0.0000000000017684
 51
24.95819631231392
  0
ARC
  5
1BB0
  8
0
  6
CONTINUOUS
 62
     3
 10
-1173.983808596558
 20
191.451077592883
 30
0.0
 40
25.000000000003411
210
0.0
220
0.0000000000000002
230
-1.0
 50
155.0418036876861
 51
179.99999999999821
  0
LINE
  5
1BB1
  8
0
  6
CONTINUOUS
 62
     3
 10
1140.883808596561
 20
46.000000000001528
 30
0.0000000000000102
 11
1172.883808596561
 21
78.000000000001648
 31
0.0000000000000173
210
0.0
220
1.0
230
0.0000000000000002
  0
LINE
  5
1BB2
  8
0
  6
CONTINUOUS
 62
     3
 10
1172.883808596561
 20
103.47723998902001
 30
0.000000000000023
 11
1172.883808596561
 21
78.000000000001648
 31
0.0000000000000173
210
0.0
220
1.0
230
0.0000000000000002
  0
LINE
  5
1BB3
  8
0
  6
CONTINUOUS
 62
     3
 10
1140.883808596561
 20
103.47723998902001
 30
0.000000000000023
 11
1140.883808596561
 21
46.000000000003411
 31
0.0000000000000102
210
0.0
220
1.0
230
0.0000000000000002
  0
LINE
  5
1BB4
  8
0
  6
CONTINUOUS
 62
     3
 10
1122.883808596561
 20
106.47723998902001
 30
0.0000000000000236
 11
1190.883808596561
 21
106.47723998902001
 31
0.0000000000000236
210
0.0
220
1.0
230
0.0000000000000002
  0
LINE
  5
1BB5
  8
0
  6
CONTINUOUS
 62
     3
 10
1140.883808596561
 20
46.000000000001563
 30
0.0000000000000102
 11
1172.883808596561
 21
78.00000000000162
 31
0.0000000000000173
210
0.0
220
1.0
230
0.0000000000000002
  0
LINE
  5
1BB6
  8
0
  6
CONTINUOUS
 62
     3
 10
1656.883808596561
 20
46.433623480087867
 30
0.0000000000000103
 11
1656.883808596561
 21
77.566376519915309
 31
0.0000000000000172
210
0.0
220
1.0
230
0.0000000000000002
  0
LINE
  5
1BB7
  8
0
  6
CONTINUOUS
 62
     3
 10
1172.883808596561
 20
78.00000000000162
 30
0.0000000000000173
 11
1651.9274695394699
 21
78.00000000000162
 31
0.0000000000000173
210
0.0
220
1.0
230
0.0000000000000002
  0
LINE
  5
1BB8
  8
0
  6
CONTINUOUS
 62
     3
 10
1140.8838085965631
 20
46.000000000001563
 30
0.0000000000000102
 11
1651.9274695394699
 21
46.000000000001563
 31
0.0000000000000102
210
0.0
220
1.0
230
0.0000000000000002
  0
LINE
  5
1BB9
  8
0
  6
CONTINUOUS
 62
     3
 10
1656.883808596561
 20
46.433623480087867
 30
0.0000000000000103
 11
1651.9274695394699
 21
46.000000000001592
 31
0.0000000000000102
210
0.0
220
1.0
230
0.0000000000000002
  0
LINE
  5
1BBA
  8
0
  6
CONTINUOUS
 62
     3
 10
1656.883808596561
 20
77.566376519915309
 30
0.0000000000000172
 11
1651.9274695394699
 21
78.000000000001592
 31
0.0000000000000173
210
0.0
220
1.0
230
0.0000000000000002
  0
LINE
  5
1BBB
  8
0
  6
VERDECKT
 62
     1
 10
1125.0839595146799
 20
108.0000000000025
 30
0.000000000000024
 11
1122.825208761298
 21
115.2280024108242
 31
0.0000000000000256
210
0.0
220
1.0
230
0.0000000000000002
  0
LINE
  5
1BBC
  8
0
  6
VERDECKT
 62
     1
 10
1188.6836576784419
 20
108.0000000000025
 30
0.000000000000024
 11
1190.9424084318241
 21
115.2280024108242
 31
0.0000000000000256
210
0.0
220
1.0
230
0.0000000000000002
  0
ARC
  5
1BBD
  8
0
  6
VERDECKT
 62
     1
 10
-1129.983808596576
 20
117.4650648593452
 30
0.0
 40
7.5000000000145404
210
0.0
220
0.0000000000000002
230
-1.0
 50
342.64597536376237
 51
359.99999999998988
  0
ARC
  5
1BBE
  8
0
  6
VERDECKT
 62
     1
 10
-1183.7838085965459
 20
117.4650648593452
 30
0.0
 40
7.500000000014551
210
0.0
220
0.0000000000000002
230
-1.0
 50
180.00000000001
 51
197.35402463623751
  0
LINE
  5
1BBF
  8
0
  6
VERDECKT
 62
     1
 10
1191.2838085965609
 20
141.69340033543381
 30
0.0000000000000315
 11
1191.2838085965609
 21
117.4650648593439
 31
0.0000000000000261
210
0.0
220
1.0
230
0.0000000000000002
  0
LINE
  5
1BC0
  8
0
  6
VERDECKT
 62
     1
 10
1122.4838085965609
 20
141.69340033543381
 30
0.0000000000000315
 11
1122.4838085965609
 21
117.4650648593439
 31
0.0000000000000261
210
0.0
220
1.0
230
0.0000000000000002
  0
ARC
  5
1BC1
  8
0
  6
VERDECKT
 62
     1
 10
-1112.3838085965619
 20
141.69340033543381
 30
0.0
 40
10.099999999999
210
0.0
220
0.0000000000000002
230
-1.0
 50
147.67193587783439
 51
179.9999999999998
  0
ARC
  5
1BC2
  8
0
  6
VERDECKT
 62
     1
 10
-1201.3838085965599
 20
141.69340033543381
 30
0.0
 40
10.099999999999
210
0.0
220
0.0000000000000002
230
-1.0
 50
0.0000000000001654
 51
32.328064122165607
  0
ARC
  5
1BC3
  8
0
  6
VERDECKT
 62
     1
 10
-1129.283808596562
 20
152.3887264174202
 30
0.0
 40
9.9000000000014552
210
0.0
220
0.0000000000000002
230
-1.0
 50
327.67193587783788
 51
359.99999999999511
  0
ARC
  5
1BC4
  8
0
  6
VERDECKT
 62
     1
 10
-1184.48380859656
 20
152.3887264174202
 30
0.0
 40
9.9000000000014552
210
0.0
220
0.0000000000000002
230
-1.0
 50
180.00000000000489
 51
212.32806412216209
  0
LINE
  5
1BC5
  8
0
  6
VERDECKT
 62
     1
 10
1194.383808596561
 20
173.3300000000024
 30
0.0000000000000385
 11
1194.383808596561
 21
152.38872641741941
 31
0.0000000000000338
210
0.0
220
1.0
230
0.0000000000000002
  0
LINE
  5
1BC6
  8
0
  6
VERDECKT
 62
     1
 10
1119.383808596561
 20
173.3300000000024
 30
0.0000000000000385
 11
1119.383808596561
 21
152.38872641741941
 31
0.0000000000000338
210
0.0
220
1.0
230
0.0000000000000002
  0
ARC
  5
1BC7
  8
0
  6
VERDECKT
 62
     1
 10
-1105.0677107877291
 20
173.2895912736214
 30
0.0
 40
14.316154837707099
210
0.0
220
0.0000000000000002
230
-1.0
 50
158.9785686797934
 51
179.83827692717259
  0
ARC
  5
1BC8
  8
0
  6
VERDECKT
 62
     1
 10
-1208.699906405393
 20
173.2895912736214
 30
0.0
 40
14.316154837707099
210
0.0
220
0.0000000000000002
230
-1.0
 50
0.1617230728273578
 51
21.021431320206538
  0
ARC
  5
1BC9
  8
0
  6
VERDECKT
 62
     1
 10
-1140.132198491772
 20
186.76463757147411
 30
0.0
 40
23.24839188757942
210
0.0
220
0.0000000000000002
230
-1.0
 50
338.97856867978749
 51
0.0000243584518517
  0
ARC
  5
1BCA
  8
0
  6
VERDECKT
 62
     1
 10
-1173.6354187013501
 20
186.76463757147411
 30
0.0
 40
23.24839188757943
210
0.0
220
0.0000000000000002
230
-1.0
 50
179.9999756415481
 51
201.0214313202124
  0
LINE
  5
1BCB
  8
0
  6
VERDECKT
 62
     1
 10
1196.883808596561
 20
191.45107759288371
 30
0.0000000000000425
 11
1196.8838105889281
 21
186.76464745518351
 31
0.0000000000000415
210
0.0
220
1.0
230
0.0000000000000002
  0
LINE
  5
1BCC
  8
0
  6
VERDECKT
 62
     1
 10
1116.883808596561
 20
191.45107759288371
 30
0.0000000000000425
 11
1116.883806604194
 21
186.76464745518351
 31
0.0000000000000415
210
0.0
220
1.0
230
0.0000000000000002
  0
ARC
  5
1BCD
  8
0
  6
VERDECKT
 62
     1
 10
-1139.7838085965391
 20
191.45107759288851
 30
0.0
 40
22.899999999978029
210
0.0
220
0.0000000000000002
230
-1.0
 50
359.99999999998812
 51
25.000000000008761
  0
ARC
  5
1BCE
  8
0
  6
VERDECKT
 62
     1
 10
-1173.983808596583
 20
191.45107759288851
 30
0.0
 40
22.899999999978061
210
0.0
220
0.0000000000000002
230
-1.0
 50
154.99999999999119
 51
180.00000000001199
  0
LINE
  5
1BCF
  8
0
  6
VERDECKT
 62
     1
 10
1194.33211963708
 20
202.00000000000239
 30
0.0000000000000449
 11
1194.7382569197009
 21
201.1290357867444
 31
0.0000000000000447
210
0.0
220
1.0
230
0.0000000000000002
  0
LINE
  5
1BD0
  8
0
  6
VERDECKT
 62
     1
 10
1119.435497556042
 20
202.00000000000239
 30
0.0000000000000449
 11
1119.0293602734209
 21
201.1290357867444
 31
0.0000000000000447
210
0.0
220
1.0
230
0.0000000000000002
  0
LINE
  5
1BD1
  8
0
  6
VERDECKT
 62
     1
 10
1194.883808596561
 20
202.00000000000239
 30
0.0000000000000449
 11
1195.19141081322
 21
201.3403449176148
 31
0.0000000000000447
210
0.0
220
1.0
230
0.0000000000000002
  0
LINE
  5
1BD2
  8
0
  6
VERDECKT
 62
     1
 10
1118.883808596561
 20
202.00000000000239
 30
0.0000000000000449
 11
1118.5762063799029
 21
201.3403449176148
 31
0.0000000000000447
210
0.0
220
1.0
230
0.0000000000000002
  0
ARC
  5
1BD3
  8
0
  6
VERDECKT
 62
     1
 10
-1139.7838085965579
 20
191.45107759288391
 30
0.0
 40
23.399999999997359
210
0.0
220
0.0000000000000002
230
-1.0
 50
359.99999999999937
 51
24.99999999999859
  0
ARC
  5
1BD4
  8
0
  6
VERDECKT
 62
     1
 10
-1173.9838085965639
 20
191.45107759288391
 30
0.0
 40
23.399999999997359
210
0.0
220
0.0000000000000002
230
-1.0
 50
155.00000000000139
 51
180.00000000000051
  0
LINE
  5
1BD5
  8
0
  6
VERDECKT
 62
     1
 10
1197.383808596561
 20
191.45107759288371
 30
0.0000000000000425
 11
1197.383808596561
 21
186.63394103401899
 31
0.0000000000000414
210
0.0
220
1.0
230
0.0000000000000002
  0
LINE
  5
1BD6
  8
0
  6
VERDECKT
 62
     1
 10
1116.383808596561
 20
191.45107759288371
 30
0.0000000000000425
 11
1116.383808596561
 21
186.63394103401899
 31
0.0000000000000414
210
0.0
220
1.0
230
0.0000000000000002
  0
ARC
  5
1BD7
  8
0
  6
VERDECKT
 62
     1
 10
-1139.7838085965659
 20
186.70000000000331
 30
0.0
 40
23.400093243131
210
0.0
220
0.0000000000000002
230
-1.0
 50
338.8168456069659
 51
359.838252568575
  0
ARC
  5
1BD8
  8
0
  6
VERDECKT
 62
     1
 10
-1173.9838085965559
 20
186.70000000000331
 30
0.0
 40
23.40009324313101
210
0.0
220
0.0000000000000002
230
-1.0
 50
180.1617474314248
 51
201.18315439303399
  0
ARC
  5
1BD9
  8
0
  6
VERDECKT
 62
     1
 10
-1105.2838085965641
 20
173.33000000000311
 30
0.0
 40
13.59999999999717
210
0.0
220
0.0000000000000002
230
-1.0
 50
158.8168456069647
 51
180.0000000000029
  0
ARC
  5
1BDA
  8
0
  6
VERDECKT
 62
     1
 10
-1208.4838085965589
 20
173.33000000000311
 30
0.0
 40
13.599999999997181
210
0.0
220
0.0000000000000002
230
-1.0
 50
359.99999999999699
 51
21.183154393035242
  0
LINE
  5
1BDB
  8
0
  6
VERDECKT
 62
     1
 10
1194.883808596561
 20
173.3300000000024
 30
0.0000000000000385
 11
1194.883808596561
 21
152.38872641741941
 31
0.0000000000000338
210
0.0
220
1.0
230
0.0000000000000002
  0
LINE
  5
1BDC
  8
0
  6
VERDECKT
 62
     1
 10
1118.883808596561
 20
173.3300000000024
 30
0.0000000000000385
 11
1118.883808596561
 21
152.38872641741941
 31
0.0000000000000338
210
0.0
220
1.0
230
0.0000000000000002
  0
ARC
  5
1BDD
  8
0
  6
VERDECKT
 62
     1
 10
-1129.2838085965559
 20
152.3887264174181
 30
0.0
 40
10.399999999994879
210
0.0
220
0.0000000000000002
230
-1.0
 50
327.6719358778285
 51
0.0000000000070481
  0
ARC
  5
1BDE
  8
0
  6
VERDECKT
 62
     1
 10
-1184.483808596566
 20
152.3887264174181
 30
0.0
 40
10.39999999999486
210
0.0
220
0.0000000000000002
230
-1.0
 50
179.99999999999301
 51
212.32806412217141
  0
ARC
  5
1BDF
  8
0
  6
VERDECKT
 62
     1
 10
-1112.383808596561
 20
141.6934003354333
 30
0.0
 40
9.6000000000003425
210
0.0
220
0.0000000000000002
230
-1.0
 50
147.67193587783541
 51
179.9999999999969
  0
ARC
  5
1BE0
  8
0
  6
VERDECKT
 62
     1
 10
-1201.383808596561
 20
141.6934003354333
 30
0.0
 40
9.6000000000003638
210
0.0
220
0.0000000000000002
230
-1.0
 50
0.0000000000030533
 51
32.328064122164598
  0
LINE
  5
1BE1
  8
0
  6
VERDECKT
 62
     1
 10
1191.7838085965609
 20
141.69340033543381
 30
0.0000000000000315
 11
1191.7838085965609
 21
117.4650648593439
 31
0.0000000000000261
210
0.0
220
1.0
230
0.0000000000000002
  0
LINE
  5
1BE2
  8
0
  6
VERDECKT
 62
     1
 10
1121.9838085965609
 20
141.69340033543381
 30
0.0000000000000315
 11
1121.9838085965609
 21
117.4650648593439
 31
0.0000000000000261
210
0.0
220
1.0
230
0.0000000000000002
  0
ARC
  5
1BE3
  8
0
  6
VERDECKT
 62
     1
 10
-1129.983808596558
 20
117.4650648593435
 30
0.0
 40
7.9999999999970512
210
0.0
220
0.0000000000000002
230
-1.0
 50
342.64597536373702
 51
0.0000000000032569
  0
ARC
  5
1BE4
  8
0
  6
VERDECKT
 62
     1
 10
-1183.7838085965641
 20
117.4650648593435
 30
0.0
 40
7.9999999999970441
210
0.0
220
0.0000000000000002
230
-1.0
 50
179.9999999999967
 51
197.35402463626289
  0
LINE
  5
1BE5
  8
0
  6
VERDECKT
 62
     1
 10
1124.5601140579849
 20
108.0000000000026
 30
0.000000000000024
 11
1122.34796877228
 21
115.0788649142565
 31
0.0000000000000256
210
0.0
220
1.0
230
0.0000000000000002
  0
LINE
  5
1BE6
  8
0
  6
VERDECKT
 62
     1
 10
1189.2075031351369
 20
108.0000000000026
 30
0.000000000000024
 11
1191.4196484208419
 21
115.0788649142565
 31
0.0000000000000256
210
0.0
220
1.0
230
0.0000000000000002
  0
LINE
  5
1BE7
  8
0
  6
VERDECKT
 62
     1
 10
1123.796652853815
 20
108.50000000000389
 30
0.0000000000000241
 11
1189.796652853815
 21
108.50000000000389
 31
0.0000000000000241
210
0.0
220
1.0
230
0.0000000000000002
  0
LINE
  5
1BE8
  8
0
  6
VERDECKT
 62
     1
 10
1171.796652853815
 20
108.50000000000389
 30
0.0000000000000241
 11
1171.796652853815
 21
108.00000000000399
 31
0.000000000000024
210
0.0
220
1.0
230
0.0000000000000002
  0
LINE
  5
1BE9
  8
0
  6
VERDECKT
 62
     1
 10
1141.796652853815
 20
108.50000000000389
 30
0.0000000000000241
 11
1141.796652853815
 21
108.00000000000399
 31
0.000000000000024
210
0.0
220
1.0
230
0.0000000000000002
  0
LINE
  5
1BEA
  8
0
  6
VERDECKT
 62
     1
 10
1189.796652853815
 20
108.50000000000389
 30
0.0000000000000241
 11
1189.796652853815
 21
108.00000000000399
 31
0.000000000000024
210
0.0
220
1.0
230
0.0000000000000002
  0
LINE
  5
1BEB
  8
0
  6
VERDECKT
 62
     1
 10
1123.796652853815
 20
108.50000000000389
 30
0.0000000000000241
 11
1123.796652853815
 21
108.00000000000399
 31
0.000000000000024
210
0.0
220
1.0
230
0.0000000000000002
  0
LINE
  5
1BEC
  8
0
  6
VERDECKT
 62
     1
 10
1156.796652853815
 20
62.000000000001592
 30
0.0000000000000138
 11
1141.7966528538161
 21
47.000000000002267
 31
0.0000000000000104
210
0.0
220
1.0
230
0.0000000000000002
  0
LINE
  5
1BED
  8
0
  6
VERDECKT
 62
     1
 10
1171.7966528538141
 20
77.000000000000909
 30
0.0000000000000171
 11
1156.796652853815
 21
62.000000000001592
 31
0.0000000000000138
210
0.0
220
1.0
230
0.0000000000000002
  0
LINE
  5
1BEE
  8
0
  6
VERDECKT
 62
     1
 10
1656.7966528538129
 20
47.939353236402887
 30
0.0000000000000106
 11
1651.7748223823589
 21
47.500000000001577
 31
0.0000000000000105
210
0.0
220
1.0
230
0.0000000000000002
  0
LINE
  5
1BEF
  8
0
  6
VERDECKT
 62
     1
 10
1656.7966528538129
 20
76.060646763600261
 30
0.0000000000000169
 11
1651.7748223823589
 21
76.50000000000162
 31
0.000000000000017
210
0.0
220
1.0
230
0.0000000000000002
  0
LINE
  5
1BF0
  8
0
  6
VERDECKT
 62
     1
 10
1656.7966528538129
 20
47.437443317631228
 30
0.0000000000000105
 11
1651.7966528538129
 21
47.000000000001599
 31
0.0000000000000104
210
0.0
220
1.0
230
0.0000000000000002
  0
LINE
  5
1BF1
  8
0
  6
VERDECKT
 62
     1
 10
1656.7966528538129
 20
76.562556682371948
 30
0.000000000000017
 11
1651.7966528538129
 21
77.000000000001577
 31
0.0000000000000171
210
0.0
220
1.0
230
0.0000000000000002
  0
LINE
  5
1BF2
  8
0
  6
VERDECKT
 62
     1
 10
1651.7966528538129
 20
47.000000000001592
 30
0.0000000000000104
 11
1141.7966528538161
 21
47.000000000001592
 31
0.0000000000000104
210
0.0
220
1.0
230
0.0000000000000002
  0
LINE
  5
1BF3
  8
0
  6
VERDECKT
 62
     1
 10
1651.7966528538129
 20
77.000000000001592
 30
0.0000000000000171
 11
1171.7966528538141
 21
77.000000000001592
 31
0.0000000000000171
210
0.0
220
1.0
230
0.0000000000000002
  0
LINE
  5
1BF4
  8
0
  6
VERDECKT
 62
     1
 10
1651.7748223823589
 20
47.500000000001577
 30
0.0000000000000105
 11
1142.2966528538161
 21
47.500000000001577
 31
0.0000000000000105
210
0.0
220
1.0
230
0.0000000000000002
  0
LINE
  5
1BF5
  8
0
  6
VERDECKT
 62
     1
 10
1651.7748223823589
 20
76.500000000001592
 30
0.000000000000017
 11
1171.2966528538141
 21
76.500000000001592
 31
0.000000000000017
210
0.0
220
1.0
230
0.0000000000000002
  0
LINE
  5
1BF6
  8
0
  6
VERDECKT
 62
     1
 10
1171.7966528538141
 20
108.00000000000389
 30
0.000000000000024
 11
1171.7966528538141
 21
77.000000000000909
 31
0.0000000000000171
210
0.0
220
1.0
230
0.0000000000000002
  0
LINE
  5
1BF7
  8
0
  6
VERDECKT
 62
     1
 10
1141.7966528538161
 20
108.00000000000389
 30
0.000000000000024
 11
1141.7966528538161
 21
47.000000000002267
 31
0.0000000000000104
210
0.0
220
1.0
230
0.0000000000000002
  0
LINE
  5
1BF8
  8
0
  6
VERDECKT
 62
     1
 10
1171.2966528538141
 20
108.00000000000399
 30
0.000000000000024
 11
1171.2966528538141
 21
76.500000000000895
 31
0.000000000000017
210
0.0
220
1.0
230
0.0000000000000002
  0
LINE
  5
1BF9
  8
0
  6
VERDECKT
 62
     1
 10
1142.2966528538161
 20
108.00000000000399
 30
0.000000000000024
 11
1142.2966528538161
 21
47.500000000002267
 31
0.0000000000000105
210
0.0
220
1.0
230
0.0000000000000002
  0
LINE
  5
1BFA
  8
0
  6
VERDECKT
 62
     1
 10
1172.883808596561
 20
106.47723998902001
 30
0.0000000000000236
 11
1172.883808596561
 21
103.47723998902001
 31
0.000000000000023
210
0.0
220
1.0
230
0.0000000000000002
  0
LINE
  5
1BFB
  8
0
  6
VERDECKT
 62
     1
 10
1140.883808596561
 20
106.47723998902001
 30
0.0000000000000236
 11
1140.883808596561
 21
103.47723998902001
 31
0.000000000000023
210
0.0
220
1.0
230
0.0000000000000002
  0
LINE
  5
1BFC
  8
0
  6
VERDECKT
 62
     1
 10
1122.883808596561
 20
108.47723998902001
 30
0.0000000000000241
 11
1190.883808596561
 21
108.47723998902001
 31
0.0000000000000241
210
0.0
220
1.0
230
0.0000000000000002
  0
LINE
  5
1BFD
  8
0
  6
VERDECKT
 62
     1
 10
1122.258808596561
 20
110.47723998901991
 30
0.0000000000000245
 11
1191.508808596561
 21
110.47723998901991
 31
0.0000000000000245
210
0.0
220
1.0
230
0.0000000000000002
  0
LINE
  5
1BFE
  8
0
  6
VERDECKT
 62
     1
 10
1190.883808596561
 20
108.47723998902001
 30
0.0000000000000241
 11
1190.883808596561
 21
106.47723998902001
 31
0.0000000000000236
210
0.0
220
1.0
230
0.0000000000000002
  0
LINE
  5
1BFF
  8
0
  6
VERDECKT
 62
     1
 10
1122.883808596561
 20
108.47723998902001
 30
0.0000000000000241
 11
1122.883808596561
 21
106.47723998902001
 31
0.0000000000000236
210
0.0
220
1.0
230
0.0000000000000002
  0
LINE
  5
1C00
  8
0
  6
VERDECKT
 62
     1
 10
1122.883808596561
 20
108.47723998902001
 30
0.0000000000000241
 11
1122.258808596561
 21
110.47723998901991
 31
0.0000000000000245
210
0.0
220
1.0
230
0.0000000000000002
  0
LINE
  5
1C01
  8
0
  6
VERDECKT
 62
     1
 10
1190.883808596561
 20
108.47723998902001
 30
0.0000000000000241
 11
1191.508808596561
 21
110.47723998901991
 31
0.0000000000000245
210
0.0
220
1.0
230
0.0000000000000002
  0
ARC
  5
1C02
  8
0
  6
VERDECKT
 62
     1
 10
-1124.1992268583231
 20
108.7316022172989
 30
0.0
 40
2.610071696455726
210
0.0
220
0.0000000000000002
230
-1.0
 50
38.268462400064507
 51
41.975159978471801
  0
ARC
  5
1C03
  8
0
  6
VERDECKT
 62
     1
 10
-1189.568390334799
 20
108.7316022172989
 30
0.0
 40
2.6100716964557238
210
0.0
220
0.0000000000000002
230
-1.0
 50
138.02484002152821
 51
141.73153759993551
  0
LINE
  5
1C04
  8
0
  6
VERDECKT
 62
     1
 10
1122.883808596561
 20
108.0000000000024
 30
0.000000000000024
 11
1190.883808596561
 21
108.0000000000024
 31
0.000000000000024
210
0.0
220
1.0
230
0.0000000000000002
  0
LINE
  5
1C05
  8
0
  6
VERDECKT
 62
     1
 10
1122.883808596561
 20
108.0000000000024
 30
0.000000000000024
 11
1122.1500141550359
 21
110.3481422128833
 31
0.0000000000000245
210
0.0
220
1.0
230
0.0000000000000002
  0
LINE
  5
1C06
  8
0
  6
VERDECKT
 62
     1
 10
1190.883808596561
 20
108.0000000000024
 30
0.000000000000024
 11
1191.6176030380859
 21
110.3481422128833
 31
0.0000000000000245
210
0.0
220
1.0
230
0.0000000000000002
  0
LINE
  5
1C07
  8
0
  6
VERDECKT
 62
     1
 10
1189.356640631705
 20
108.47723998902001
 30
0.0000000000000241
 11
1190.883808596561
 21
108.0000000000024
 31
0.000000000000024
210
0.0
220
1.0
230
0.0000000000000002
  0
LINE
  5
1C08
  8
0
  6
VERDECKT
 62
     1
 10
1124.4109765614171
 20
108.47723998902001
 30
0.0000000000000241
 11
1122.883808596561
 21
108.0000000000024
 31
0.000000000000024
210
0.0
220
1.0
230
0.0000000000000002
  0
LINE
  5
1C09
  8
0
  6
VERDECKT
 62
     1
 10
1124.4109765614171
 20
108.47723998902001
 30
0.0000000000000241
 11
1122.3479687722811
 21
115.07886491425521
 31
0.0000000000000256
210
0.0
220
1.0
230
0.0000000000000002
  0
LINE
  5
1C0A
  8
0
  6
VERDECKT
 62
     1
 10
1189.356640631705
 20
108.47723998902001
 30
0.0000000000000241
 11
1191.419648420841
 21
115.07886491425521
 31
0.0000000000000256
210
0.0
220
1.0
230
0.0000000000000002
  0
ARC
  5
1C0B
  8
0
  6
VERDECKT
 62
     1
 10
-1129.9838085965571
 20
117.4650648593427
 30
0.0
 40
7.9999999999961364
210
0.0
220
0.0000000000000002
230
-1.0
 50
342.64597536373071
 51
0.0000000000086511
  0
ARC
  5
1C0C
  8
0
  6
VERDECKT
 62
     1
 10
-1183.783808596565
 20
117.4650648593427
 30
0.0
 40
7.9999999999961338
210
0.0
220
0.0000000000000002
230
-1.0
 50
179.9999999999913
 51
197.3540246362692
  0
LINE
  5
1C0D
  8
0
  6
VERDECKT
 62
     1
 10
1191.7838085965609
 20
141.69340033543381
 30
0.0000000000000315
 11
1191.7838085965609
 21
117.4650648593439
 31
0.0000000000000261
210
0.0
220
1.0
230
0.0000000000000002
  0
LINE
  5
1C0E
  8
0
  6
VERDECKT
 62
     1
 10
1121.9838085965609
 20
141.69340033543381
 30
0.0000000000000315
 11
1121.9838085965609
 21
117.4650648593439
 31
0.0000000000000261
210
0.0
220
1.0
230
0.0000000000000002
  0
ARC
  5
1C0F
  8
0
  6
VERDECKT
 62
     1
 10
-1112.3838085965581
 20
141.69340033543261
 30
0.0
 40
9.6000000000028525
210
0.0
220
0.0000000000000002
230
-1.0
 50
146.44269023807809
 51
179.9999999999925
  0
ARC
  5
1C10
  8
0
  6
VERDECKT
 62
     1
 10
-1201.383808596564
 20
141.69340033543261
 30
0.0
 40
9.6000000000028631
210
0.0
220
0.0000000000000002
230
-1.0
 50
0.0000000000074679
 51
33.557309761921829
  0
ARC
  5
1C11
  8
0
  6
VERDECKT
 62
     1
 10
-1127.925077203322
 20
152.0023116823879
 30
0.0
 40
9.0495223281144401
210
0.0
220
0.0000000000000002
230
-1.0
 50
326.44269023806658
 51
2.4472746855113212
  0
ARC
  5
1C12
  8
0
  6
VERDECKT
 62
     1
 10
-1185.842539989801
 20
152.0023116823879
 30
0.0
 40
9.0495223281144401
210
0.0
220
0.0000000000000002
230
-1.0
 50
177.55272531448861
 51
213.5573097619334
  0
LINE
  5
1C13
  8
0
  6
VERDECKT
 62
     1
 10
1194.883808596561
 20
173.3300000000026
 30
0.0000000000000385
 11
1194.883808596561
 21
152.38872641741941
 31
0.0000000000000338
210
0.0
220
1.0
230
0.0000000000000002
  0
LINE
  5
1C14
  8
0
  6
VERDECKT
 62
     1
 10
1118.883808596561
 20
173.3300000000026
 30
0.0000000000000385
 11
1118.883808596561
 21
152.38872641741941
 31
0.0000000000000338
210
0.0
220
1.0
230
0.0000000000000002
  0
ARC
  5
1C15
  8
0
  6
VERDECKT
 62
     1
 10
-1105.2838085965591
 20
173.33000000000149
 30
0.0
 40
13.600000000002421
210
0.0
220
0.0000000000000002
230
-1.0
 50
158.81684560696601
 51
179.99999999999551
  0
ARC
  5
1C16
  8
0
  6
VERDECKT
 62
     1
 10
-1208.483808596563
 20
173.33000000000149
 30
0.0
 40
13.60000000000241
210
0.0
220
0.0000000000000002
230
-1.0
 50
0.0000000000044401
 51
21.183154393033991
  0
ARC
  5
1C17
  8
0
  6
VERDECKT
 62
     1
 10
-1139.7838085965609
 20
186.70000000000249
 30
0.0
 40
23.40009324312604
210
0.0
220
0.0000000000000002
230
-1.0
 50
338.81684560696351
 51
359.8382525687307
  0
ARC
  5
1C18
  8
0
  6
VERDECKT
 62
     1
 10
-1173.9838085965739
 20
186.7000000000001
 30
0.0
 40
23.40009324311308
210
0.0
220
0.0000000000000002
230
-1.0
 50
180.16174743126331
 51
201.18315439304251
  0
LINE
  5
1C19
  8
0
  6
VERDECKT
 62
     1
 10
1197.383808596561
 20
191.45107759288371
 30
0.0000000000000425
 11
1197.383808596561
 21
186.6339410340818
 31
0.0000000000000414
210
0.0
220
1.0
230
0.0000000000000002
  0
LINE
  5
1C1A
  8
0
  6
VERDECKT
 62
     1
 10
1116.383808596561
 20
191.45107759288371
 30
0.0000000000000425
 11
1116.383808596561
 21
186.6339410340818
 31
0.0000000000000414
210
0.0
220
1.0
230
0.0000000000000002
  0
ARC
  5
1C1B
  8
0
  6
VERDECKT
 62
     1
 10
-1139.7838085965591
 20
191.45107759288391
 30
0.0
 40
23.39999999999759
210
0.0
220
0.0000000000000002
230
-1.0
 50
359.9999999999996
 51
24.999999999998529
  0
ARC
  5
1C1C
  8
0
  6
VERDECKT
 62
     1
 10
-1173.983808596563
 20
191.45107759288391
 30
0.0
 40
23.399999999997831
210
0.0
220
0.0000000000000002
230
-1.0
 50
155.00000000000151
 51
180.00000000000031
  0
LINE
  5
1C1D
  8
0
  6
VERDECKT
 62
     1
 10
1194.883808596561
 20
202.00000000000239
 30
0.0000000000000449
 11
1195.1914108132189
 21
201.34034491761469
 31
0.0000000000000447
210
0.0
220
1.0
230
0.0000000000000002
  0
LINE
  5
1C1E
  8
0
  6
VERDECKT
 62
     1
 10
1118.883808596561
 20
202.00000000000239
 30
0.0000000000000449
 11
1118.5762063799029
 21
201.34034491761469
 31
0.0000000000000447
210
0.0
220
1.0
230
0.0000000000000002
  0
LINE
  5
1C1F
  8
0
  6
VERDECKT
 62
     1
 10
1172.883808596561
 20
106.47723998902001
 30
0.0000000000000236
 11
1172.883808596561
 21
103.47723998902001
 31
0.000000000000023
210
0.0
220
1.0
230
0.0000000000000002
  0
LINE
  5
1C20
  8
0
  6
VERDECKT
 62
     1
 10
1140.883808596561
 20
106.47723998901991
 30
0.0000000000000236
 11
1140.883808596561
 21
103.47723998902001
 31
0.000000000000023
210
0.0
220
1.0
230
0.0000000000000002
  0
LINE
  5
1C21
  8
0
  6
VERDECKT
 62
     1
 10
1171.883808596561
 20
106.47723998901991
 30
0.0000000000000236
 11
1171.883808596561
 21
77.00000000000162
 31
0.0000000000000171
210
0.0
220
1.0
230
0.0000000000000002
  0
LINE
  5
1C22
  8
0
  6
VERDECKT
 62
     1
 10
1141.883808596561
 20
106.47723998901991
 30
0.0000000000000236
 11
1141.883808596561
 21
47.000000000003411
 31
0.0000000000000104
210
0.0
220
1.0
230
0.0000000000000002
  0
LINE
  5
1C23
  8
0
  6
VERDECKT
 62
     1
 10
1190.883808596561
 20
108.47723998902001
 30
0.0000000000000241
 11
1122.883808596561
 21
108.47723998902001
 31
0.0000000000000241
210
0.0
220
1.0
230
0.0000000000000002
  0
LINE
  5
1C24
  8
0
  6
VERDECKT
 62
     1
 10
1171.883808596561
 20
108.47723998902001
 30
0.0000000000000241
 11
1171.883808596561
 21
106.47723998902001
 31
0.0000000000000236
210
0.0
220
1.0
230
0.0000000000000002
  0
LINE
  5
1C25
  8
0
  6
VERDECKT
 62
     1
 10
1141.883808596561
 20
108.47723998902001
 30
0.0000000000000241
 11
1141.883808596561
 21
106.47723998902001
 31
0.0000000000000236
210
0.0
220
1.0
230
0.0000000000000002
  0
LINE
  5
1C26
  8
0
  6
VERDECKT
 62
     1
 10
1190.883808596561
 20
108.47723998902001
 30
0.0000000000000241
 11
1190.883808596561
 21
106.47723998902001
 31
0.0000000000000236
210
0.0
220
1.0
230
0.0000000000000002
  0
LINE
  5
1C27
  8
0
  6
VERDECKT
 62
     1
 10
1122.883808596561
 20
108.47723998902001
 30
0.0000000000000241
 11
1122.883808596561
 21
106.47723998902001
 31
0.0000000000000236
210
0.0
220
1.0
230
0.0000000000000002
  0
LINE
  5
1C28
  8
0
  6
VERDECKT
 62
     1
 10
1656.7966528538129
 20
47.42981817817963
 30
0.0000000000000105
 11
1656.7966528538129
 21
76.570181821823553
 31
0.000000000000017
210
0.0
220
1.0
230
0.0000000000000002
  0
LINE
  5
1C29
  8
0
  6
VERDECKT
 62
     1
 10
1656.7966528538129
 20
76.570181821823567
 30
0.000000000000017
 11
1656.883808596561
 21
77.566376519915295
 31
0.0000000000000172
210
0.0
220
1.0
230
0.0000000000000002
  0
LINE
  5
1C2A
  8
0
  6
VERDECKT
 62
     1
 10
1656.7966528538129
 20
47.42981817817963
 30
0.0000000000000105
 11
1656.883808596561
 21
46.433623480087867
 31
0.0000000000000103
210
0.0
220
1.0
230
0.0000000000000002
  0
LINE
  5
1C2B
  8
0
  6
VERDECKT
 62
     1
 10
1656.7966528538129
 20
47.429818178179623
 30
0.0000000000000105
 11
1651.883808596561
 21
47.000000000001577
 31
0.0000000000000104
210
0.0
220
1.0
230
0.0000000000000002
  0
LINE
  5
1C2C
  8
0
  6
VERDECKT
 62
     1
 10
1656.7966528538129
 20
76.570181821823567
 30
0.000000000000017
 11
1651.883808596561
 21
77.000000000001606
 31
0.0000000000000171
210
0.0
220
1.0
230
0.0000000000000002
  0
LINE
  5
1C2D
  8
0
  6
VERDECKT
 62
     1
 10
1171.883808596561
 20
77.000000000001592
 30
0.0000000000000171
 11
1651.883808596561
 21
77.000000000001592
 31
0.0000000000000171
210
0.0
220
1.0
230
0.0000000000000002
  0
LINE
  5
1C2E
  8
0
  6
VERDECKT
 62
     1
 10
1141.8838085965631
 20
47.000000000001592
 30
0.0000000000000104
 11
1651.883808596561
 21
47.000000000001592
 31
0.0000000000000104
210
0.0
220
1.0
230
0.0000000000000002
  0
ENDBLK
  5
1C30
  8
0
  0
BLOCK
  8
0
  2
A$C41BC479E
 70
     0
 10
0.0
 20
0.0
 30
0.0
  3
A$C41BC479E
  1

  0
CIRCLE
  5
1C34
  8
0
  6
CONTINUOUS
 62
     3
 10
-1162.5538367003619
 20
325.5658418991186
 30
-0.0000000000000105
 40
34.399999999999871
210
0.0000000000000002
220
0.0
230
-1.0
  0
CIRCLE
  5
1C35
  8
0
  6
CONTINUOUS
 62
     3
 10
-1162.5538367003619
 20
325.56584189911848
 30
-0.0000000000000105
 40
37.448311040518782
210
0.0000000000000002
220
0.0
230
-1.0
  0
CIRCLE
  5
1C36
  8
0
  6
CONTINUOUS
 62
     3
 10
-1162.5538367003619
 20
325.56584189911848
 30
-0.0000000000000105
 40
38.0
210
0.0000000000000002
220
0.0
230
-1.0
  0
CIRCLE
  5
1C37
  8
0
  6
CONTINUOUS
 62
     3
 10
-1162.4666809576161
 20
325.5658418991174
 30
0.0000000000000037
 40
15.0
210
0.0000000000000002
220
0.0
230
-1.0
  0
CIRCLE
  5
1C38
  8
0
  6
CONTINUOUS
 62
     3
 10
-1162.4666809576161
 20
325.5658418991174
 30
0.0000000000000037
 40
14.500000000000449
210
0.0000000000000002
220
0.0
230
-1.0
  0
CIRCLE
  5
1C39
  8
0
  6
CONTINUOUS
 62
     3
 10
-1162.5538367003619
 20
325.56584189911848
 30
-0.0000000000000105
 40
42.099999999999909
210
0.0000000000000002
220
0.0
230
-1.0
  0
CIRCLE
  5
1C3A
  8
0
  6
CONTINUOUS
 62
     3
 10
-1162.5538367003619
 20
325.56584189911848
 30
-0.0000000000000105
 40
38.0
210
0.0000000000000002
220
0.0
230
-1.0
  0
CIRCLE
  5
1C3B
  8
0
  6
CONTINUOUS
 62
     3
 10
-1162.5538367003619
 20
325.56584189911848
 30
-0.0000000000000105
 40
39.765397328275178
210
0.0000000000000002
220
0.0
230
-1.0
  0
ARC
  5
1C3C
  8
0
  6
CONTINUOUS
 62
     3
 10
-1162.5538367003619
 20
325.56584189911871
 30
0.0000000000000037
 40
15.000000000000099
210
0.0000000000000002
220
0.0
230
-1.0
 50
270.16645544065221
 51
89.833544557702851
  0
LINE
  5
1C3D
  8
0
  6
CONTINUOUS
 62
     3
 10
1662.5538367003619
 20
309.99946537920368
 30
0.0000000000003908
 11
1662.5538367003619
 21
341.13221841903112
 31
0.0000000000003908
  0
LINE
  5
1C3E
  8
0
  6
CONTINUOUS
 62
     3
 10
1201.4949460836351
 20
341.56584189911752
 30
0.0000000000002842
 11
1657.597497643271
 21
341.56584189911752
 31
0.0000000000003916
  0
LINE
  5
1C3F
  8
0
  6
CONTINUOUS
 62
     3
 10
1201.494946083634
 20
309.56584189911729
 30
0.0000000000002842
 11
1657.597497643271
 21
309.56584189911729
 31
0.0000000000003916
  0
LINE
  5
1C40
  8
0
  6
CONTINUOUS
 62
     3
 10
1662.5538367003619
 20
309.99946537920368
 30
0.0000000000003908
 11
1657.597497643271
 21
309.5658418991174
 31
0.0000000000003896
  0
LINE
  5
1C41
  8
0
  6
CONTINUOUS
 62
     3
 10
1662.5538367003619
 20
341.13221841903112
 30
0.0000000000003908
 11
1657.597497643271
 21
341.5658418991174
 31
0.0000000000003896
  0
CIRCLE
  5
1C42
  8
0
  6
VERDECKT
 62
     1
 10
-1162.5538367003619
 20
325.5658418991186
 30
0.0000000000000037
 40
31.79984908188089
210
0.0000000000000002
220
0.0
230
-1.0
  0
CIRCLE
  5
1C43
  8
0
  6
VERDECKT
 62
     1
 10
-1162.5538367003619
 20
325.5658418991186
 30
-0.0000000000000105
 40
37.500000000000227
210
0.0000000000000002
220
0.0
230
-1.0
  0
CIRCLE
  5
1C44
  8
0
  6
VERDECKT
 62
     1
 10
-1162.5538367003619
 20
325.56584189911848
 30
-0.0000000000000105
 40
40.50000000000022
210
0.0000000000000002
220
0.0
230
-1.0
  0
CIRCLE
  5
1C45
  8
0
  6
VERDECKT
 62
     1
 10
-1162.5538367003619
 20
325.5658418991186
 30
-0.0000000000000105
 40
34.899999999999856
210
0.0000000000000002
220
0.0
230
-1.0
  0
CIRCLE
  5
1C46
  8
0
  6
VERDECKT
 62
     1
 10
-1162.5538367003619
 20
325.5658418991186
 30
0.0000000000000037
 40
32.323694538575857
210
0.0000000000000002
220
0.0
230
-1.0
  0
CIRCLE
  5
1C47
  8
0
  6
VERDECKT
 62
     1
 10
-1162.5538367003619
 20
325.56584189911848
 30
-0.0000000000000105
 40
40.000001992368638
210
0.0000000000000002
220
0.0
230
-1.0
  0
CIRCLE
  5
1C48
  8
0
  6
VERDECKT
 62
     1
 10
-1162.4666809576161
 20
325.5658418991174
 30
0.0000000000000037
 40
33.0
210
0.0000000000000002
220
0.0
230
-1.0
  0
LINE
  5
1C49
  8
0
  6
VERDECKT
 62
     1
 10
1662.466680957614
 20
311.5051951355187
 30
0.0000000000003908
 11
1657.44485048616
 21
311.0658418991174
 31
0.0000000000003896
  0
LINE
  5
1C4A
  8
0
  6
VERDECKT
 62
     1
 10
1662.466680957614
 20
339.6264886627161
 30
0.0000000000003908
 11
1657.44485048616
 21
340.0658418991174
 31
0.0000000000003896
  0
LINE
  5
1C4B
  8
0
  6
VERDECKT
 62
     1
 10
1662.466680957614
 20
311.00328521674697
 30
0.0000000000003908
 11
1657.466680957614
 21
310.5658418991174
 31
0.0000000000003896
  0
LINE
  5
1C4C
  8
0
  6
VERDECKT
 62
     1
 10
1662.466680957614
 20
340.12839858148777
 30
0.0000000000003908
 11
1657.466680957614
 21
340.5658418991174
 31
0.0000000000003896
  0
LINE
  5
1C4D
  8
0
  6
VERDECKT
 62
     1
 10
1657.466680957614
 20
310.5658418991174
 30
0.0000000000003908
 11
1162.4666809576161
 21
310.5658418991174
 31
0.0000000000002743
  0
LINE
  5
1C4E
  8
0
  6
VERDECKT
 62
     1
 10
1657.466680957614
 20
340.5658418991174
 30
0.0000000000003908
 11
1162.4666809576161
 21
340.5658418991174
 31
0.0000000000002743
  0
LINE
  5
1C4F
  8
0
  6
VERDECKT
 62
     1
 10
1657.44485048616
 20
311.0658418991174
 30
0.0000000000003908
 11
1162.4666809576161
 21
311.0658418991174
 31
0.0000000000002743
  0
LINE
  5
1C50
  8
0
  6
VERDECKT
 62
     1
 10
1657.44485048616
 20
340.0658418991174
 30
0.0000000000003908
 11
1162.4666809576161
 21
340.0658418991174
 31
0.0000000000002743
  0
CIRCLE
  5
1C51
  8
0
  6
VERDECKT
 62
     1
 10
-1162.5538367003619
 20
325.5658418991186
 30
0.0000000000000037
 40
15.99999999999954
210
0.0000000000000002
220
0.0
230
-1.0
  0
CIRCLE
  5
1C52
  8
0
  6
VERDECKT
 62
     1
 10
-1162.5538367003619
 20
325.5658418991186
 30
0.0000000000000037
 40
19.000000000000451
210
0.0000000000000002
220
0.0
230
-1.0
  0
CIRCLE
  5
1C53
  8
0
  6
VERDECKT
 62
     1
 10
-1162.5538367003619
 20
325.5658418991186
 30
0.0000000000000037
 40
34.0
210
0.0000000000000002
220
0.0
230
-1.0
  0
CIRCLE
  5
1C54
  8
0
  6
VERDECKT
 62
     1
 10
-1162.5538367003619
 20
325.5658418991186
 30
0.0000000000000037
 40
34.624999999999893
210
0.0000000000000002
220
0.0
230
-1.0
  0
CIRCLE
  5
1C55
  8
0
  6
VERDECKT
 62
     1
 10
-1162.5538367003619
 20
325.5658418991186
 30
0.0000000000000037
 40
35.294653434656247
210
0.0000000000000002
220
0.0
230
-1.0
  0
CIRCLE
  5
1C56
  8
0
  6
VERDECKT
 62
     1
 10
-1162.5538367003619
 20
325.5658418991186
 30
-0.0000000000000105
 40
39.599999999999909
210
0.0000000000000002
220
0.0
230
-1.0
  0
CIRCLE
  5
1C57
  8
0
  6
VERDECKT
 62
     1
 10
-1162.5538367003619
 20
325.5658418991186
 30
-0.0000000000000105
 40
36.5
210
0.0000000000000002
220
0.0
230
-1.0
  0
CIRCLE
  5
1C58
  8
0
  6
VERDECKT
 62
     1
 10
-1162.5538367003619
 20
325.5658418991186
 30
0.0000000000000037
 40
32.472832035143711
210
0.0000000000000002
220
0.0
230
-1.0
  0
CIRCLE
  5
1C59
  8
0
  6
VERDECKT
 62
     1
 10
-1162.5538367003619
 20
325.5658418991186
 30
-0.0000000000000105
 40
34.899999999999856
210
0.0000000000000002
220
0.0
230
-1.0
  0
CIRCLE
  5
1C5A
  8
0
  6
VERDECKT
 62
     1
 10
-1162.5538367003619
 20
325.56584189911848
 30
-0.0000000000000105
 40
40.499999999999993
210
0.0000000000000002
220
0.0
230
-1.0
  0
CIRCLE
  5
1C5B
  8
0
  6
VERDECKT
 62
     1
 10
-1162.5538367003619
 20
325.5658418991186
 30
-0.0000000000000105
 40
38.00825372135396
210
0.0000000000000002
220
0.0
230
-1.0
  0
CIRCLE
  5
1C5C
  8
0
  6
VERDECKT
 62
     1
 10
-1162.5538367003619
 20
325.5658418991174
 30
0.0000000000000037
 40
16.000000000000028
210
0.0000000000000002
220
0.0
230
-1.0
  0
ARC
  5
1C5D
  8
0
  6
VERDECKT
 62
     1
 10
-1162.5538367003619
 20
325.56584189911842
 30
0.0000000000000037
 40
14.999999999999771
210
0.0000000000000002
220
0.0
230
-1.0
 50
179.9999999999994
 51
270.16645544065301
  0
ARC
  5
1C5E
  8
0
  6
VERDECKT
 62
     1
 10
-1162.5538367003619
 20
325.56584189911871
 30
0.0000000000000037
 40
14.999999999999901
210
0.0000000000000002
220
0.0
230
-1.0
 50
89.833544557701984
 51
180.0000000000004
  0
CIRCLE
  5
1C5F
  8
0
  6
VERDECKT
 62
     1
 10
1162.5538367003619
 20
325.5658418991186
 30
0.00000000000027
 40
34.0
  0
LINE
  5
1C60
  8
0
  6
VERDECKT
 62
     1
 10
1662.466680957614
 20
310.99566007729538
 30
0.0000000000003908
 11
1662.466680957614
 21
340.13602372093931
 31
0.0000000000003908
  0
LINE
  5
1C61
  8
0
  6
VERDECKT
 62
     1
 10
1162.5538367003619
 20
341.56584189911752
 30
0.00000000000027
 11
1201.4949460836351
 21
341.56584189911752
 31
0.0000000000002792
  0
LINE
  5
1C62
  8
0
  6
VERDECKT
 62
     1
 10
1162.5538367003619
 20
309.56584189911729
 30
0.00000000000027
 11
1201.494946083634
 21
309.56584189911729
 31
0.0000000000002792
  0
LINE
  5
1C63
  8
0
  6
VERDECKT
 62
     1
 10
1662.466680957614
 20
340.13602372093942
 30
0.0000000000003908
 11
1662.5538367003619
 21
341.13221841903112
 31
0.0000000000003908
  0
LINE
  5
1C64
  8
0
  6
VERDECKT
 62
     1
 10
1662.466680957614
 20
310.99566007729538
 30
0.0000000000003908
 11
1662.5538367003619
 21
309.99946537920368
 31
0.0000000000003908
  0
LINE
  5
1C65
  8
0
  6
VERDECKT
 62
     1
 10
1662.466680957614
 20
310.99566007729538
 30
0.0000000000003908
 11
1657.5538367003619
 21
310.5658418991174
 31
0.0000000000003896
  0
LINE
  5
1C66
  8
0
  6
VERDECKT
 62
     1
 10
1662.466680957614
 20
340.13602372093942
 30
0.0000000000003908
 11
1657.5538367003619
 21
340.5658418991174
 31
0.0000000000003896
  0
LINE
  5
1C67
  8
0
  6
VERDECKT
 62
     1
 10
1162.5538367003619
 20
340.5658418991174
 30
0.00000000000027
 11
1657.5538367003619
 21
340.5658418991174
 31
0.0000000000003865
  0
LINE
  5
1C68
  8
0
  6
VERDECKT
 62
     1
 10
1162.5538367003619
 20
310.5658418991174
 30
0.00000000000027
 11
1657.5538367003619
 21
310.5658418991174
 31
0.0000000000003865
  0
ENDBLK
  5
1C6A
  8
0
  0
ENDSEC
  0
SECTION
  2
ENTITIES
  0
TEXT
  5
1568
  8
VOLL
 10
378.59655018459853
 20
402.54332270133551
 30
0.0
 40
1.8
  1

  7
GREEKS
  0
INSERT
  5
1C31
  8
ROHR
  2
A$C7A6D1E84
 10
627.17561732152456
 20
504.31904639590488
 30
-0.0000000000000426
  0
INSERT
  5
1C6B
  8
ROHR
  2
A$C41BC479E
 10
621.50558921772472
 20
16.868997316337751
 30
-0.0000000000003055
  0
VIEWPORT
  5
1148
 67
     1
  8
0
 10
661.31297474618566
 20
286.34740512583301
 30
0.0
 40
2165.7618364980922
 41
1020.742683739591
 68
     1
 69
     1
1001
ACAD
1000
MVIEW
1002
{
1070
    16
1010
0.0
1020
0.0
1030
0.0
1010
0.0
1020
0.0
1030
1.0
1040
0.0
1040
1020.742683739591
1040
661.31297474618566
1040
286.34740512583301
1040
50.0
1040
0.0
1040
0.0
1070
     0
1070
  1500
1070
     1
1070
     1
1070
     0
1070
     0
1070
     0
1070
     0
1040
0.0
1040
0.0
1040
0.0
1040
10.0
1040
10.0
1040
10.0
1040
10.0
1070
     0
1002
{
1002
}
1002
}
  0
ENDSEC
  0
EOF
