  0
SECTION
  2
HEADER
  9
$ACADVER
  1
AC1009
  9
$INSBASE
 10
0.0
 20
0.0
 30
0.0
  9
$EXTMIN
 10
-61.4380253939314116
 20
-59.0288804447172879
 30
-39.0868712790836526
  9
$EXTMAX
 10
307.6621825335641915
 20
443.1182188784786717
 30
-38.1453994716811167
  9
$LIMMIN
 10
0.0
 20
0.0
  9
$LIMMAX
 10
840.0
 20
594.0
  9
$ORTHOMODE
 70
     1
  9
$REGENMODE
 70
     1
  9
$FILLMODE
 70
     1
  9
$QTEXTMODE
 70
     0
  9
$MIRRTEXT
 70
     1
  9
$DRAGMODE
 70
     2
  9
$LTSCALE
 40
20.0
  9
$OSMODE
 70
  1327
  9
$ATTMODE
 70
     1
  9
$TEXTSIZE
 40
3.5
  9
$TRACEWID
 40
1.0
  9
$TEXTSTYLE
  7
STANDARD
  9
$CLAYER
  8
0
  9
$CELTYPE
  6
BYLAYER
  9
$CECOLOR
 62
   256
  9
$DIMSCALE
 40
2.0
  9
$DIMASZ
 40
3.5
  9
$DIMEXO
 40
1.0
  9
$DIMDLI
 40
7.0
  9
$DIMRND
 40
0.0
  9
$DIMDLE
 40
0.0
  9
$DIMEXE
 40
1.0
  9
$DIMTP
 40
5.0
  9
$DIMTM
 40
5.0
  9
$DIMTXT
 40
3.5
  9
$DIMCEN
 40
1.5
  9
$DIMTSZ
 40
0.0
  9
$DIMTOL
 70
     0
  9
$DIMLIM
 70
     0
  9
$DIMTIH
 70
     0
  9
$DIMTOH
 70
     0
  9
$DIMSE1
 70
     0
  9
$DIMSE2
 70
     0
  9
$DIMTAD
 70
     1
  9
$DIMZIN
 70
     8
  9
$DIMBLK
  1

  9
$DIMASO
 70
     1
  9
$DIMSHO
 70
     0
  9
$DIMPOST
  1

  9
$DIMAPOST
  1

  9
$DIMALT
 70
     0
  9
$DIMALTD
 70
     2
  9
$DIMALTF
 40
25.3999999999999986
  9
$DIMLFAC
 40
1.0
  9
$DIMTOFL
 70
     1
  9
$DIMTVP
 40
0.0
  9
$DIMTIX
 70
     0
  9
$DIMSOXD
 70
     0
  9
$DIMSAH
 70
     0
  9
$DIMBLK1
  1

  9
$DIMBLK2
  1

  9
$DIMSTYLE
  2
STANDARD
  9
$DIMCLRD
 70
     0
  9
$DIMCLRE
 70
     0
  9
$DIMCLRT
 70
     1
  9
$DIMTFAC
 40
0.5
  9
$DIMGAP
 40
1.5
  9
$LUNITS
 70
     2
  9
$LUPREC
 70
     1
  9
$SKETCHINC
 40
1.0
  9
$FILLETRAD
 40
0.0
  9
$AUNITS
 70
     0
  9
$AUPREC
 70
     0
  9
$MENU
  1
ACAD
  9
$ELEVATION
 40
0.0
  9
$PELEVATION
 40
0.0
  9
$THICKNESS
 40
0.0
  9
$LIMCHECK
 70
     0
  9
$BLIPMODE
 70
     0
  9
$CHAMFERA
 40
0.0
  9
$CHAMFERB
 40
0.0
  9
$SKPOLY
 70
     0
  9
$TDCREATE
 40
2450059.2984953708946705
  9
$TDUPDATE
 40
2458388.533854166045785
  9
$TDINDWG
 40
0.1477466204
  9
$TDUSRTIMER
 40
0.1477466204
  9
$USRTIMER
 70
     1
  9
$ANGBASE
 50
0.0
  9
$ANGDIR
 70
     0
  9
$PDMODE
 70
     0
  9
$PDSIZE
 40
0.0
  9
$PLINEWID
 40
0.0
  9
$COORDS
 70
     1
  9
$SPLFRAME
 70
     0
  9
$SPLINETYPE
 70
     6
  9
$SPLINESEGS
 70
     8
  9
$ATTDIA
 70
     0
  9
$ATTREQ
 70
     0
  9
$HANDLING
 70
     1
  9
$HANDSEED
  5
1219
  9
$SURFTAB1
 70
     6
  9
$SURFTAB2
 70
     6
  9
$SURFTYPE
 70
     6
  9
$SURFU
 70
     6
  9
$SURFV
 70
     6
  9
$UCSNAME
  2

  9
$UCSORG
 10
0.0
 20
0.0
 30
0.0
  9
$UCSXDIR
 10
1.0
 20
0.0
 30
0.0
  9
$UCSYDIR
 10
0.0
 20
1.0
 30
0.0
  9
$PUCSNAME
  2

  9
$PUCSORG
 10
0.0
 20
0.0
 30
0.0
  9
$PUCSXDIR
 10
1.0
 20
0.0
 30
0.0
  9
$PUCSYDIR
 10
0.0
 20
1.0
 30
0.0
  9
$USERI1
 70
     0
  9
$USERI2
 70
     0
  9
$USERI3
 70
     0
  9
$USERI4
 70
     0
  9
$USERI5
 70
     0
  9
$USERR1
 40
0.0
  9
$USERR2
 40
0.0
  9
$USERR3
 40
0.0
  9
$USERR4
 40
0.0
  9
$USERR5
 40
0.0
  9
$WORLDVIEW
 70
     1
  9
$SHADEDGE
 70
     3
  9
$SHADEDIF
 70
    70
  9
$TILEMODE
 70
     1
  9
$MAXACTVP
 70
    16
  9
$PLIMCHECK
 70
     0
  9
$PEXTMIN
 10
-0.1274631433722604
 20
-0.1458759371183582
 30
-0.0000000000000058
  9
$PEXTMAX
 10
12.6396010682881101
 20
8.9344968995383471
 30
0.0000000000000104
  9
$PLIMMIN
 10
-0.2500002402958907
 20
-0.2499999962453767
  9
$PLIMMAX
 10
10.7499995194082203
 20
8.2499997634587334
  9
$UNITMODE
 70
     0
  9
$VISRETAIN
 70
     0
  9
$PLINEGEN
 70
     0
  9
$PSLTSCALE
 70
     0
  0
ENDSEC
  0
SECTION
  2
TABLES
  0
TABLE
  2
VPORT
 70
     1
  0
VPORT
  2
*ACTIVE
 70
     0
 10
0.0
 20
0.0
 11
1.0
 21
1.0
 12
-1.195019818855485
 22
320.5446692168807203
 13
0.0
 23
0.0
 14
1.0
 24
1.0
 15
10.0
 25
10.0
 16
-0.0000000000003553
 26
0.0
 36
1611.8188970939170304
 17
124.3070983886719034
 27
-128.5
 37
-147.6733140945434002
 40
505.9038107894543828
 41
1.8826466916354549
 42
50.0
 43
0.0
 44
0.0
 50
0.0
 51
0.0
 71
     0
 72
  1500
 73
     1
 74
     0
 75
     0
 76
     0
 77
     0
 78
     0
  0
ENDTAB
  0
TABLE
  2
LTYPE
 70
     4
  0
LTYPE
  2
AUSGEZOGEN
 70
     0
  3
Ausgezogene Linie
 72
    65
 73
     0
 40
0.0
  0
LTYPE
  2
CONTINUOUS
 70
     0
  3
Solid Line
 72
    65
 73
     0
 40
0.0
  0
LTYPE
  2
VERDECKT
 70
     0
  3
Verdeckt __ __ __ __ __ __ __ __ __ __ __ __ __
 72
    65
 73
     2
 40
0.375
 49
0.25
 49
-0.125
  0
ENDTAB
  0
TABLE
  2
LAYER
 70
    10
  0
LAYER
  2
0
 70
     0
 62
     7
  6
AUSGEZOGEN
  0
LAYER
  2
VOLL
 70
     0
 62
     1
  6
AUSGEZOGEN
  0
LAYER
  2
BEM
 70
     0
 62
     7
  6
AUSGEZOGEN
  0
LAYER
  2
DEFPOINTS
 70
     0
 62
     7
  6
AUSGEZOGEN
  0
LAYER
  2
TEXT
 70
     0
 62
     7
  6
AUSGEZOGEN
  0
ENDTAB
  0
TABLE
  2
STYLE
 70
     5
  0
STYLE
  2
STANDARD
 70
     0
 40
0.0
 41
0.8
 50
0.0
 71
     0
 42
3.5
  3
simplex.shx
  4

  0
STYLE
  2
GREEKS
 70
     0
 40
0.0
 41
0.8
 50
0.0
 71
     0
 42
2.5
  3
simplex
  4

  0
ENDTAB
  0
TABLE
  2
VIEW
 70
     2
  0
ENDTAB
  0
TABLE
  2
UCS
 70
     0
  0
ENDTAB
  0
TABLE
  2
APPID
 70
     8
  0
APPID
  2
ACAD
 70
     0
  0
APPID
  2
ACAD_NAV_VCDISPLAY
 70
     0
  0
APPID
  2
ACAD_PSEXT
 70
     0
  0
APPID
  2
ACAD_EXEMPT_FROM_CAD_STANDARDS
 70
     0
  0
APPID
  2
ACAD_MLEADERVER
 70
     0
  0
APPID
  2
ACAECLAYERSTANDARD
 70
     0
  0
APPID
  2
ACCMTRANSPARENCY
 70
     0
  0
APPID
  2
ACAD_OBJECT_CHANGE_GUID
 70
     0
  0
ENDTAB
  0
TABLE
  2
DIMSTYLE
 70
     3
  0
DIMSTYLE
  2
STANDARD
 70
     0
  3

  4

  5

  6

  7

 40
1.0
 41
0.18
 42
0.0625
 43
0.38
 44
0.18
 45
0.0
 46
0.0
 47
0.0
 48
0.0
140
0.18
141
0.09
142
0.0
143
25.3999999999999986
144
1.0
145
0.0
146
1.0
147
0.09
 71
     0
 72
     0
 73
     1
 74
     1
 75
     0
 76
     0
 77
     0
 78
     0
170
     0
171
     2
172
     0
173
     0
174
     0
175
     0
176
     0
177
     0
178
     0
  0
ENDTAB
  0
ENDSEC
  0
SECTION
  2
BLOCKS
  0
BLOCK
  8
0
  2
$MODEL_SPACE
 70
     0
 10
0.0
 20
0.0
 30
0.0
  3
$MODEL_SPACE
  1

  0
ENDBLK
  5
75
  8
0
  0
BLOCK
 67
     1
  8
0
  2
$PAPER_SPACE
 70
     0
 10
0.0
 20
0.0
 30
0.0
  3
$PAPER_SPACE
  1

  0
ENDBLK
  5
73
 67
     1
  8
0
  0
BLOCK
  8
0
  2
A$C75AC76DC
 70
     0
 10
0.0
 20
0.0
 30
0.0
  3
A$C75AC76DC
  1

  0
CIRCLE
  5
D52
  8
0
  6
AUSGEZOGEN
 62
     3
 10
0.0
 20
-0.0000000000000256
 30
0.0
 40
53.5000000000000071
  0
CIRCLE
  5
D53
  8
0
  6
AUSGEZOGEN
 62
     3
 10
-0.00000000000001
 20
-0.0000000000000284
 30
0.0
 40
53.0
  0
CIRCLE
  5
D54
  8
0
  6
AUSGEZOGEN
 62
     3
 10
-0.0000000000000172
 20
-0.0000000000000303
 30
0.0
 40
49.0
  0
CIRCLE
  5
D55
  8
0
  6
AUSGEZOGEN
 62
     3
 10
0.0
 20
-0.0000000000000256
 30
0.0
 40
55.7067558379251295
  0
CIRCLE
  5
D56
  8
0
  6
AUSGEZOGEN
 62
     3
 10
-0.0000000000000028
 20
-0.0000000000000264
 30
0.0
 40
59.0
  0
POLYLINE
  5
D57
  8
0
  6
AUSGEZOGEN
 62
     3
 10
293.0164455829454369
 20
51.0000000000002771
 30
0.0000000000000639
 66
     1
 70
     8
  0
VERTEX
  8
0
  5
E09
 10
293.016
 20
51.0000
 30
6.39000e-14
  70
    32
  0
VERTEX
  8
0
  5
E0A
 10
293.017
 20
51.0000
 30
6.39000e-14
  70
    32
  0
VERTEX
  8
0
  5
E0B
 10
293.017
 20
51.0000
 30
6.39000e-14
  70
    32
  0
VERTEX
  8
0
  5
E0C
 10
293.017
 20
51.0000
 30
6.39000e-14
  70
    32
  0
VERTEX
  8
0
  5
E0D
 10
293.017
 20
51.0000
 30
6.39000e-14
  70
    32
  0
VERTEX
  8
0
  5
E0E
 10
293.017
 20
51.0000
 30
6.39000e-14
  70
    32
  0
VERTEX
  8
0
  5
E0F
 10
293.017
 20
51.0000
 30
6.39000e-14
  70
    32
  0
VERTEX
  8
0
  5
E10
 10
293.017
 20
51.0000
 30
6.39000e-14
  70
    32
  0
VERTEX
  8
0
  5
E11
 10
293.017
 20
51.0000
 30
6.39000e-14
  70
    32
  0
VERTEX
  8
0
  5
E12
 10
293.017
 20
51.0000
 30
6.39000e-14
  70
    32
  0
VERTEX
  8
0
  5
E13
 10
293.017
 20
51.0000
 30
6.39000e-14
  70
    32
  0
VERTEX
  8
0
  5
E14
 10
293.017
 20
51.0000
 30
6.39000e-14
  70
    32
  0
VERTEX
  8
0
  5
E15
 10
293.018
 20
51.0000
 30
6.39000e-14
  70
    32
  0
VERTEX
  8
0
  5
E16
 10
293.018
 20
51.0000
 30
6.39000e-14
  70
    32
  0
VERTEX
  8
0
  5
E17
 10
293.018
 20
51.0000
 30
6.39000e-14
  70
    32
  0
VERTEX
  8
0
  5
E18
 10
293.018
 20
51.0000
 30
6.39000e-14
  70
    32
  0
VERTEX
  8
0
  5
E19
 10
293.018
 20
51.0000
 30
6.39000e-14
  70
    32
  0
VERTEX
  8
0
  5
E1A
 10
293.018
 20
51.0000
 30
6.39000e-14
  70
    32
  0
VERTEX
  8
0
  5
E1B
 10
293.018
 20
51.0000
 30
6.39000e-14
  70
    32
  0
VERTEX
  8
0
  5
E1C
 10
293.018
 20
51.0000
 30
6.39000e-14
  70
    32
  0
VERTEX
  8
0
  5
E1D
 10
293.018
 20
51.0000
 30
6.39000e-14
  70
    32
  0
VERTEX
  8
0
  5
E1E
 10
293.018
 20
51.0000
 30
6.39000e-14
  70
    32
  0
VERTEX
  8
0
  5
E1F
 10
293.019
 20
51.0000
 30
6.39000e-14
  70
    32
  0
VERTEX
  8
0
  5
E20
 10
293.019
 20
51.0000
 30
6.39000e-14
  70
    32
  0
VERTEX
  8
0
  5
E21
 10
293.019
 20
51.0000
 30
6.39000e-14
  70
    32
  0
VERTEX
  8
0
  5
E22
 10
293.019
 20
51.0000
 30
6.39000e-14
  70
    32
  0
VERTEX
  8
0
  5
E23
 10
293.019
 20
51.0000
 30
6.39000e-14
  70
    32
  0
VERTEX
  8
0
  5
E24
 10
293.019
 20
51.0000
 30
6.39000e-14
  70
    32
  0
VERTEX
  8
0
  5
E25
 10
293.019
 20
51.0000
 30
6.39000e-14
  70
    32
  0
VERTEX
  8
0
  5
E26
 10
293.019
 20
51.0000
 30
6.39000e-14
  70
    32
  0
VERTEX
  8
0
  5
E27
 10
293.019
 20
51.0000
 30
6.39000e-14
  70
    32
  0
VERTEX
  8
0
  5
E28
 10
293.019
 20
51.0000
 30
6.39000e-14
  70
    32
  0
VERTEX
  8
0
  5
E29
 10
293.020
 20
51.0000
 30
6.39000e-14
  70
    32
  0
VERTEX
  8
0
  5
E2A
 10
293.020
 20
51.0000
 30
6.39000e-14
  70
    32
  0
VERTEX
  8
0
  5
E2B
 10
293.020
 20
51.0000
 30
6.39000e-14
  70
    32
  0
VERTEX
  8
0
  5
E2C
 10
293.020
 20
51.0000
 30
6.39000e-14
  70
    32
  0
VERTEX
  8
0
  5
E2D
 10
293.020
 20
51.0000
 30
6.39000e-14
  70
    32
  0
VERTEX
  8
0
  5
E2E
 10
293.020
 20
51.0000
 30
6.39000e-14
  70
    32
  0
VERTEX
  8
0
  5
E2F
 10
293.020
 20
51.0000
 30
6.39000e-14
  70
    32
  0
VERTEX
  8
0
  5
E30
 10
293.020
 20
51.0000
 30
6.39000e-14
  70
    32
  0
VERTEX
  8
0
  5
E31
 10
293.020
 20
50.9999
 30
6.39000e-14
  70
    32
  0
VERTEX
  8
0
  5
E32
 10
293.020
 20
50.9999
 30
6.39000e-14
  70
    32
  0
VERTEX
  8
0
  5
E33
 10
293.020
 20
50.9999
 30
6.39000e-14
  70
    32
  0
VERTEX
  8
0
  5
E34
 10
293.021
 20
50.9999
 30
6.39000e-14
  70
    32
  0
VERTEX
  8
0
  5
E35
 10
293.021
 20
50.9999
 30
6.39000e-14
  70
    32
  0
VERTEX
  8
0
  5
E36
 10
293.021
 20
50.9999
 30
6.39000e-14
  70
    32
  0
VERTEX
  8
0
  5
E37
 10
293.021
 20
50.9999
 30
6.39000e-14
  70
    32
  0
VERTEX
  8
0
  5
E38
 10
293.021
 20
50.9999
 30
6.39000e-14
  70
    32
  0
VERTEX
  8
0
  5
E39
 10
293.021
 20
50.9999
 30
6.39000e-14
  70
    32
  0
VERTEX
  8
0
  5
E3A
 10
293.021
 20
50.9999
 30
6.39000e-14
  70
    32
  0
VERTEX
  8
0
  5
E3B
 10
293.021
 20
50.9999
 30
6.39000e-14
  70
    32
  0
VERTEX
  8
0
  5
E3C
 10
293.021
 20
50.9999
 30
6.39000e-14
  70
    32
  0
VERTEX
  8
0
  5
E3D
 10
293.021
 20
50.9999
 30
6.39000e-14
  70
    32
  0
VERTEX
  8
0
  5
E3E
 10
293.022
 20
50.9999
 30
6.39000e-14
  70
    32
  0
VERTEX
  8
0
  5
E3F
 10
293.022
 20
50.9999
 30
6.39000e-14
  70
    32
  0
VERTEX
  8
0
  5
E40
 10
293.022
 20
50.9999
 30
6.39000e-14
  70
    32
  0
VERTEX
  8
0
  5
E41
 10
293.022
 20
50.9999
 30
6.39000e-14
  70
    32
  0
VERTEX
  8
0
  5
E42
 10
293.022
 20
50.9999
 30
6.39000e-14
  70
    32
  0
VERTEX
  8
0
  5
E43
 10
293.022
 20
50.9999
 30
6.39000e-14
  70
    32
  0
VERTEX
  8
0
  5
E44
 10
293.022
 20
50.9999
 30
6.39000e-14
  70
    32
  0
VERTEX
  8
0
  5
E45
 10
293.022
 20
50.9999
 30
6.39000e-14
  70
    32
  0
VERTEX
  8
0
  5
E46
 10
293.022
 20
50.9999
 30
6.39000e-14
  70
    32
  0
VERTEX
  8
0
  5
E47
 10
293.022
 20
50.9999
 30
6.39000e-14
  70
    32
  0
VERTEX
  8
0
  5
E48
 10
293.022
 20
50.9999
 30
6.39000e-14
  70
    32
  0
VERTEX
  8
0
  5
E49
 10
293.023
 20
50.9999
 30
6.39000e-14
  70
    32
  0
VERTEX
  8
0
  5
E4A
 10
293.023
 20
50.9999
 30
6.39000e-14
  70
    32
  0
VERTEX
  8
0
  5
E4B
 10
293.023
 20
50.9999
 30
6.39000e-14
  70
    32
  0
VERTEX
  8
0
  5
E4C
 10
293.023
 20
50.9999
 30
6.39000e-14
  70
    32
  0
VERTEX
  8
0
  5
E4D
 10
293.023
 20
50.9998
 30
6.39000e-14
  70
    32
  0
VERTEX
  8
0
  5
E4E
 10
293.023
 20
50.9998
 30
6.39000e-14
  70
    32
  0
VERTEX
  8
0
  5
E4F
 10
293.023
 20
50.9998
 30
6.39000e-14
  70
    32
  0
VERTEX
  8
0
  5
E50
 10
293.023
 20
50.9998
 30
6.39000e-14
  70
    32
  0
VERTEX
  8
0
  5
E51
 10
293.023
 20
50.9998
 30
6.39000e-14
  70
    32
  0
VERTEX
  8
0
  5
E52
 10
293.023
 20
50.9998
 30
6.39000e-14
  70
    32
  0
VERTEX
  8
0
  5
E53
 10
293.024
 20
50.9998
 30
6.39000e-14
  70
    32
  0
VERTEX
  8
0
  5
E54
 10
293.024
 20
50.9998
 30
6.39000e-14
  70
    32
  0
VERTEX
  8
0
  5
E55
 10
293.024
 20
50.9998
 30
6.39000e-14
  70
    32
  0
VERTEX
  8
0
  5
E56
 10
293.024
 20
50.9998
 30
6.39000e-14
  70
    32
  0
VERTEX
  8
0
  5
E57
 10
293.024
 20
50.9998
 30
6.39000e-14
  70
    32
  0
VERTEX
  8
0
  5
E58
 10
293.024
 20
50.9998
 30
6.39000e-14
  70
    32
  0
VERTEX
  8
0
  5
E59
 10
293.024
 20
50.9998
 30
6.39000e-14
  70
    32
  0
VERTEX
  8
0
  5
E5A
 10
293.024
 20
50.9998
 30
6.39000e-14
  70
    32
  0
VERTEX
  8
0
  5
E5B
 10
293.024
 20
50.9998
 30
6.39000e-14
  70
    32
  0
VERTEX
  8
0
  5
E5C
 10
293.024
 20
50.9998
 30
6.39000e-14
  70
    32
  0
VERTEX
  8
0
  5
E5D
 10
293.024
 20
50.9998
 30
6.39000e-14
  70
    32
  0
VERTEX
  8
0
  5
E5E
 10
293.025
 20
50.9998
 30
6.39000e-14
  70
    32
  0
VERTEX
  8
0
  5
E5F
 10
293.025
 20
50.9998
 30
6.39000e-14
  70
    32
  0
VERTEX
  8
0
  5
E60
 10
293.025
 20
50.9998
 30
6.39000e-14
  70
    32
  0
VERTEX
  8
0
  5
E61
 10
293.025
 20
50.9997
 30
6.39000e-14
  70
    32
  0
VERTEX
  8
0
  5
E62
 10
293.025
 20
50.9997
 30
6.39000e-14
  70
    32
  0
VERTEX
  8
0
  5
E63
 10
293.025
 20
50.9997
 30
6.39000e-14
  70
    32
  0
VERTEX
  8
0
  5
E64
 10
293.025
 20
50.9997
 30
6.39000e-14
  70
    32
  0
VERTEX
  8
0
  5
E65
 10
293.025
 20
50.9997
 30
6.39000e-14
  70
    32
  0
VERTEX
  8
0
  5
E66
 10
293.025
 20
50.9997
 30
6.39000e-14
  70
    32
  0
VERTEX
  8
0
  5
E67
 10
293.025
 20
50.9997
 30
6.39000e-14
  70
    32
  0
VERTEX
  8
0
  5
E68
 10
293.026
 20
50.9997
 30
6.39000e-14
  70
    32
  0
VERTEX
  8
0
  5
E69
 10
293.026
 20
50.9997
 30
6.39000e-14
  70
    32
  0
VERTEX
  8
0
  5
E6A
 10
293.026
 20
50.9997
 30
6.39000e-14
  70
    32
  0
VERTEX
  8
0
  5
E6B
 10
293.026
 20
50.9997
 30
6.39000e-14
  70
    32
  0
VERTEX
  8
0
  5
E6C
 10
293.026
 20
50.9997
 30
6.39000e-14
  70
    32
  0
VERTEX
  8
0
  5
E6D
 10
293.026
 20
50.9997
 30
6.39000e-14
  70
    32
  0
VERTEX
  8
0
  5
E6E
 10
293.026
 20
50.9997
 30
6.39000e-14
  70
    32
  0
VERTEX
  8
0
  5
E6F
 10
293.026
 20
50.9997
 30
6.39000e-14
  70
    32
  0
VERTEX
  8
0
  5
E70
 10
293.026
 20
50.9997
 30
6.39000e-14
  70
    32
  0
VERTEX
  8
0
  5
E71
 10
293.026
 20
50.9996
 30
6.39000e-14
  70
    32
  0
VERTEX
  8
0
  5
E72
 10
293.026
 20
50.9996
 30
6.39000e-14
  70
    32
  0
VERTEX
  8
0
  5
E73
 10
293.027
 20
50.9996
 30
6.39000e-14
  70
    32
  0
VERTEX
  8
0
  5
E74
 10
293.027
 20
50.9996
 30
6.39000e-14
  70
    32
  0
VERTEX
  8
0
  5
E75
 10
293.027
 20
50.9996
 30
6.39000e-14
  70
    32
  0
VERTEX
  8
0
  5
E76
 10
293.027
 20
50.9996
 30
6.39000e-14
  70
    32
  0
VERTEX
  8
0
  5
E77
 10
293.027
 20
50.9996
 30
6.39000e-14
  70
    32
  0
VERTEX
  8
0
  5
E78
 10
293.027
 20
50.9996
 30
6.39000e-14
  70
    32
  0
VERTEX
  8
0
  5
E79
 10
293.027
 20
50.9996
 30
6.39000e-14
  70
    32
  0
VERTEX
  8
0
  5
E7A
 10
293.027
 20
50.9996
 30
6.39000e-14
  70
    32
  0
VERTEX
  8
0
  5
E7B
 10
293.027
 20
50.9996
 30
6.39000e-14
  70
    32
  0
VERTEX
  8
0
  5
E7C
 10
293.027
 20
50.9996
 30
6.39000e-14
  70
    32
  0
VERTEX
  8
0
  5
E7D
 10
293.028
 20
50.9996
 30
6.39000e-14
  70
    32
  0
VERTEX
  8
0
  5
E7E
 10
293.028
 20
50.9996
 30
6.39000e-14
  70
    32
  0
VERTEX
  8
0
  5
E7F
 10
293.028
 20
50.9995
 30
6.39000e-14
  70
    32
  0
VERTEX
  8
0
  5
E80
 10
293.028
 20
50.9995
 30
6.39000e-14
  70
    32
  0
VERTEX
  8
0
  5
E81
 10
293.028
 20
50.9995
 30
6.39000e-14
  70
    32
  0
VERTEX
  8
0
  5
E82
 10
293.028
 20
50.9995
 30
6.39000e-14
  70
    32
  0
VERTEX
  8
0
  5
E83
 10
293.028
 20
50.9995
 30
6.39000e-14
  70
    32
  0
VERTEX
  8
0
  5
E84
 10
293.028
 20
50.9995
 30
6.39000e-14
  70
    32
  0
VERTEX
  8
0
  5
E85
 10
293.028
 20
50.9995
 30
6.39000e-14
  70
    32
  0
VERTEX
  8
0
  5
E86
 10
293.028
 20
50.9995
 30
6.39000e-14
  70
    32
  0
VERTEX
  8
0
  5
E87
 10
293.028
 20
50.9995
 30
6.39000e-14
  70
    32
  0
VERTEX
  8
0
  5
E88
 10
293.029
 20
50.9995
 30
6.39000e-14
  70
    32
  0
VERTEX
  8
0
  5
E89
 10
293.029
 20
50.9995
 30
6.39000e-14
  70
    32
  0
SEQEND
  8
0
  5
E8A
  0
POLYLINE
  5
D58
  8
0
  6
AUSGEZOGEN
 62
     3
 10
293.0286837923345047
 20
-50.9994639102024863
 30
0.0000000000000639
 66
     1
 70
     8
  0
VERTEX
  8
0
  5
E8B
 10
293.029
 20
-50.9995
 30
6.39000e-14
  70
    32
  0
VERTEX
  8
0
  5
E8C
 10
293.029
 20
-50.9995
 30
6.39000e-14
  70
    32
  0
VERTEX
  8
0
  5
E8D
 10
293.028
 20
-50.9995
 30
6.39000e-14
  70
    32
  0
VERTEX
  8
0
  5
E8E
 10
293.028
 20
-50.9995
 30
6.39000e-14
  70
    32
  0
VERTEX
  8
0
  5
E8F
 10
293.028
 20
-50.9995
 30
6.39000e-14
  70
    32
  0
VERTEX
  8
0
  5
E90
 10
293.028
 20
-50.9995
 30
6.39000e-14
  70
    32
  0
VERTEX
  8
0
  5
E91
 10
293.028
 20
-50.9995
 30
6.39000e-14
  70
    32
  0
VERTEX
  8
0
  5
E92
 10
293.028
 20
-50.9995
 30
6.39000e-14
  70
    32
  0
VERTEX
  8
0
  5
E93
 10
293.028
 20
-50.9995
 30
6.39000e-14
  70
    32
  0
VERTEX
  8
0
  5
E94
 10
293.028
 20
-50.9995
 30
6.39000e-14
  70
    32
  0
VERTEX
  8
0
  5
E95
 10
293.028
 20
-50.9995
 30
6.39000e-14
  70
    32
  0
VERTEX
  8
0
  5
E96
 10
293.028
 20
-50.9996
 30
6.39000e-14
  70
    32
  0
VERTEX
  8
0
  5
E97
 10
293.028
 20
-50.9996
 30
6.39000e-14
  70
    32
  0
VERTEX
  8
0
  5
E98
 10
293.027
 20
-50.9996
 30
6.39000e-14
  70
    32
  0
VERTEX
  8
0
  5
E99
 10
293.027
 20
-50.9996
 30
6.39000e-14
  70
    32
  0
VERTEX
  8
0
  5
E9A
 10
293.027
 20
-50.9996
 30
6.39000e-14
  70
    32
  0
VERTEX
  8
0
  5
E9B
 10
293.027
 20
-50.9996
 30
6.39000e-14
  70
    32
  0
VERTEX
  8
0
  5
E9C
 10
293.027
 20
-50.9996
 30
6.39000e-14
  70
    32
  0
VERTEX
  8
0
  5
E9D
 10
293.027
 20
-50.9996
 30
6.39000e-14
  70
    32
  0
VERTEX
  8
0
  5
E9E
 10
293.027
 20
-50.9996
 30
6.39000e-14
  70
    32
  0
VERTEX
  8
0
  5
E9F
 10
293.027
 20
-50.9996
 30
6.39000e-14
  70
    32
  0
VERTEX
  8
0
  5
EA0
 10
293.027
 20
-50.9996
 30
6.39000e-14
  70
    32
  0
VERTEX
  8
0
  5
EA1
 10
293.027
 20
-50.9996
 30
6.39000e-14
  70
    32
  0
VERTEX
  8
0
  5
EA2
 10
293.026
 20
-50.9996
 30
6.39000e-14
  70
    32
  0
VERTEX
  8
0
  5
EA3
 10
293.026
 20
-50.9996
 30
6.39000e-14
  70
    32
  0
VERTEX
  8
0
  5
EA4
 10
293.026
 20
-50.9997
 30
6.39000e-14
  70
    32
  0
VERTEX
  8
0
  5
EA5
 10
293.026
 20
-50.9997
 30
6.39000e-14
  70
    32
  0
VERTEX
  8
0
  5
EA6
 10
293.026
 20
-50.9997
 30
6.39000e-14
  70
    32
  0
VERTEX
  8
0
  5
EA7
 10
293.026
 20
-50.9997
 30
6.39000e-14
  70
    32
  0
VERTEX
  8
0
  5
EA8
 10
293.026
 20
-50.9997
 30
6.39000e-14
  70
    32
  0
VERTEX
  8
0
  5
EA9
 10
293.026
 20
-50.9997
 30
6.39000e-14
  70
    32
  0
VERTEX
  8
0
  5
EAA
 10
293.026
 20
-50.9997
 30
6.39000e-14
  70
    32
  0
VERTEX
  8
0
  5
EAB
 10
293.026
 20
-50.9997
 30
6.39000e-14
  70
    32
  0
VERTEX
  8
0
  5
EAC
 10
293.026
 20
-50.9997
 30
6.39000e-14
  70
    32
  0
VERTEX
  8
0
  5
EAD
 10
293.025
 20
-50.9997
 30
6.39000e-14
  70
    32
  0
VERTEX
  8
0
  5
EAE
 10
293.025
 20
-50.9997
 30
6.39000e-14
  70
    32
  0
VERTEX
  8
0
  5
EAF
 10
293.025
 20
-50.9997
 30
6.39000e-14
  70
    32
  0
VERTEX
  8
0
  5
EB0
 10
293.025
 20
-50.9997
 30
6.39000e-14
  70
    32
  0
VERTEX
  8
0
  5
EB1
 10
293.025
 20
-50.9997
 30
6.39000e-14
  70
    32
  0
VERTEX
  8
0
  5
EB2
 10
293.025
 20
-50.9997
 30
6.39000e-14
  70
    32
  0
VERTEX
  8
0
  5
EB3
 10
293.025
 20
-50.9997
 30
6.39000e-14
  70
    32
  0
VERTEX
  8
0
  5
EB4
 10
293.025
 20
-50.9998
 30
6.39000e-14
  70
    32
  0
VERTEX
  8
0
  5
EB5
 10
293.025
 20
-50.9998
 30
6.39000e-14
  70
    32
  0
VERTEX
  8
0
  5
EB6
 10
293.025
 20
-50.9998
 30
6.39000e-14
  70
    32
  0
VERTEX
  8
0
  5
EB7
 10
293.024
 20
-50.9998
 30
6.39000e-14
  70
    32
  0
VERTEX
  8
0
  5
EB8
 10
293.024
 20
-50.9998
 30
6.39000e-14
  70
    32
  0
VERTEX
  8
0
  5
EB9
 10
293.024
 20
-50.9998
 30
6.39000e-14
  70
    32
  0
VERTEX
  8
0
  5
EBA
 10
293.024
 20
-50.9998
 30
6.39000e-14
  70
    32
  0
VERTEX
  8
0
  5
EBB
 10
293.024
 20
-50.9998
 30
6.39000e-14
  70
    32
  0
VERTEX
  8
0
  5
EBC
 10
293.024
 20
-50.9998
 30
6.39000e-14
  70
    32
  0
VERTEX
  8
0
  5
EBD
 10
293.024
 20
-50.9998
 30
6.39000e-14
  70
    32
  0
VERTEX
  8
0
  5
EBE
 10
293.024
 20
-50.9998
 30
6.39000e-14
  70
    32
  0
VERTEX
  8
0
  5
EBF
 10
293.024
 20
-50.9998
 30
6.39000e-14
  70
    32
  0
VERTEX
  8
0
  5
EC0
 10
293.024
 20
-50.9998
 30
6.39000e-14
  70
    32
  0
VERTEX
  8
0
  5
EC1
 10
293.024
 20
-50.9998
 30
6.39000e-14
  70
    32
  0
VERTEX
  8
0
  5
EC2
 10
293.023
 20
-50.9998
 30
6.39000e-14
  70
    32
  0
VERTEX
  8
0
  5
EC3
 10
293.023
 20
-50.9998
 30
6.39000e-14
  70
    32
  0
VERTEX
  8
0
  5
EC4
 10
293.023
 20
-50.9998
 30
6.39000e-14
  70
    32
  0
VERTEX
  8
0
  5
EC5
 10
293.023
 20
-50.9998
 30
6.39000e-14
  70
    32
  0
VERTEX
  8
0
  5
EC6
 10
293.023
 20
-50.9998
 30
6.39000e-14
  70
    32
  0
VERTEX
  8
0
  5
EC7
 10
293.023
 20
-50.9998
 30
6.39000e-14
  70
    32
  0
VERTEX
  8
0
  5
EC8
 10
293.023
 20
-50.9999
 30
6.39000e-14
  70
    32
  0
VERTEX
  8
0
  5
EC9
 10
293.023
 20
-50.9999
 30
6.39000e-14
  70
    32
  0
VERTEX
  8
0
  5
ECA
 10
293.023
 20
-50.9999
 30
6.39000e-14
  70
    32
  0
VERTEX
  8
0
  5
ECB
 10
293.023
 20
-50.9999
 30
6.39000e-14
  70
    32
  0
VERTEX
  8
0
  5
ECC
 10
293.022
 20
-50.9999
 30
6.39000e-14
  70
    32
  0
VERTEX
  8
0
  5
ECD
 10
293.022
 20
-50.9999
 30
6.39000e-14
  70
    32
  0
VERTEX
  8
0
  5
ECE
 10
293.022
 20
-50.9999
 30
6.39000e-14
  70
    32
  0
VERTEX
  8
0
  5
ECF
 10
293.022
 20
-50.9999
 30
6.39000e-14
  70
    32
  0
VERTEX
  8
0
  5
ED0
 10
293.022
 20
-50.9999
 30
6.39000e-14
  70
    32
  0
VERTEX
  8
0
  5
ED1
 10
293.022
 20
-50.9999
 30
6.39000e-14
  70
    32
  0
VERTEX
  8
0
  5
ED2
 10
293.022
 20
-50.9999
 30
6.39000e-14
  70
    32
  0
VERTEX
  8
0
  5
ED3
 10
293.022
 20
-50.9999
 30
6.39000e-14
  70
    32
  0
VERTEX
  8
0
  5
ED4
 10
293.022
 20
-50.9999
 30
6.39000e-14
  70
    32
  0
VERTEX
  8
0
  5
ED5
 10
293.022
 20
-50.9999
 30
6.39000e-14
  70
    32
  0
VERTEX
  8
0
  5
ED6
 10
293.022
 20
-50.9999
 30
6.39000e-14
  70
    32
  0
VERTEX
  8
0
  5
ED7
 10
293.021
 20
-50.9999
 30
6.39000e-14
  70
    32
  0
VERTEX
  8
0
  5
ED8
 10
293.021
 20
-50.9999
 30
6.39000e-14
  70
    32
  0
VERTEX
  8
0
  5
ED9
 10
293.021
 20
-50.9999
 30
6.39000e-14
  70
    32
  0
VERTEX
  8
0
  5
EDA
 10
293.021
 20
-50.9999
 30
6.39000e-14
  70
    32
  0
VERTEX
  8
0
  5
EDB
 10
293.021
 20
-50.9999
 30
6.39000e-14
  70
    32
  0
VERTEX
  8
0
  5
EDC
 10
293.021
 20
-50.9999
 30
6.39000e-14
  70
    32
  0
VERTEX
  8
0
  5
EDD
 10
293.021
 20
-50.9999
 30
6.39000e-14
  70
    32
  0
VERTEX
  8
0
  5
EDE
 10
293.021
 20
-50.9999
 30
6.39000e-14
  70
    32
  0
VERTEX
  8
0
  5
EDF
 10
293.021
 20
-50.9999
 30
6.39000e-14
  70
    32
  0
VERTEX
  8
0
  5
EE0
 10
293.021
 20
-50.9999
 30
6.39000e-14
  70
    32
  0
VERTEX
  8
0
  5
EE1
 10
293.020
 20
-50.9999
 30
6.39000e-14
  70
    32
  0
VERTEX
  8
0
  5
EE2
 10
293.020
 20
-50.9999
 30
6.39000e-14
  70
    32
  0
VERTEX
  8
0
  5
EE3
 10
293.020
 20
-50.9999
 30
6.39000e-14
  70
    32
  0
VERTEX
  8
0
  5
EE4
 10
293.020
 20
-51.0000
 30
6.39000e-14
  70
    32
  0
VERTEX
  8
0
  5
EE5
 10
293.020
 20
-51.0000
 30
6.39000e-14
  70
    32
  0
VERTEX
  8
0
  5
EE6
 10
293.020
 20
-51.0000
 30
6.39000e-14
  70
    32
  0
VERTEX
  8
0
  5
EE7
 10
293.020
 20
-51.0000
 30
6.39000e-14
  70
    32
  0
VERTEX
  8
0
  5
EE8
 10
293.020
 20
-51.0000
 30
6.39000e-14
  70
    32
  0
VERTEX
  8
0
  5
EE9
 10
293.020
 20
-51.0000
 30
6.39000e-14
  70
    32
  0
VERTEX
  8
0
  5
EEA
 10
293.020
 20
-51.0000
 30
6.39000e-14
  70
    32
  0
VERTEX
  8
0
  5
EEB
 10
293.020
 20
-51.0000
 30
6.39000e-14
  70
    32
  0
VERTEX
  8
0
  5
EEC
 10
293.019
 20
-51.0000
 30
6.39000e-14
  70
    32
  0
VERTEX
  8
0
  5
EED
 10
293.019
 20
-51.0000
 30
6.39000e-14
  70
    32
  0
VERTEX
  8
0
  5
EEE
 10
293.019
 20
-51.0000
 30
6.39000e-14
  70
    32
  0
VERTEX
  8
0
  5
EEF
 10
293.019
 20
-51.0000
 30
6.39000e-14
  70
    32
  0
VERTEX
  8
0
  5
EF0
 10
293.019
 20
-51.0000
 30
6.39000e-14
  70
    32
  0
VERTEX
  8
0
  5
EF1
 10
293.019
 20
-51.0000
 30
6.39000e-14
  70
    32
  0
VERTEX
  8
0
  5
EF2
 10
293.019
 20
-51.0000
 30
6.39000e-14
  70
    32
  0
VERTEX
  8
0
  5
EF3
 10
293.019
 20
-51.0000
 30
6.39000e-14
  70
    32
  0
VERTEX
  8
0
  5
EF4
 10
293.019
 20
-51.0000
 30
6.39000e-14
  70
    32
  0
VERTEX
  8
0
  5
EF5
 10
293.019
 20
-51.0000
 30
6.39000e-14
  70
    32
  0
VERTEX
  8
0
  5
EF6
 10
293.018
 20
-51.0000
 30
6.39000e-14
  70
    32
  0
VERTEX
  8
0
  5
EF7
 10
293.018
 20
-51.0000
 30
6.39000e-14
  70
    32
  0
VERTEX
  8
0
  5
EF8
 10
293.018
 20
-51.0000
 30
6.39000e-14
  70
    32
  0
VERTEX
  8
0
  5
EF9
 10
293.018
 20
-51.0000
 30
6.39000e-14
  70
    32
  0
VERTEX
  8
0
  5
EFA
 10
293.018
 20
-51.0000
 30
6.39000e-14
  70
    32
  0
VERTEX
  8
0
  5
EFB
 10
293.018
 20
-51.0000
 30
6.39000e-14
  70
    32
  0
VERTEX
  8
0
  5
EFC
 10
293.018
 20
-51.0000
 30
6.39000e-14
  70
    32
  0
VERTEX
  8
0
  5
EFD
 10
293.018
 20
-51.0000
 30
6.39000e-14
  70
    32
  0
VERTEX
  8
0
  5
EFE
 10
293.018
 20
-51.0000
 30
6.39000e-14
  70
    32
  0
VERTEX
  8
0
  5
EFF
 10
293.018
 20
-51.0000
 30
6.39000e-14
  70
    32
  0
VERTEX
  8
0
  5
F00
 10
293.017
 20
-51.0000
 30
6.39000e-14
  70
    32
  0
VERTEX
  8
0
  5
F01
 10
293.017
 20
-51.0000
 30
6.39000e-14
  70
    32
  0
VERTEX
  8
0
  5
F02
 10
293.017
 20
-51.0000
 30
6.39000e-14
  70
    32
  0
VERTEX
  8
0
  5
F03
 10
293.017
 20
-51.0000
 30
6.39000e-14
  70
    32
  0
VERTEX
  8
0
  5
F04
 10
293.017
 20
-51.0000
 30
6.39000e-14
  70
    32
  0
VERTEX
  8
0
  5
F05
 10
293.017
 20
-51.0000
 30
6.39000e-14
  70
    32
  0
VERTEX
  8
0
  5
F06
 10
293.017
 20
-51.0000
 30
6.39000e-14
  70
    32
  0
VERTEX
  8
0
  5
F07
 10
293.017
 20
-51.0000
 30
6.39000e-14
  70
    32
  0
VERTEX
  8
0
  5
F08
 10
293.017
 20
-51.0000
 30
6.39000e-14
  70
    32
  0
VERTEX
  8
0
  5
F09
 10
293.017
 20
-51.0000
 30
6.39000e-14
  70
    32
  0
VERTEX
  8
0
  5
F0A
 10
293.017
 20
-51.0000
 30
6.39000e-14
  70
    32
  0
VERTEX
  8
0
  5
F0B
 10
293.016
 20
-51.0000
 30
6.39000e-14
  70
    32
  0
SEQEND
  8
0
  5
F0C
  0
POLYLINE
  5
D59
  8
0
  6
AUSGEZOGEN
 62
     3
 10
305.0119862788992577
 20
49.9496109836042521
 30
0.0000000000000711
 66
     1
 70
     8
  0
VERTEX
  8
0
  5
F0D
 10
305.012
 20
49.9496
 30
7.11000e-14
  70
    32
  0
VERTEX
  8
0
  5
F0E
 10
305.076
 20
49.9291
 30
7.11000e-14
  70
    32
  0
VERTEX
  8
0
  5
F0F
 10
305.140
 20
49.8786
 30
7.11000e-14
  70
    32
  0
VERTEX
  8
0
  5
F10
 10
305.204
 20
49.7983
 30
7.11000e-14
  70
    32
  0
VERTEX
  8
0
  5
F11
 10
305.267
 20
49.6881
 30
7.11000e-14
  70
    32
  0
VERTEX
  8
0
  5
F12
 10
305.331
 20
49.5482
 30
7.11000e-14
  70
    32
  0
VERTEX
  8
0
  5
F13
 10
305.394
 20
49.3786
 30
7.11000e-14
  70
    32
  0
VERTEX
  8
0
  5
F14
 10
305.457
 20
49.1795
 30
7.11000e-14
  70
    32
  0
VERTEX
  8
0
  5
F15
 10
305.520
 20
48.9509
 30
7.11000e-14
  70
    32
  0
VERTEX
  8
0
  5
F16
 10
305.583
 20
48.6930
 30
7.11000e-14
  70
    32
  0
VERTEX
  8
0
  5
F17
 10
305.645
 20
48.4059
 30
7.11000e-14
  70
    32
  0
VERTEX
  8
0
  5
F18
 10
305.707
 20
48.0898
 30
7.11000e-14
  70
    32
  0
VERTEX
  8
0
  5
F19
 10
305.768
 20
47.7450
 30
7.11000e-14
  70
    32
  0
VERTEX
  8
0
  5
F1A
 10
305.829
 20
47.3715
 30
7.11000e-14
  70
    32
  0
VERTEX
  8
0
  5
F1B
 10
305.890
 20
46.9697
 30
7.11000e-14
  70
    32
  0
VERTEX
  8
0
  5
F1C
 10
305.949
 20
46.5397
 30
7.11000e-14
  70
    32
  0
VERTEX
  8
0
  5
F1D
 10
306.009
 20
46.0819
 30
7.11000e-14
  70
    32
  0
VERTEX
  8
0
  5
F1E
 10
306.067
 20
45.5965
 30
7.11000e-14
  70
    32
  0
VERTEX
  8
0
  5
F1F
 10
306.125
 20
45.0838
 30
7.11000e-14
  70
    32
  0
VERTEX
  8
0
  5
F20
 10
306.183
 20
44.5440
 30
7.11000e-14
  70
    32
  0
VERTEX
  8
0
  5
F21
 10
306.240
 20
43.9776
 30
7.11000e-14
  70
    32
  0
VERTEX
  8
0
  5
F22
 10
306.296
 20
43.3849
 30
7.11000e-14
  70
    32
  0
VERTEX
  8
0
  5
F23
 10
306.351
 20
42.7662
 30
7.11000e-14
  70
    32
  0
VERTEX
  8
0
  5
F24
 10
306.405
 20
42.1219
 30
7.11000e-14
  70
    32
  0
VERTEX
  8
0
  5
F25
 10
306.459
 20
41.4523
 30
7.11000e-14
  70
    32
  0
VERTEX
  8
0
  5
F26
 10
306.511
 20
40.7580
 30
7.11000e-14
  70
    32
  0
VERTEX
  8
0
  5
F27
 10
306.563
 20
40.0392
 30
7.11000e-14
  70
    32
  0
VERTEX
  8
0
  5
F28
 10
306.614
 20
39.2964
 30
7.11000e-14
  70
    32
  0
VERTEX
  8
0
  5
F29
 10
306.664
 20
38.5301
 30
7.11000e-14
  70
    32
  0
VERTEX
  8
0
  5
F2A
 10
306.712
 20
37.7408
 30
7.11000e-14
  70
    32
  0
VERTEX
  8
0
  5
F2B
 10
306.760
 20
36.9288
 30
7.11000e-14
  70
    32
  0
VERTEX
  8
0
  5
F2C
 10
306.807
 20
36.0947
 30
7.11000e-14
  70
    32
  0
VERTEX
  8
0
  5
F2D
 10
306.853
 20
35.2390
 30
7.11000e-14
  70
    32
  0
VERTEX
  8
0
  5
F2E
 10
306.897
 20
34.3622
 30
7.11000e-14
  70
    32
  0
VERTEX
  8
0
  5
F2F
 10
306.941
 20
33.4648
 30
7.11000e-14
  70
    32
  0
VERTEX
  8
0
  5
F30
 10
306.983
 20
32.5474
 30
7.11000e-14
  70
    32
  0
VERTEX
  8
0
  5
F31
 10
307.024
 20
31.6105
 30
7.11000e-14
  70
    32
  0
VERTEX
  8
0
  5
F32
 10
307.064
 20
30.6547
 30
7.11000e-14
  70
    32
  0
VERTEX
  8
0
  5
F33
 10
307.103
 20
29.6805
 30
7.11000e-14
  70
    32
  0
VERTEX
  8
0
  5
F34
 10
307.140
 20
28.6885
 30
7.11000e-14
  70
    32
  0
VERTEX
  8
0
  5
F35
 10
307.176
 20
27.6794
 30
7.11000e-14
  70
    32
  0
VERTEX
  8
0
  5
F36
 10
307.211
 20
26.6536
 30
7.11000e-14
  70
    32
  0
VERTEX
  8
0
  5
F37
 10
307.244
 20
25.6119
 30
7.11000e-14
  70
    32
  0
VERTEX
  8
0
  5
F38
 10
307.277
 20
24.5549
 30
7.11000e-14
  70
    32
  0
VERTEX
  8
0
  5
F39
 10
307.307
 20
23.4832
 30
7.11000e-14
  70
    32
  0
VERTEX
  8
0
  5
F3A
 10
307.337
 20
22.3974
 30
7.11000e-14
  70
    32
  0
VERTEX
  8
0
  5
F3B
 10
307.365
 20
21.2982
 30
7.11000e-14
  70
    32
  0
VERTEX
  8
0
  5
F3C
 10
307.391
 20
20.1862
 30
7.11000e-14
  70
    32
  0
VERTEX
  8
0
  5
F3D
 10
307.416
 20
19.0622
 30
7.11000e-14
  70
    32
  0
VERTEX
  8
0
  5
F3E
 10
307.440
 20
17.9267
 30
7.11000e-14
  70
    32
  0
VERTEX
  8
0
  5
F3F
 10
307.462
 20
16.7805
 30
7.11000e-14
  70
    32
  0
VERTEX
  8
0
  5
F40
 10
307.483
 20
15.6243
 30
7.11000e-14
  70
    32
  0
VERTEX
  8
0
  5
F41
 10
307.502
 20
14.4587
 30
7.11000e-14
  70
    32
  0
VERTEX
  8
0
  5
F42
 10
307.520
 20
13.2844
 30
7.11000e-14
  70
    32
  0
VERTEX
  8
0
  5
F43
 10
307.536
 20
12.1022
 30
7.11000e-14
  70
    32
  0
VERTEX
  8
0
  5
F44
 10
307.551
 20
10.9127
 30
7.11000e-14
  70
    32
  0
VERTEX
  8
0
  5
F45
 10
307.564
 20
9.71671
 30
7.11000e-14
  70
    32
  0
VERTEX
  8
0
  5
F46
 10
307.576
 20
8.51489
 30
7.11000e-14
  70
    32
  0
VERTEX
  8
0
  5
F47
 10
307.586
 20
7.30797
 30
7.11000e-14
  70
    32
  0
VERTEX
  8
0
  5
F48
 10
307.595
 20
6.09667
 30
7.11000e-14
  70
    32
  0
VERTEX
  8
0
  5
F49
 10
307.602
 20
4.88172
 30
7.11000e-14
  70
    32
  0
VERTEX
  8
0
  5
F4A
 10
307.607
 20
3.66385
 30
7.11000e-14
  70
    32
  0
VERTEX
  8
0
  5
F4B
 10
307.611
 20
2.44379
 30
7.11000e-14
  70
    32
  0
VERTEX
  8
0
  5
F4C
 10
307.613
 20
1.22226
 30
7.11000e-14
  70
    32
  0
VERTEX
  8
0
  5
F4D
 10
307.614
 20
3.13605e-13
 30
7.11000e-14
  70
    32
  0
VERTEX
  8
0
  5
F4E
 10
307.613
 20
-1.22226
 30
7.11000e-14
  70
    32
  0
VERTEX
  8
0
  5
F4F
 10
307.611
 20
-2.44379
 30
7.11000e-14
  70
    32
  0
VERTEX
  8
0
  5
F50
 10
307.607
 20
-3.66385
 30
7.11000e-14
  70
    32
  0
VERTEX
  8
0
  5
F51
 10
307.602
 20
-4.88172
 30
7.11000e-14
  70
    32
  0
VERTEX
  8
0
  5
F52
 10
307.595
 20
-6.09667
 30
7.11000e-14
  70
    32
  0
VERTEX
  8
0
  5
F53
 10
307.586
 20
-7.30797
 30
7.11000e-14
  70
    32
  0
VERTEX
  8
0
  5
F54
 10
307.576
 20
-8.51489
 30
7.11000e-14
  70
    32
  0
VERTEX
  8
0
  5
F55
 10
307.564
 20
-9.71671
 30
7.11000e-14
  70
    32
  0
VERTEX
  8
0
  5
F56
 10
307.551
 20
-10.9127
 30
7.11000e-14
  70
    32
  0
VERTEX
  8
0
  5
F57
 10
307.536
 20
-12.1022
 30
7.11000e-14
  70
    32
  0
VERTEX
  8
0
  5
F58
 10
307.520
 20
-13.2844
 30
7.11000e-14
  70
    32
  0
VERTEX
  8
0
  5
F59
 10
307.502
 20
-14.4587
 30
7.11000e-14
  70
    32
  0
VERTEX
  8
0
  5
F5A
 10
307.483
 20
-15.6243
 30
7.11000e-14
  70
    32
  0
VERTEX
  8
0
  5
F5B
 10
307.462
 20
-16.7805
 30
7.11000e-14
  70
    32
  0
VERTEX
  8
0
  5
F5C
 10
307.440
 20
-17.9267
 30
7.11000e-14
  70
    32
  0
VERTEX
  8
0
  5
F5D
 10
307.416
 20
-19.0622
 30
7.11000e-14
  70
    32
  0
VERTEX
  8
0
  5
F5E
 10
307.391
 20
-20.1862
 30
7.11000e-14
  70
    32
  0
VERTEX
  8
0
  5
F5F
 10
307.365
 20
-21.2982
 30
7.11000e-14
  70
    32
  0
VERTEX
  8
0
  5
F60
 10
307.337
 20
-22.3974
 30
7.11000e-14
  70
    32
  0
VERTEX
  8
0
  5
F61
 10
307.307
 20
-23.4832
 30
7.11000e-14
  70
    32
  0
VERTEX
  8
0
  5
F62
 10
307.277
 20
-24.5549
 30
7.11000e-14
  70
    32
  0
VERTEX
  8
0
  5
F63
 10
307.244
 20
-25.6119
 30
7.11000e-14
  70
    32
  0
VERTEX
  8
0
  5
F64
 10
307.211
 20
-26.6536
 30
7.11000e-14
  70
    32
  0
VERTEX
  8
0
  5
F65
 10
307.176
 20
-27.6794
 30
7.11000e-14
  70
    32
  0
VERTEX
  8
0
  5
F66
 10
307.140
 20
-28.6885
 30
7.11000e-14
  70
    32
  0
VERTEX
  8
0
  5
F67
 10
307.103
 20
-29.6805
 30
7.11000e-14
  70
    32
  0
VERTEX
  8
0
  5
F68
 10
307.064
 20
-30.6547
 30
7.11000e-14
  70
    32
  0
VERTEX
  8
0
  5
F69
 10
307.024
 20
-31.6105
 30
7.11000e-14
  70
    32
  0
VERTEX
  8
0
  5
F6A
 10
306.983
 20
-32.5474
 30
7.11000e-14
  70
    32
  0
VERTEX
  8
0
  5
F6B
 10
306.941
 20
-33.4648
 30
7.11000e-14
  70
    32
  0
VERTEX
  8
0
  5
F6C
 10
306.897
 20
-34.3622
 30
7.11000e-14
  70
    32
  0
VERTEX
  8
0
  5
F6D
 10
306.853
 20
-35.2390
 30
7.11000e-14
  70
    32
  0
VERTEX
  8
0
  5
F6E
 10
306.807
 20
-36.0947
 30
7.11000e-14
  70
    32
  0
VERTEX
  8
0
  5
F6F
 10
306.760
 20
-36.9288
 30
7.11000e-14
  70
    32
  0
VERTEX
  8
0
  5
F70
 10
306.712
 20
-37.7408
 30
7.11000e-14
  70
    32
  0
VERTEX
  8
0
  5
F71
 10
306.664
 20
-38.5301
 30
7.11000e-14
  70
    32
  0
VERTEX
  8
0
  5
F72
 10
306.614
 20
-39.2964
 30
7.11000e-14
  70
    32
  0
VERTEX
  8
0
  5
F73
 10
306.563
 20
-40.0392
 30
7.11000e-14
  70
    32
  0
VERTEX
  8
0
  5
F74
 10
306.511
 20
-40.7580
 30
7.11000e-14
  70
    32
  0
VERTEX
  8
0
  5
F75
 10
306.459
 20
-41.4523
 30
7.11000e-14
  70
    32
  0
VERTEX
  8
0
  5
F76
 10
306.405
 20
-42.1219
 30
7.11000e-14
  70
    32
  0
VERTEX
  8
0
  5
F77
 10
306.351
 20
-42.7662
 30
7.11000e-14
  70
    32
  0
VERTEX
  8
0
  5
F78
 10
306.296
 20
-43.3849
 30
7.11000e-14
  70
    32
  0
VERTEX
  8
0
  5
F79
 10
306.240
 20
-43.9776
 30
7.11000e-14
  70
    32
  0
VERTEX
  8
0
  5
F7A
 10
306.183
 20
-44.5440
 30
7.11000e-14
  70
    32
  0
VERTEX
  8
0
  5
F7B
 10
306.125
 20
-45.0838
 30
7.11000e-14
  70
    32
  0
VERTEX
  8
0
  5
F7C
 10
306.067
 20
-45.5965
 30
7.11000e-14
  70
    32
  0
VERTEX
  8
0
  5
F7D
 10
306.009
 20
-46.0819
 30
7.11000e-14
  70
    32
  0
VERTEX
  8
0
  5
F7E
 10
305.949
 20
-46.5397
 30
7.11000e-14
  70
    32
  0
VERTEX
  8
0
  5
F7F
 10
305.890
 20
-46.9697
 30
7.11000e-14
  70
    32
  0
VERTEX
  8
0
  5
F80
 10
305.829
 20
-47.3715
 30
7.11000e-14
  70
    32
  0
VERTEX
  8
0
  5
F81
 10
305.768
 20
-47.7450
 30
7.11000e-14
  70
    32
  0
VERTEX
  8
0
  5
F82
 10
305.707
 20
-48.0898
 30
7.11000e-14
  70
    32
  0
VERTEX
  8
0
  5
F83
 10
305.645
 20
-48.4059
 30
7.11000e-14
  70
    32
  0
VERTEX
  8
0
  5
F84
 10
305.583
 20
-48.6930
 30
7.11000e-14
  70
    32
  0
VERTEX
  8
0
  5
F85
 10
305.520
 20
-48.9509
 30
7.11000e-14
  70
    32
  0
VERTEX
  8
0
  5
F86
 10
305.457
 20
-49.1795
 30
7.11000e-14
  70
    32
  0
VERTEX
  8
0
  5
F87
 10
305.394
 20
-49.3786
 30
7.11000e-14
  70
    32
  0
VERTEX
  8
0
  5
F88
 10
305.331
 20
-49.5482
 30
7.11000e-14
  70
    32
  0
VERTEX
  8
0
  5
F89
 10
305.267
 20
-49.6881
 30
7.11000e-14
  70
    32
  0
VERTEX
  8
0
  5
F8A
 10
305.204
 20
-49.7983
 30
7.11000e-14
  70
    32
  0
VERTEX
  8
0
  5
F8B
 10
305.140
 20
-49.8786
 30
7.11000e-14
  70
    32
  0
VERTEX
  8
0
  5
F8C
 10
305.076
 20
-49.9291
 30
7.11000e-14
  70
    32
  0
VERTEX
  8
0
  5
F8D
 10
305.012
 20
-49.9496
 30
7.11000e-14
  70
    32
  0
SEQEND
  8
0
  5
F8E
  0
LINE
  5
D5A
  8
0
  6
AUSGEZOGEN
 62
     3
 10
218.8140892212805966
 20
50.9999999999999787
 30
0.0000000000000497
 11
145.246504851456308
 21
50.9999999999999787
 31
0.0000000000000284
  0
LINE
  5
D5B
  8
0
  6
AUSGEZOGEN
 62
     3
 10
145.246504851456308
 20
-51.0000000000000426
 30
0.0000000000000284
 11
218.8140892212807103
 21
-51.0000000000000426
 31
0.0000000000000497
  0
LINE
  5
D5C
  8
0
  6
AUSGEZOGEN
 62
     3
 10
139.9040674328221883
 20
50.9999999999999574
 30
0.0000000000000284
 11
145.246504851456308
 21
50.9999999999999574
 31
0.0000000000000284
  0
LINE
  5
D5D
  8
0
  6
AUSGEZOGEN
 62
     3
 10
139.904067432822302
 20
-51.0000000000000284
 30
0.0000000000000284
 11
145.2465048514563932
 21
-51.0000000000000213
 31
0.0000000000000284
  0
LINE
  5
D5E
  8
0
  6
AUSGEZOGEN
 62
     3
 10
29.6647939483826093
 20
-51.0000000000000426
 30
0.0
 11
139.9040674328221883
 21
-51.0000000000000426
 31
0.0000000000000284
  0
LINE
  5
D5F
  8
0
  6
AUSGEZOGEN
 62
     3
 10
139.9040674328221883
 20
50.9999999999999574
 30
0.0000000000000284
 11
29.6647939483825809
 21
50.9999999999999574
 31
0.0
  0
LINE
  5
D60
  8
0
  6
AUSGEZOGEN
 62
     3
 10
218.8140892212807103
 20
51.0000000000000782
 30
0.0000000000000497
 11
293.01644558294538
 21
51.0000000000000782
 31
0.0000000000000666
  0
LINE
  5
D61
  8
0
  6
AUSGEZOGEN
 62
     3
 10
218.8140892212807103
 20
-51.0000000000001421
 30
0.0000000000000497
 11
293.01644558294538
 21
-51.0000000000001421
 31
0.0000000000000666
  0
LINE
  5
D62
  8
0
  6
AUSGEZOGEN
 62
     3
 10
305.0119862788993146
 20
-49.9496109836043019
 30
0.0000000000000711
 11
293.0286837923346184
 21
-50.9994639102025005
 31
0.0000000000000684
  0
LINE
  5
D63
  8
0
  6
AUSGEZOGEN
 62
     3
 10
305.0119862788993146
 20
49.9496109836042379
 30
0.0000000000000711
 11
293.0286837923346184
 21
50.9994639102024294
 31
0.0000000000000684
  0
CIRCLE
  5
D64
  8
0
  6
VERDECKT
 62
     1
 10
-0.0000000000000028
 20
-0.0000000000000264
 30
0.0
 40
56.9999999999997726
  0
CIRCLE
  5
D65
  8
0
  6
VERDECKT
 62
     1
 10
-0.00000000000001
 20
-0.0000000000000284
 30
0.0
 40
55.0
  0
CIRCLE
  5
D66
  8
0
  6
VERDECKT
 62
     1
 10
-0.0000000000000172
 20
-0.0000000000000303
 30
0.0
 40
51.0
  0
POLYLINE
  5
D67
  8
0
  6
VERDECKT
 62
     1
 10
292.9292433687385824
 20
49.0000000000003126
 30
0.0000000000000639
 66
     1
 70
     8
  0
VERTEX
  8
0
  5
F8F
 10
292.929
 20
49.0000
 30
6.39000e-14
  70
    32
  0
VERTEX
  8
0
  5
F90
 10
292.929
 20
49.0000
 30
6.39000e-14
  70
    32
  0
VERTEX
  8
0
  5
F91
 10
292.929
 20
49.0000
 30
6.39000e-14
  70
    32
  0
VERTEX
  8
0
  5
F92
 10
292.930
 20
49.0000
 30
6.39000e-14
  70
    32
  0
VERTEX
  8
0
  5
F93
 10
292.930
 20
49.0000
 30
6.39000e-14
  70
    32
  0
VERTEX
  8
0
  5
F94
 10
292.930
 20
49.0000
 30
6.39000e-14
  70
    32
  0
VERTEX
  8
0
  5
F95
 10
292.930
 20
49.0000
 30
6.39000e-14
  70
    32
  0
VERTEX
  8
0
  5
F96
 10
292.930
 20
49.0000
 30
6.39000e-14
  70
    32
  0
VERTEX
  8
0
  5
F97
 10
292.930
 20
49.0000
 30
6.39000e-14
  70
    32
  0
VERTEX
  8
0
  5
F98
 10
292.930
 20
49.0000
 30
6.39000e-14
  70
    32
  0
VERTEX
  8
0
  5
F99
 10
292.930
 20
49.0000
 30
6.39000e-14
  70
    32
  0
VERTEX
  8
0
  5
F9A
 10
292.930
 20
49.0000
 30
6.39000e-14
  70
    32
  0
VERTEX
  8
0
  5
F9B
 10
292.930
 20
49.0000
 30
6.39000e-14
  70
    32
  0
VERTEX
  8
0
  5
F9C
 10
292.930
 20
49.0000
 30
6.39000e-14
  70
    32
  0
VERTEX
  8
0
  5
F9D
 10
292.931
 20
49.0000
 30
6.39000e-14
  70
    32
  0
VERTEX
  8
0
  5
F9E
 10
292.931
 20
49.0000
 30
6.39000e-14
  70
    32
  0
VERTEX
  8
0
  5
F9F
 10
292.931
 20
49.0000
 30
6.39000e-14
  70
    32
  0
VERTEX
  8
0
  5
FA0
 10
292.931
 20
49.0000
 30
6.39000e-14
  70
    32
  0
VERTEX
  8
0
  5
FA1
 10
292.931
 20
49.0000
 30
6.39000e-14
  70
    32
  0
VERTEX
  8
0
  5
FA2
 10
292.931
 20
49.0000
 30
6.39000e-14
  70
    32
  0
VERTEX
  8
0
  5
FA3
 10
292.931
 20
49.0000
 30
6.39000e-14
  70
    32
  0
VERTEX
  8
0
  5
FA4
 10
292.931
 20
49.0000
 30
6.39000e-14
  70
    32
  0
VERTEX
  8
0
  5
FA5
 10
292.931
 20
49.0000
 30
6.39000e-14
  70
    32
  0
VERTEX
  8
0
  5
FA6
 10
292.931
 20
49.0000
 30
6.39000e-14
  70
    32
  0
VERTEX
  8
0
  5
FA7
 10
292.931
 20
49.0000
 30
6.39000e-14
  70
    32
  0
VERTEX
  8
0
  5
FA8
 10
292.932
 20
49.0000
 30
6.39000e-14
  70
    32
  0
VERTEX
  8
0
  5
FA9
 10
292.932
 20
49.0000
 30
6.39000e-14
  70
    32
  0
VERTEX
  8
0
  5
FAA
 10
292.932
 20
49.0000
 30
6.39000e-14
  70
    32
  0
VERTEX
  8
0
  5
FAB
 10
292.932
 20
49.0000
 30
6.39000e-14
  70
    32
  0
VERTEX
  8
0
  5
FAC
 10
292.932
 20
49.0000
 30
6.39000e-14
  70
    32
  0
VERTEX
  8
0
  5
FAD
 10
292.932
 20
49.0000
 30
6.39000e-14
  70
    32
  0
VERTEX
  8
0
  5
FAE
 10
292.932
 20
49.0000
 30
6.39000e-14
  70
    32
  0
VERTEX
  8
0
  5
FAF
 10
292.932
 20
49.0000
 30
6.39000e-14
  70
    32
  0
VERTEX
  8
0
  5
FB0
 10
292.932
 20
49.0000
 30
6.39000e-14
  70
    32
  0
VERTEX
  8
0
  5
FB1
 10
292.932
 20
49.0000
 30
6.39000e-14
  70
    32
  0
VERTEX
  8
0
  5
FB2
 10
292.932
 20
49.0000
 30
6.39000e-14
  70
    32
  0
VERTEX
  8
0
  5
FB3
 10
292.933
 20
49.0000
 30
6.39000e-14
  70
    32
  0
VERTEX
  8
0
  5
FB4
 10
292.933
 20
49.0000
 30
6.39000e-14
  70
    32
  0
VERTEX
  8
0
  5
FB5
 10
292.933
 20
49.0000
 30
6.39000e-14
  70
    32
  0
VERTEX
  8
0
  5
FB6
 10
292.933
 20
49.0000
 30
6.39000e-14
  70
    32
  0
VERTEX
  8
0
  5
FB7
 10
292.933
 20
48.9999
 30
6.39000e-14
  70
    32
  0
VERTEX
  8
0
  5
FB8
 10
292.933
 20
48.9999
 30
6.39000e-14
  70
    32
  0
VERTEX
  8
0
  5
FB9
 10
292.933
 20
48.9999
 30
6.39000e-14
  70
    32
  0
VERTEX
  8
0
  5
FBA
 10
292.933
 20
48.9999
 30
6.39000e-14
  70
    32
  0
VERTEX
  8
0
  5
FBB
 10
292.933
 20
48.9999
 30
6.39000e-14
  70
    32
  0
VERTEX
  8
0
  5
FBC
 10
292.933
 20
48.9999
 30
6.39000e-14
  70
    32
  0
VERTEX
  8
0
  5
FBD
 10
292.933
 20
48.9999
 30
6.39000e-14
  70
    32
  0
VERTEX
  8
0
  5
FBE
 10
292.934
 20
48.9999
 30
6.39000e-14
  70
    32
  0
VERTEX
  8
0
  5
FBF
 10
292.934
 20
48.9999
 30
6.39000e-14
  70
    32
  0
VERTEX
  8
0
  5
FC0
 10
292.934
 20
48.9999
 30
6.39000e-14
  70
    32
  0
VERTEX
  8
0
  5
FC1
 10
292.934
 20
48.9999
 30
6.39000e-14
  70
    32
  0
VERTEX
  8
0
  5
FC2
 10
292.934
 20
48.9999
 30
6.39000e-14
  70
    32
  0
VERTEX
  8
0
  5
FC3
 10
292.934
 20
48.9999
 30
6.39000e-14
  70
    32
  0
VERTEX
  8
0
  5
FC4
 10
292.934
 20
48.9999
 30
6.39000e-14
  70
    32
  0
VERTEX
  8
0
  5
FC5
 10
292.934
 20
48.9999
 30
6.39000e-14
  70
    32
  0
VERTEX
  8
0
  5
FC6
 10
292.934
 20
48.9999
 30
6.39000e-14
  70
    32
  0
VERTEX
  8
0
  5
FC7
 10
292.934
 20
48.9999
 30
6.39000e-14
  70
    32
  0
VERTEX
  8
0
  5
FC8
 10
292.934
 20
48.9999
 30
6.39000e-14
  70
    32
  0
VERTEX
  8
0
  5
FC9
 10
292.935
 20
48.9999
 30
6.39000e-14
  70
    32
  0
VERTEX
  8
0
  5
FCA
 10
292.935
 20
48.9999
 30
6.39000e-14
  70
    32
  0
VERTEX
  8
0
  5
FCB
 10
292.935
 20
48.9999
 30
6.39000e-14
  70
    32
  0
VERTEX
  8
0
  5
FCC
 10
292.935
 20
48.9999
 30
6.39000e-14
  70
    32
  0
VERTEX
  8
0
  5
FCD
 10
292.935
 20
48.9999
 30
6.39000e-14
  70
    32
  0
VERTEX
  8
0
  5
FCE
 10
292.935
 20
48.9999
 30
6.39000e-14
  70
    32
  0
VERTEX
  8
0
  5
FCF
 10
292.935
 20
48.9999
 30
6.39000e-14
  70
    32
  0
VERTEX
  8
0
  5
FD0
 10
292.935
 20
48.9999
 30
6.39000e-14
  70
    32
  0
VERTEX
  8
0
  5
FD1
 10
292.935
 20
48.9999
 30
6.39000e-14
  70
    32
  0
VERTEX
  8
0
  5
FD2
 10
292.935
 20
48.9999
 30
6.39000e-14
  70
    32
  0
VERTEX
  8
0
  5
FD3
 10
292.935
 20
48.9999
 30
6.39000e-14
  70
    32
  0
VERTEX
  8
0
  5
FD4
 10
292.936
 20
48.9999
 30
6.39000e-14
  70
    32
  0
VERTEX
  8
0
  5
FD5
 10
292.936
 20
48.9998
 30
6.39000e-14
  70
    32
  0
VERTEX
  8
0
  5
FD6
 10
292.936
 20
48.9998
 30
6.39000e-14
  70
    32
  0
VERTEX
  8
0
  5
FD7
 10
292.936
 20
48.9998
 30
6.39000e-14
  70
    32
  0
VERTEX
  8
0
  5
FD8
 10
292.936
 20
48.9998
 30
6.39000e-14
  70
    32
  0
VERTEX
  8
0
  5
FD9
 10
292.936
 20
48.9998
 30
6.39000e-14
  70
    32
  0
VERTEX
  8
0
  5
FDA
 10
292.936
 20
48.9998
 30
6.39000e-14
  70
    32
  0
VERTEX
  8
0
  5
FDB
 10
292.936
 20
48.9998
 30
6.39000e-14
  70
    32
  0
VERTEX
  8
0
  5
FDC
 10
292.936
 20
48.9998
 30
6.39000e-14
  70
    32
  0
VERTEX
  8
0
  5
FDD
 10
292.936
 20
48.9998
 30
6.39000e-14
  70
    32
  0
VERTEX
  8
0
  5
FDE
 10
292.937
 20
48.9998
 30
6.39000e-14
  70
    32
  0
VERTEX
  8
0
  5
FDF
 10
292.937
 20
48.9998
 30
6.39000e-14
  70
    32
  0
VERTEX
  8
0
  5
FE0
 10
292.937
 20
48.9998
 30
6.39000e-14
  70
    32
  0
VERTEX
  8
0
  5
FE1
 10
292.937
 20
48.9998
 30
6.39000e-14
  70
    32
  0
VERTEX
  8
0
  5
FE2
 10
292.937
 20
48.9998
 30
6.39000e-14
  70
    32
  0
VERTEX
  8
0
  5
FE3
 10
292.937
 20
48.9998
 30
6.39000e-14
  70
    32
  0
VERTEX
  8
0
  5
FE4
 10
292.937
 20
48.9998
 30
6.39000e-14
  70
    32
  0
VERTEX
  8
0
  5
FE5
 10
292.937
 20
48.9998
 30
6.39000e-14
  70
    32
  0
VERTEX
  8
0
  5
FE6
 10
292.937
 20
48.9998
 30
6.39000e-14
  70
    32
  0
VERTEX
  8
0
  5
FE7
 10
292.937
 20
48.9998
 30
6.39000e-14
  70
    32
  0
VERTEX
  8
0
  5
FE8
 10
292.937
 20
48.9998
 30
6.39000e-14
  70
    32
  0
VERTEX
  8
0
  5
FE9
 10
292.938
 20
48.9997
 30
6.39000e-14
  70
    32
  0
VERTEX
  8
0
  5
FEA
 10
292.938
 20
48.9997
 30
6.39000e-14
  70
    32
  0
VERTEX
  8
0
  5
FEB
 10
292.938
 20
48.9997
 30
6.39000e-14
  70
    32
  0
VERTEX
  8
0
  5
FEC
 10
292.938
 20
48.9997
 30
6.39000e-14
  70
    32
  0
VERTEX
  8
0
  5
FED
 10
292.938
 20
48.9997
 30
6.39000e-14
  70
    32
  0
VERTEX
  8
0
  5
FEE
 10
292.938
 20
48.9997
 30
6.39000e-14
  70
    32
  0
VERTEX
  8
0
  5
FEF
 10
292.938
 20
48.9997
 30
6.39000e-14
  70
    32
  0
VERTEX
  8
0
  5
FF0
 10
292.938
 20
48.9997
 30
6.39000e-14
  70
    32
  0
VERTEX
  8
0
  5
FF1
 10
292.938
 20
48.9997
 30
6.39000e-14
  70
    32
  0
VERTEX
  8
0
  5
FF2
 10
292.938
 20
48.9997
 30
6.39000e-14
  70
    32
  0
VERTEX
  8
0
  5
FF3
 10
292.938
 20
48.9997
 30
6.39000e-14
  70
    32
  0
VERTEX
  8
0
  5
FF4
 10
292.939
 20
48.9997
 30
6.39000e-14
  70
    32
  0
VERTEX
  8
0
  5
FF5
 10
292.939
 20
48.9997
 30
6.39000e-14
  70
    32
  0
VERTEX
  8
0
  5
FF6
 10
292.939
 20
48.9997
 30
6.39000e-14
  70
    32
  0
VERTEX
  8
0
  5
FF7
 10
292.939
 20
48.9997
 30
6.39000e-14
  70
    32
  0
VERTEX
  8
0
  5
FF8
 10
292.939
 20
48.9997
 30
6.39000e-14
  70
    32
  0
VERTEX
  8
0
  5
FF9
 10
292.939
 20
48.9996
 30
6.39000e-14
  70
    32
  0
VERTEX
  8
0
  5
FFA
 10
292.939
 20
48.9996
 30
6.39000e-14
  70
    32
  0
VERTEX
  8
0
  5
FFB
 10
292.939
 20
48.9996
 30
6.39000e-14
  70
    32
  0
VERTEX
  8
0
  5
FFC
 10
292.939
 20
48.9996
 30
6.39000e-14
  70
    32
  0
VERTEX
  8
0
  5
FFD
 10
292.939
 20
48.9996
 30
6.39000e-14
  70
    32
  0
VERTEX
  8
0
  5
FFE
 10
292.939
 20
48.9996
 30
6.39000e-14
  70
    32
  0
VERTEX
  8
0
  5
FFF
 10
292.940
 20
48.9996
 30
6.39000e-14
  70
    32
  0
VERTEX
  8
0
  5
1000
 10
292.940
 20
48.9996
 30
6.39000e-14
  70
    32
  0
VERTEX
  8
0
  5
1001
 10
292.940
 20
48.9996
 30
6.39000e-14
  70
    32
  0
VERTEX
  8
0
  5
1002
 10
292.940
 20
48.9996
 30
6.39000e-14
  70
    32
  0
VERTEX
  8
0
  5
1003
 10
292.940
 20
48.9996
 30
6.39000e-14
  70
    32
  0
VERTEX
  8
0
  5
1004
 10
292.940
 20
48.9996
 30
6.39000e-14
  70
    32
  0
VERTEX
  8
0
  5
1005
 10
292.940
 20
48.9996
 30
6.39000e-14
  70
    32
  0
VERTEX
  8
0
  5
1006
 10
292.940
 20
48.9996
 30
6.39000e-14
  70
    32
  0
VERTEX
  8
0
  5
1007
 10
292.940
 20
48.9995
 30
6.39000e-14
  70
    32
  0
VERTEX
  8
0
  5
1008
 10
292.940
 20
48.9995
 30
6.39000e-14
  70
    32
  0
VERTEX
  8
0
  5
1009
 10
292.940
 20
48.9995
 30
6.39000e-14
  70
    32
  0
VERTEX
  8
0
  5
100A
 10
292.941
 20
48.9995
 30
6.39000e-14
  70
    32
  0
VERTEX
  8
0
  5
100B
 10
292.941
 20
48.9995
 30
6.39000e-14
  70
    32
  0
VERTEX
  8
0
  5
100C
 10
292.941
 20
48.9995
 30
6.39000e-14
  70
    32
  0
VERTEX
  8
0
  5
100D
 10
292.941
 20
48.9995
 30
6.39000e-14
  70
    32
  0
VERTEX
  8
0
  5
100E
 10
292.941
 20
48.9995
 30
6.39000e-14
  70
    32
  0
VERTEX
  8
0
  5
100F
 10
292.941
 20
48.9995
 30
6.39000e-14
  70
    32
  0
SEQEND
  8
0
  5
1010
  0
POLYLINE
  5
D68
  8
0
  6
VERDECKT
 62
     1
 10
292.9410016483477648
 20
-48.9994849333318356
 30
0.0000000000000639
 66
     1
 70
     8
  0
VERTEX
  8
0
  5
1011
 10
292.941
 20
-48.9995
 30
6.39000e-14
  70
    32
  0
VERTEX
  8
0
  5
1012
 10
292.941
 20
-48.9995
 30
6.39000e-14
  70
    32
  0
VERTEX
  8
0
  5
1013
 10
292.941
 20
-48.9995
 30
6.39000e-14
  70
    32
  0
VERTEX
  8
0
  5
1014
 10
292.941
 20
-48.9995
 30
6.39000e-14
  70
    32
  0
VERTEX
  8
0
  5
1015
 10
292.941
 20
-48.9995
 30
6.39000e-14
  70
    32
  0
VERTEX
  8
0
  5
1016
 10
292.941
 20
-48.9995
 30
6.39000e-14
  70
    32
  0
VERTEX
  8
0
  5
1017
 10
292.940
 20
-48.9995
 30
6.39000e-14
  70
    32
  0
VERTEX
  8
0
  5
1018
 10
292.940
 20
-48.9995
 30
6.39000e-14
  70
    32
  0
VERTEX
  8
0
  5
1019
 10
292.940
 20
-48.9995
 30
6.39000e-14
  70
    32
  0
VERTEX
  8
0
  5
101A
 10
292.940
 20
-48.9996
 30
6.39000e-14
  70
    32
  0
VERTEX
  8
0
  5
101B
 10
292.940
 20
-48.9996
 30
6.39000e-14
  70
    32
  0
VERTEX
  8
0
  5
101C
 10
292.940
 20
-48.9996
 30
6.39000e-14
  70
    32
  0
VERTEX
  8
0
  5
101D
 10
292.940
 20
-48.9996
 30
6.39000e-14
  70
    32
  0
VERTEX
  8
0
  5
101E
 10
292.940
 20
-48.9996
 30
6.39000e-14
  70
    32
  0
VERTEX
  8
0
  5
101F
 10
292.940
 20
-48.9996
 30
6.39000e-14
  70
    32
  0
VERTEX
  8
0
  5
1020
 10
292.940
 20
-48.9996
 30
6.39000e-14
  70
    32
  0
VERTEX
  8
0
  5
1021
 10
292.940
 20
-48.9996
 30
6.39000e-14
  70
    32
  0
VERTEX
  8
0
  5
1022
 10
292.939
 20
-48.9996
 30
6.39000e-14
  70
    32
  0
VERTEX
  8
0
  5
1023
 10
292.939
 20
-48.9996
 30
6.39000e-14
  70
    32
  0
VERTEX
  8
0
  5
1024
 10
292.939
 20
-48.9996
 30
6.39000e-14
  70
    32
  0
VERTEX
  8
0
  5
1025
 10
292.939
 20
-48.9996
 30
6.39000e-14
  70
    32
  0
VERTEX
  8
0
  5
1026
 10
292.939
 20
-48.9996
 30
6.39000e-14
  70
    32
  0
VERTEX
  8
0
  5
1027
 10
292.939
 20
-48.9996
 30
6.39000e-14
  70
    32
  0
VERTEX
  8
0
  5
1028
 10
292.939
 20
-48.9997
 30
6.39000e-14
  70
    32
  0
VERTEX
  8
0
  5
1029
 10
292.939
 20
-48.9997
 30
6.39000e-14
  70
    32
  0
VERTEX
  8
0
  5
102A
 10
292.939
 20
-48.9997
 30
6.39000e-14
  70
    32
  0
VERTEX
  8
0
  5
102B
 10
292.939
 20
-48.9997
 30
6.39000e-14
  70
    32
  0
VERTEX
  8
0
  5
102C
 10
292.939
 20
-48.9997
 30
6.39000e-14
  70
    32
  0
VERTEX
  8
0
  5
102D
 10
292.938
 20
-48.9997
 30
6.39000e-14
  70
    32
  0
VERTEX
  8
0
  5
102E
 10
292.938
 20
-48.9997
 30
6.39000e-14
  70
    32
  0
VERTEX
  8
0
  5
102F
 10
292.938
 20
-48.9997
 30
6.39000e-14
  70
    32
  0
VERTEX
  8
0
  5
1030
 10
292.938
 20
-48.9997
 30
6.39000e-14
  70
    32
  0
VERTEX
  8
0
  5
1031
 10
292.938
 20
-48.9997
 30
6.39000e-14
  70
    32
  0
VERTEX
  8
0
  5
1032
 10
292.938
 20
-48.9997
 30
6.39000e-14
  70
    32
  0
VERTEX
  8
0
  5
1033
 10
292.938
 20
-48.9997
 30
6.39000e-14
  70
    32
  0
VERTEX
  8
0
  5
1034
 10
292.938
 20
-48.9997
 30
6.39000e-14
  70
    32
  0
VERTEX
  8
0
  5
1035
 10
292.938
 20
-48.9997
 30
6.39000e-14
  70
    32
  0
VERTEX
  8
0
  5
1036
 10
292.938
 20
-48.9997
 30
6.39000e-14
  70
    32
  0
VERTEX
  8
0
  5
1037
 10
292.938
 20
-48.9997
 30
6.39000e-14
  70
    32
  0
VERTEX
  8
0
  5
1038
 10
292.937
 20
-48.9998
 30
6.39000e-14
  70
    32
  0
VERTEX
  8
0
  5
1039
 10
292.937
 20
-48.9998
 30
6.39000e-14
  70
    32
  0
VERTEX
  8
0
  5
103A
 10
292.937
 20
-48.9998
 30
6.39000e-14
  70
    32
  0
VERTEX
  8
0
  5
103B
 10
292.937
 20
-48.9998
 30
6.39000e-14
  70
    32
  0
VERTEX
  8
0
  5
103C
 10
292.937
 20
-48.9998
 30
6.39000e-14
  70
    32
  0
VERTEX
  8
0
  5
103D
 10
292.937
 20
-48.9998
 30
6.39000e-14
  70
    32
  0
VERTEX
  8
0
  5
103E
 10
292.937
 20
-48.9998
 30
6.39000e-14
  70
    32
  0
VERTEX
  8
0
  5
103F
 10
292.937
 20
-48.9998
 30
6.39000e-14
  70
    32
  0
VERTEX
  8
0
  5
1040
 10
292.937
 20
-48.9998
 30
6.39000e-14
  70
    32
  0
VERTEX
  8
0
  5
1041
 10
292.937
 20
-48.9998
 30
6.39000e-14
  70
    32
  0
VERTEX
  8
0
  5
1042
 10
292.937
 20
-48.9998
 30
6.39000e-14
  70
    32
  0
VERTEX
  8
0
  5
1043
 10
292.936
 20
-48.9998
 30
6.39000e-14
  70
    32
  0
VERTEX
  8
0
  5
1044
 10
292.936
 20
-48.9998
 30
6.39000e-14
  70
    32
  0
VERTEX
  8
0
  5
1045
 10
292.936
 20
-48.9998
 30
6.39000e-14
  70
    32
  0
VERTEX
  8
0
  5
1046
 10
292.936
 20
-48.9998
 30
6.39000e-14
  70
    32
  0
VERTEX
  8
0
  5
1047
 10
292.936
 20
-48.9998
 30
6.39000e-14
  70
    32
  0
VERTEX
  8
0
  5
1048
 10
292.936
 20
-48.9998
 30
6.39000e-14
  70
    32
  0
VERTEX
  8
0
  5
1049
 10
292.936
 20
-48.9998
 30
6.39000e-14
  70
    32
  0
VERTEX
  8
0
  5
104A
 10
292.936
 20
-48.9998
 30
6.39000e-14
  70
    32
  0
VERTEX
  8
0
  5
104B
 10
292.936
 20
-48.9998
 30
6.39000e-14
  70
    32
  0
VERTEX
  8
0
  5
104C
 10
292.936
 20
-48.9999
 30
6.39000e-14
  70
    32
  0
VERTEX
  8
0
  5
104D
 10
292.935
 20
-48.9999
 30
6.39000e-14
  70
    32
  0
VERTEX
  8
0
  5
104E
 10
292.935
 20
-48.9999
 30
6.39000e-14
  70
    32
  0
VERTEX
  8
0
  5
104F
 10
292.935
 20
-48.9999
 30
6.39000e-14
  70
    32
  0
VERTEX
  8
0
  5
1050
 10
292.935
 20
-48.9999
 30
6.39000e-14
  70
    32
  0
VERTEX
  8
0
  5
1051
 10
292.935
 20
-48.9999
 30
6.39000e-14
  70
    32
  0
VERTEX
  8
0
  5
1052
 10
292.935
 20
-48.9999
 30
6.39000e-14
  70
    32
  0
VERTEX
  8
0
  5
1053
 10
292.935
 20
-48.9999
 30
6.39000e-14
  70
    32
  0
VERTEX
  8
0
  5
1054
 10
292.935
 20
-48.9999
 30
6.39000e-14
  70
    32
  0
VERTEX
  8
0
  5
1055
 10
292.935
 20
-48.9999
 30
6.39000e-14
  70
    32
  0
VERTEX
  8
0
  5
1056
 10
292.935
 20
-48.9999
 30
6.39000e-14
  70
    32
  0
VERTEX
  8
0
  5
1057
 10
292.935
 20
-48.9999
 30
6.39000e-14
  70
    32
  0
VERTEX
  8
0
  5
1058
 10
292.934
 20
-48.9999
 30
6.39000e-14
  70
    32
  0
VERTEX
  8
0
  5
1059
 10
292.934
 20
-48.9999
 30
6.39000e-14
  70
    32
  0
VERTEX
  8
0
  5
105A
 10
292.934
 20
-48.9999
 30
6.39000e-14
  70
    32
  0
VERTEX
  8
0
  5
105B
 10
292.934
 20
-48.9999
 30
6.39000e-14
  70
    32
  0
VERTEX
  8
0
  5
105C
 10
292.934
 20
-48.9999
 30
6.39000e-14
  70
    32
  0
VERTEX
  8
0
  5
105D
 10
292.934
 20
-48.9999
 30
6.39000e-14
  70
    32
  0
VERTEX
  8
0
  5
105E
 10
292.934
 20
-48.9999
 30
6.39000e-14
  70
    32
  0
VERTEX
  8
0
  5
105F
 10
292.934
 20
-48.9999
 30
6.39000e-14
  70
    32
  0
VERTEX
  8
0
  5
1060
 10
292.934
 20
-48.9999
 30
6.39000e-14
  70
    32
  0
VERTEX
  8
0
  5
1061
 10
292.934
 20
-48.9999
 30
6.39000e-14
  70
    32
  0
VERTEX
  8
0
  5
1062
 10
292.934
 20
-48.9999
 30
6.39000e-14
  70
    32
  0
VERTEX
  8
0
  5
1063
 10
292.933
 20
-48.9999
 30
6.39000e-14
  70
    32
  0
VERTEX
  8
0
  5
1064
 10
292.933
 20
-48.9999
 30
6.39000e-14
  70
    32
  0
VERTEX
  8
0
  5
1065
 10
292.933
 20
-48.9999
 30
6.39000e-14
  70
    32
  0
VERTEX
  8
0
  5
1066
 10
292.933
 20
-48.9999
 30
6.39000e-14
  70
    32
  0
VERTEX
  8
0
  5
1067
 10
292.933
 20
-48.9999
 30
6.39000e-14
  70
    32
  0
VERTEX
  8
0
  5
1068
 10
292.933
 20
-48.9999
 30
6.39000e-14
  70
    32
  0
VERTEX
  8
0
  5
1069
 10
292.933
 20
-48.9999
 30
6.39000e-14
  70
    32
  0
VERTEX
  8
0
  5
106A
 10
292.933
 20
-49.0000
 30
6.39000e-14
  70
    32
  0
VERTEX
  8
0
  5
106B
 10
292.933
 20
-49.0000
 30
6.39000e-14
  70
    32
  0
VERTEX
  8
0
  5
106C
 10
292.933
 20
-49.0000
 30
6.39000e-14
  70
    32
  0
VERTEX
  8
0
  5
106D
 10
292.933
 20
-49.0000
 30
6.39000e-14
  70
    32
  0
VERTEX
  8
0
  5
106E
 10
292.932
 20
-49.0000
 30
6.39000e-14
  70
    32
  0
VERTEX
  8
0
  5
106F
 10
292.932
 20
-49.0000
 30
6.39000e-14
  70
    32
  0
VERTEX
  8
0
  5
1070
 10
292.932
 20
-49.0000
 30
6.39000e-14
  70
    32
  0
VERTEX
  8
0
  5
1071
 10
292.932
 20
-49.0000
 30
6.39000e-14
  70
    32
  0
VERTEX
  8
0
  5
1072
 10
292.932
 20
-49.0000
 30
6.39000e-14
  70
    32
  0
VERTEX
  8
0
  5
1073
 10
292.932
 20
-49.0000
 30
6.39000e-14
  70
    32
  0
VERTEX
  8
0
  5
1074
 10
292.932
 20
-49.0000
 30
6.39000e-14
  70
    32
  0
VERTEX
  8
0
  5
1075
 10
292.932
 20
-49.0000
 30
6.39000e-14
  70
    32
  0
VERTEX
  8
0
  5
1076
 10
292.932
 20
-49.0000
 30
6.39000e-14
  70
    32
  0
VERTEX
  8
0
  5
1077
 10
292.932
 20
-49.0000
 30
6.39000e-14
  70
    32
  0
VERTEX
  8
0
  5
1078
 10
292.932
 20
-49.0000
 30
6.39000e-14
  70
    32
  0
VERTEX
  8
0
  5
1079
 10
292.931
 20
-49.0000
 30
6.39000e-14
  70
    32
  0
VERTEX
  8
0
  5
107A
 10
292.931
 20
-49.0000
 30
6.39000e-14
  70
    32
  0
VERTEX
  8
0
  5
107B
 10
292.931
 20
-49.0000
 30
6.39000e-14
  70
    32
  0
VERTEX
  8
0
  5
107C
 10
292.931
 20
-49.0000
 30
6.39000e-14
  70
    32
  0
VERTEX
  8
0
  5
107D
 10
292.931
 20
-49.0000
 30
6.39000e-14
  70
    32
  0
VERTEX
  8
0
  5
107E
 10
292.931
 20
-49.0000
 30
6.39000e-14
  70
    32
  0
VERTEX
  8
0
  5
107F
 10
292.931
 20
-49.0000
 30
6.39000e-14
  70
    32
  0
VERTEX
  8
0
  5
1080
 10
292.931
 20
-49.0000
 30
6.39000e-14
  70
    32
  0
VERTEX
  8
0
  5
1081
 10
292.931
 20
-49.0000
 30
6.39000e-14
  70
    32
  0
VERTEX
  8
0
  5
1082
 10
292.931
 20
-49.0000
 30
6.39000e-14
  70
    32
  0
VERTEX
  8
0
  5
1083
 10
292.931
 20
-49.0000
 30
6.39000e-14
  70
    32
  0
VERTEX
  8
0
  5
1084
 10
292.930
 20
-49.0000
 30
6.39000e-14
  70
    32
  0
VERTEX
  8
0
  5
1085
 10
292.930
 20
-49.0000
 30
6.39000e-14
  70
    32
  0
VERTEX
  8
0
  5
1086
 10
292.930
 20
-49.0000
 30
6.39000e-14
  70
    32
  0
VERTEX
  8
0
  5
1087
 10
292.930
 20
-49.0000
 30
6.39000e-14
  70
    32
  0
VERTEX
  8
0
  5
1088
 10
292.930
 20
-49.0000
 30
6.39000e-14
  70
    32
  0
VERTEX
  8
0
  5
1089
 10
292.930
 20
-49.0000
 30
6.39000e-14
  70
    32
  0
VERTEX
  8
0
  5
108A
 10
292.930
 20
-49.0000
 30
6.39000e-14
  70
    32
  0
VERTEX
  8
0
  5
108B
 10
292.930
 20
-49.0000
 30
6.39000e-14
  70
    32
  0
VERTEX
  8
0
  5
108C
 10
292.930
 20
-49.0000
 30
6.39000e-14
  70
    32
  0
VERTEX
  8
0
  5
108D
 10
292.930
 20
-49.0000
 30
6.39000e-14
  70
    32
  0
VERTEX
  8
0
  5
108E
 10
292.930
 20
-49.0000
 30
6.39000e-14
  70
    32
  0
VERTEX
  8
0
  5
108F
 10
292.929
 20
-49.0000
 30
6.39000e-14
  70
    32
  0
VERTEX
  8
0
  5
1090
 10
292.929
 20
-49.0000
 30
6.39000e-14
  70
    32
  0
VERTEX
  8
0
  5
1091
 10
292.929
 20
-49.0000
 30
6.39000e-14
  70
    32
  0
SEQEND
  8
0
  5
1092
  0
POLYLINE
  5
D69
  8
0
  6
VERDECKT
 62
     1
 10
302.4908836081890513
 20
-0.0000000000000616
 30
0.0000000000000711
 66
     1
 70
     8
  0
VERTEX
  8
0
  5
1093
 10
302.491
 20
-6.15746e-14
 30
7.11000e-14
  70
    32
  0
VERTEX
  8
0
  5
1094
 10
302.494
 20
-2.35243
 30
7.11000e-14
  70
    32
  0
VERTEX
  8
0
  5
1095
 10
302.503
 20
-4.69919
 30
7.11000e-14
  70
    32
  0
VERTEX
  8
0
  5
1096
 10
302.518
 20
-7.03463
 30
7.11000e-14
  70
    32
  0
VERTEX
  8
0
  5
1097
 10
302.539
 20
-9.35312
 30
7.11000e-14
  70
    32
  0
VERTEX
  8
0
  5
1098
 10
302.566
 20
-11.6491
 30
7.11000e-14
  70
    32
  0
VERTEX
  8
0
  5
1099
 10
302.599
 20
-13.9170
 30
7.11000e-14
  70
    32
  0
VERTEX
  8
0
  5
109A
 10
302.638
 20
-16.1513
 30
7.11000e-14
  70
    32
  0
VERTEX
  8
0
  5
109B
 10
302.682
 20
-18.3468
 30
7.11000e-14
  70
    32
  0
VERTEX
  8
0
  5
109C
 10
302.732
 20
-20.4981
 30
7.11000e-14
  70
    32
  0
VERTEX
  8
0
  5
109D
 10
302.787
 20
-22.5999
 30
7.11000e-14
  70
    32
  0
VERTEX
  8
0
  5
109E
 10
302.848
 20
-24.6474
 30
7.11000e-14
  70
    32
  0
VERTEX
  8
0
  5
109F
 10
302.914
 20
-26.6354
 30
7.11000e-14
  70
    32
  0
VERTEX
  8
0
  5
10A0
 10
302.985
 20
-28.5593
 30
7.11000e-14
  70
    32
  0
VERTEX
  8
0
  5
10A1
 10
303.060
 20
-30.4144
 30
7.11000e-14
  70
    32
  0
VERTEX
  8
0
  5
10A2
 10
303.141
 20
-32.1962
 30
7.11000e-14
  70
    32
  0
VERTEX
  8
0
  5
10A3
 10
303.226
 20
-33.9005
 30
7.11000e-14
  70
    32
  0
VERTEX
  8
0
  5
10A4
 10
303.315
 20
-35.5230
 30
7.11000e-14
  70
    32
  0
VERTEX
  8
0
  5
10A5
 10
303.408
 20
-37.0601
 30
7.11000e-14
  70
    32
  0
VERTEX
  8
0
  5
10A6
 10
303.505
 20
-38.5078
 30
7.11000e-14
  70
    32
  0
VERTEX
  8
0
  5
10A7
 10
303.606
 20
-39.8627
 30
7.11000e-14
  70
    32
  0
VERTEX
  8
0
  5
10A8
 10
303.710
 20
-41.1217
 30
7.11000e-14
  70
    32
  0
VERTEX
  8
0
  5
10A9
 10
303.817
 20
-42.2815
 30
7.11000e-14
  70
    32
  0
VERTEX
  8
0
  5
10AA
 10
303.927
 20
-43.3395
 30
7.11000e-14
  70
    32
  0
VERTEX
  8
0
  5
10AB
 10
304.040
 20
-44.2931
 30
7.11000e-14
  70
    32
  0
VERTEX
  8
0
  5
10AC
 10
304.155
 20
-45.1400
 30
7.11000e-14
  70
    32
  0
VERTEX
  8
0
  5
10AD
 10
304.272
 20
-45.8781
 30
7.11000e-14
  70
    32
  0
VERTEX
  8
0
  5
10AE
 10
304.390
 20
-46.5057
 30
7.11000e-14
  70
    32
  0
VERTEX
  8
0
  5
10AF
 10
304.510
 20
-47.0213
 30
7.11000e-14
  70
    32
  0
VERTEX
  8
0
  5
10B0
 10
304.632
 20
-47.4236
 30
7.11000e-14
  70
    32
  0
VERTEX
  8
0
  5
10B1
 10
304.754
 20
-47.7116
 30
7.11000e-14
  70
    32
  0
VERTEX
  8
0
  5
10B2
 10
304.877
 20
-47.8847
 30
7.11000e-14
  70
    32
  0
VERTEX
  8
0
  5
10B3
 10
305.000
 20
-47.9425
 30
7.11000e-14
  70
    32
  0
VERTEX
  8
0
  5
10B4
 10
305.123
 20
-47.8847
 30
7.11000e-14
  70
    32
  0
VERTEX
  8
0
  5
10B5
 10
305.246
 20
-47.7116
 30
7.11000e-14
  70
    32
  0
VERTEX
  8
0
  5
10B6
 10
305.368
 20
-47.4236
 30
7.11000e-14
  70
    32
  0
VERTEX
  8
0
  5
10B7
 10
305.490
 20
-47.0213
 30
7.11000e-14
  70
    32
  0
VERTEX
  8
0
  5
10B8
 10
305.610
 20
-46.5057
 30
7.11000e-14
  70
    32
  0
VERTEX
  8
0
  5
10B9
 10
305.728
 20
-45.8781
 30
7.11000e-14
  70
    32
  0
VERTEX
  8
0
  5
10BA
 10
305.845
 20
-45.1400
 30
7.11000e-14
  70
    32
  0
VERTEX
  8
0
  5
10BB
 10
305.960
 20
-44.2931
 30
7.11000e-14
  70
    32
  0
VERTEX
  8
0
  5
10BC
 10
306.073
 20
-43.3395
 30
7.11000e-14
  70
    32
  0
VERTEX
  8
0
  5
10BD
 10
306.183
 20
-42.2815
 30
7.11000e-14
  70
    32
  0
VERTEX
  8
0
  5
10BE
 10
306.290
 20
-41.1217
 30
7.11000e-14
  70
    32
  0
VERTEX
  8
0
  5
10BF
 10
306.394
 20
-39.8627
 30
7.11000e-14
  70
    32
  0
VERTEX
  8
0
  5
10C0
 10
306.495
 20
-38.5078
 30
7.11000e-14
  70
    32
  0
VERTEX
  8
0
  5
10C1
 10
306.592
 20
-37.0601
 30
7.11000e-14
  70
    32
  0
VERTEX
  8
0
  5
10C2
 10
306.685
 20
-35.5230
 30
7.11000e-14
  70
    32
  0
VERTEX
  8
0
  5
10C3
 10
306.774
 20
-33.9005
 30
7.11000e-14
  70
    32
  0
VERTEX
  8
0
  5
10C4
 10
306.859
 20
-32.1962
 30
7.11000e-14
  70
    32
  0
VERTEX
  8
0
  5
10C5
 10
306.940
 20
-30.4144
 30
7.11000e-14
  70
    32
  0
VERTEX
  8
0
  5
10C6
 10
307.015
 20
-28.5593
 30
7.11000e-14
  70
    32
  0
VERTEX
  8
0
  5
10C7
 10
307.086
 20
-26.6354
 30
7.11000e-14
  70
    32
  0
VERTEX
  8
0
  5
10C8
 10
307.152
 20
-24.6474
 30
7.11000e-14
  70
    32
  0
VERTEX
  8
0
  5
10C9
 10
307.213
 20
-22.5999
 30
7.11000e-14
  70
    32
  0
VERTEX
  8
0
  5
10CA
 10
307.268
 20
-20.4981
 30
7.11000e-14
  70
    32
  0
VERTEX
  8
0
  5
10CB
 10
307.318
 20
-18.3468
 30
7.11000e-14
  70
    32
  0
VERTEX
  8
0
  5
10CC
 10
307.362
 20
-16.1513
 30
7.11000e-14
  70
    32
  0
VERTEX
  8
0
  5
10CD
 10
307.401
 20
-13.9170
 30
7.11000e-14
  70
    32
  0
VERTEX
  8
0
  5
10CE
 10
307.434
 20
-11.6491
 30
7.11000e-14
  70
    32
  0
VERTEX
  8
0
  5
10CF
 10
307.461
 20
-9.35312
 30
7.11000e-14
  70
    32
  0
VERTEX
  8
0
  5
10D0
 10
307.482
 20
-7.03463
 30
7.11000e-14
  70
    32
  0
VERTEX
  8
0
  5
10D1
 10
307.497
 20
-4.69919
 30
7.11000e-14
  70
    32
  0
VERTEX
  8
0
  5
10D2
 10
307.506
 20
-2.35243
 30
7.11000e-14
  70
    32
  0
VERTEX
  8
0
  5
10D3
 10
307.509
 20
1.20049e-15
 30
7.11000e-14
  70
    32
  0
VERTEX
  8
0
  5
10D4
 10
307.506
 20
2.35243
 30
7.11000e-14
  70
    32
  0
VERTEX
  8
0
  5
10D5
 10
307.497
 20
4.69919
 30
7.11000e-14
  70
    32
  0
VERTEX
  8
0
  5
10D6
 10
307.482
 20
7.03463
 30
7.11000e-14
  70
    32
  0
VERTEX
  8
0
  5
10D7
 10
307.461
 20
9.35312
 30
7.11000e-14
  70
    32
  0
VERTEX
  8
0
  5
10D8
 10
307.434
 20
11.6491
 30
7.11000e-14
  70
    32
  0
VERTEX
  8
0
  5
10D9
 10
307.401
 20
13.9170
 30
7.11000e-14
  70
    32
  0
VERTEX
  8
0
  5
10DA
 10
307.362
 20
16.1513
 30
7.11000e-14
  70
    32
  0
VERTEX
  8
0
  5
10DB
 10
307.318
 20
18.3468
 30
7.11000e-14
  70
    32
  0
VERTEX
  8
0
  5
10DC
 10
307.268
 20
20.4981
 30
7.11000e-14
  70
    32
  0
VERTEX
  8
0
  5
10DD
 10
307.213
 20
22.5999
 30
7.11000e-14
  70
    32
  0
VERTEX
  8
0
  5
10DE
 10
307.152
 20
24.6474
 30
7.11000e-14
  70
    32
  0
VERTEX
  8
0
  5
10DF
 10
307.086
 20
26.6354
 30
7.11000e-14
  70
    32
  0
VERTEX
  8
0
  5
10E0
 10
307.015
 20
28.5593
 30
7.11000e-14
  70
    32
  0
VERTEX
  8
0
  5
10E1
 10
306.940
 20
30.4144
 30
7.11000e-14
  70
    32
  0
VERTEX
  8
0
  5
10E2
 10
306.859
 20
32.1962
 30
7.11000e-14
  70
    32
  0
VERTEX
  8
0
  5
10E3
 10
306.774
 20
33.9005
 30
7.11000e-14
  70
    32
  0
VERTEX
  8
0
  5
10E4
 10
306.685
 20
35.5230
 30
7.11000e-14
  70
    32
  0
VERTEX
  8
0
  5
10E5
 10
306.592
 20
37.0601
 30
7.11000e-14
  70
    32
  0
VERTEX
  8
0
  5
10E6
 10
306.495
 20
38.5078
 30
7.11000e-14
  70
    32
  0
VERTEX
  8
0
  5
10E7
 10
306.394
 20
39.8627
 30
7.11000e-14
  70
    32
  0
VERTEX
  8
0
  5
10E8
 10
306.290
 20
41.1217
 30
7.11000e-14
  70
    32
  0
VERTEX
  8
0
  5
10E9
 10
306.183
 20
42.2815
 30
7.11000e-14
  70
    32
  0
VERTEX
  8
0
  5
10EA
 10
306.073
 20
43.3395
 30
7.11000e-14
  70
    32
  0
VERTEX
  8
0
  5
10EB
 10
305.960
 20
44.2931
 30
7.11000e-14
  70
    32
  0
VERTEX
  8
0
  5
10EC
 10
305.845
 20
45.1400
 30
7.11000e-14
  70
    32
  0
VERTEX
  8
0
  5
10ED
 10
305.728
 20
45.8781
 30
7.11000e-14
  70
    32
  0
VERTEX
  8
0
  5
10EE
 10
305.610
 20
46.5057
 30
7.11000e-14
  70
    32
  0
VERTEX
  8
0
  5
10EF
 10
305.490
 20
47.0213
 30
7.11000e-14
  70
    32
  0
VERTEX
  8
0
  5
10F0
 10
305.368
 20
47.4236
 30
7.11000e-14
  70
    32
  0
VERTEX
  8
0
  5
10F1
 10
305.246
 20
47.7116
 30
7.11000e-14
  70
    32
  0
VERTEX
  8
0
  5
10F2
 10
305.123
 20
47.8847
 30
7.11000e-14
  70
    32
  0
VERTEX
  8
0
  5
10F3
 10
305.000
 20
47.9425
 30
7.11000e-14
  70
    32
  0
VERTEX
  8
0
  5
10F4
 10
304.877
 20
47.8847
 30
7.11000e-14
  70
    32
  0
VERTEX
  8
0
  5
10F5
 10
304.754
 20
47.7116
 30
7.11000e-14
  70
    32
  0
VERTEX
  8
0
  5
10F6
 10
304.632
 20
47.4236
 30
7.11000e-14
  70
    32
  0
VERTEX
  8
0
  5
10F7
 10
304.510
 20
47.0213
 30
7.11000e-14
  70
    32
  0
VERTEX
  8
0
  5
10F8
 10
304.390
 20
46.5057
 30
7.11000e-14
  70
    32
  0
VERTEX
  8
0
  5
10F9
 10
304.272
 20
45.8781
 30
7.11000e-14
  70
    32
  0
VERTEX
  8
0
  5
10FA
 10
304.155
 20
45.1400
 30
7.11000e-14
  70
    32
  0
VERTEX
  8
0
  5
10FB
 10
304.040
 20
44.2931
 30
7.11000e-14
  70
    32
  0
VERTEX
  8
0
  5
10FC
 10
303.927
 20
43.3395
 30
7.11000e-14
  70
    32
  0
VERTEX
  8
0
  5
10FD
 10
303.817
 20
42.2815
 30
7.11000e-14
  70
    32
  0
VERTEX
  8
0
  5
10FE
 10
303.710
 20
41.1217
 30
7.11000e-14
  70
    32
  0
VERTEX
  8
0
  5
10FF
 10
303.606
 20
39.8627
 30
7.11000e-14
  70
    32
  0
VERTEX
  8
0
  5
1100
 10
303.505
 20
38.5078
 30
7.11000e-14
  70
    32
  0
VERTEX
  8
0
  5
1101
 10
303.408
 20
37.0601
 30
7.11000e-14
  70
    32
  0
VERTEX
  8
0
  5
1102
 10
303.315
 20
35.5230
 30
7.11000e-14
  70
    32
  0
VERTEX
  8
0
  5
1103
 10
303.226
 20
33.9005
 30
7.11000e-14
  70
    32
  0
VERTEX
  8
0
  5
1104
 10
303.141
 20
32.1962
 30
7.11000e-14
  70
    32
  0
VERTEX
  8
0
  5
1105
 10
303.060
 20
30.4144
 30
7.11000e-14
  70
    32
  0
VERTEX
  8
0
  5
1106
 10
302.985
 20
28.5593
 30
7.11000e-14
  70
    32
  0
VERTEX
  8
0
  5
1107
 10
302.914
 20
26.6354
 30
7.11000e-14
  70
    32
  0
VERTEX
  8
0
  5
1108
 10
302.848
 20
24.6474
 30
7.11000e-14
  70
    32
  0
VERTEX
  8
0
  5
1109
 10
302.787
 20
22.5999
 30
7.11000e-14
  70
    32
  0
VERTEX
  8
0
  5
110A
 10
302.732
 20
20.4981
 30
7.11000e-14
  70
    32
  0
VERTEX
  8
0
  5
110B
 10
302.682
 20
18.3468
 30
7.11000e-14
  70
    32
  0
VERTEX
  8
0
  5
110C
 10
302.638
 20
16.1513
 30
7.11000e-14
  70
    32
  0
VERTEX
  8
0
  5
110D
 10
302.599
 20
13.9170
 30
7.11000e-14
  70
    32
  0
VERTEX
  8
0
  5
110E
 10
302.566
 20
11.6491
 30
7.11000e-14
  70
    32
  0
VERTEX
  8
0
  5
110F
 10
302.539
 20
9.35312
 30
7.11000e-14
  70
    32
  0
VERTEX
  8
0
  5
1110
 10
302.518
 20
7.03463
 30
7.11000e-14
  70
    32
  0
VERTEX
  8
0
  5
1111
 10
302.503
 20
4.69919
 30
7.11000e-14
  70
    32
  0
VERTEX
  8
0
  5
1112
 10
302.494
 20
2.35243
 30
7.11000e-14
  70
    32
  0
VERTEX
  8
0
  5
1113
 10
302.491
 20
-6.15746e-14
 30
7.11000e-14
  70
    32
  0
SEQEND
  8
0
  5
1114
  0
POLYLINE
  5
D6A
  8
0
  6
VERDECKT
 62
     1
 10
302.3858118660025411
 20
0.0000000000000259
 30
0.0000000000000711
 66
     1
 70
     8
  0
VERTEX
  8
0
  5
1115
 10
302.386
 20
2.59191e-14
 30
7.11000e-14
  70
    32
  0
VERTEX
  8
0
  5
1116
 10
302.386
 20
0.614754
 30
7.11000e-14
  70
    32
  0
VERTEX
  8
0
  5
1117
 10
302.387
 20
1.22942
 30
7.11000e-14
  70
    32
  0
VERTEX
  8
0
  5
1118
 10
302.388
 20
1.84389
 30
7.11000e-14
  70
    32
  0
VERTEX
  8
0
  5
1119
 10
302.389
 20
2.45809
 30
7.11000e-14
  70
    32
  0
VERTEX
  8
0
  5
111A
 10
302.391
 20
3.07191
 30
7.11000e-14
  70
    32
  0
VERTEX
  8
0
  5
111B
 10
302.393
 20
3.68527
 30
7.11000e-14
  70
    32
  0
VERTEX
  8
0
  5
111C
 10
302.396
 20
4.29807
 30
7.11000e-14
  70
    32
  0
VERTEX
  8
0
  5
111D
 10
302.398
 20
4.91021
 30
7.11000e-14
  70
    32
  0
VERTEX
  8
0
  5
111E
 10
302.402
 20
5.52162
 30
7.11000e-14
  70
    32
  0
VERTEX
  8
0
  5
111F
 10
302.406
 20
6.13219
 30
7.11000e-14
  70
    32
  0
VERTEX
  8
0
  5
1120
 10
302.410
 20
6.74183
 30
7.11000e-14
  70
    32
  0
VERTEX
  8
0
  5
1121
 10
302.414
 20
7.35045
 30
7.11000e-14
  70
    32
  0
VERTEX
  8
0
  5
1122
 10
302.419
 20
7.95795
 30
7.11000e-14
  70
    32
  0
VERTEX
  8
0
  5
1123
 10
302.425
 20
8.56425
 30
7.11000e-14
  70
    32
  0
VERTEX
  8
0
  5
1124
 10
302.430
 20
9.16925
 30
7.11000e-14
  70
    32
  0
VERTEX
  8
0
  5
1125
 10
302.436
 20
9.77286
 30
7.11000e-14
  70
    32
  0
VERTEX
  8
0
  5
1126
 10
302.443
 20
10.3750
 30
7.11000e-14
  70
    32
  0
VERTEX
  8
0
  5
1127
 10
302.450
 20
10.9756
 30
7.11000e-14
  70
    32
  0
VERTEX
  8
0
  5
1128
 10
302.457
 20
11.5745
 30
7.11000e-14
  70
    32
  0
VERTEX
  8
0
  5
1129
 10
302.465
 20
12.1716
 30
7.11000e-14
  70
    32
  0
VERTEX
  8
0
  5
112A
 10
302.473
 20
12.7669
 30
7.11000e-14
  70
    32
  0
VERTEX
  8
0
  5
112B
 10
302.481
 20
13.3603
 30
7.11000e-14
  70
    32
  0
VERTEX
  8
0
  5
112C
 10
302.490
 20
13.9516
 30
7.11000e-14
  70
    32
  0
VERTEX
  8
0
  5
112D
 10
302.499
 20
14.5408
 30
7.11000e-14
  70
    32
  0
VERTEX
  8
0
  5
112E
 10
302.509
 20
15.1279
 30
7.11000e-14
  70
    32
  0
VERTEX
  8
0
  5
112F
 10
302.519
 20
15.7126
 30
7.11000e-14
  70
    32
  0
VERTEX
  8
0
  5
1130
 10
302.529
 20
16.2950
 30
7.11000e-14
  70
    32
  0
VERTEX
  8
0
  5
1131
 10
302.540
 20
16.8749
 30
7.11000e-14
  70
    32
  0
VERTEX
  8
0
  5
1132
 10
302.551
 20
17.4522
 30
7.11000e-14
  70
    32
  0
VERTEX
  8
0
  5
1133
 10
302.562
 20
18.0269
 30
7.11000e-14
  70
    32
  0
VERTEX
  8
0
  5
1134
 10
302.574
 20
18.5988
 30
7.11000e-14
  70
    32
  0
VERTEX
  8
0
  5
1135
 10
302.586
 20
19.1680
 30
7.11000e-14
  70
    32
  0
VERTEX
  8
0
  5
1136
 10
302.598
 20
19.7342
 30
7.11000e-14
  70
    32
  0
VERTEX
  8
0
  5
1137
 10
302.611
 20
20.2975
 30
7.11000e-14
  70
    32
  0
VERTEX
  8
0
  5
1138
 10
302.625
 20
20.8576
 30
7.11000e-14
  70
    32
  0
VERTEX
  8
0
  5
1139
 10
302.638
 20
21.4146
 30
7.11000e-14
  70
    32
  0
VERTEX
  8
0
  5
113A
 10
302.652
 20
21.9684
 30
7.11000e-14
  70
    32
  0
VERTEX
  8
0
  5
113B
 10
302.667
 20
22.5189
 30
7.11000e-14
  70
    32
  0
VERTEX
  8
0
  5
113C
 10
302.681
 20
23.0659
 30
7.11000e-14
  70
    32
  0
VERTEX
  8
0
  5
113D
 10
302.696
 20
23.6094
 30
7.11000e-14
  70
    32
  0
VERTEX
  8
0
  5
113E
 10
302.712
 20
24.1494
 30
7.11000e-14
  70
    32
  0
VERTEX
  8
0
  5
113F
 10
302.727
 20
24.6857
 30
7.11000e-14
  70
    32
  0
VERTEX
  8
0
  5
1140
 10
302.743
 20
25.2183
 30
7.11000e-14
  70
    32
  0
VERTEX
  8
0
  5
1141
 10
302.760
 20
25.7470
 30
7.11000e-14
  70
    32
  0
VERTEX
  8
0
  5
1142
 10
302.777
 20
26.2718
 30
7.11000e-14
  70
    32
  0
VERTEX
  8
0
  5
1143
 10
302.794
 20
26.7927
 30
7.11000e-14
  70
    32
  0
VERTEX
  8
0
  5
1144
 10
302.811
 20
27.3095
 30
7.11000e-14
  70
    32
  0
VERTEX
  8
0
  5
1145
 10
302.829
 20
27.8222
 30
7.11000e-14
  70
    32
  0
VERTEX
  8
0
  5
1146
 10
302.847
 20
28.3306
 30
7.11000e-14
  70
    32
  0
VERTEX
  8
0
  5
1147
 10
302.865
 20
28.8348
 30
7.11000e-14
  70
    32
  0
VERTEX
  8
0
  5
1148
 10
302.884
 20
29.3346
 30
7.11000e-14
  70
    32
  0
VERTEX
  8
0
  5
1149
 10
302.903
 20
29.8299
 30
7.11000e-14
  70
    32
  0
VERTEX
  8
0
  5
114A
 10
302.923
 20
30.3208
 30
7.11000e-14
  70
    32
  0
VERTEX
  8
0
  5
114B
 10
302.942
 20
30.8070
 30
7.11000e-14
  70
    32
  0
VERTEX
  8
0
  5
114C
 10
302.962
 20
31.2886
 30
7.11000e-14
  70
    32
  0
VERTEX
  8
0
  5
114D
 10
302.983
 20
31.7654
 30
7.11000e-14
  70
    32
  0
VERTEX
  8
0
  5
114E
 10
303.003
 20
32.2374
 30
7.11000e-14
  70
    32
  0
VERTEX
  8
0
  5
114F
 10
303.024
 20
32.7046
 30
7.11000e-14
  70
    32
  0
VERTEX
  8
0
  5
1150
 10
303.045
 20
33.1668
 30
7.11000e-14
  70
    32
  0
VERTEX
  8
0
  5
1151
 10
303.067
 20
33.6239
 30
7.11000e-14
  70
    32
  0
VERTEX
  8
0
  5
1152
 10
303.089
 20
34.0760
 30
7.11000e-14
  70
    32
  0
VERTEX
  8
0
  5
1153
 10
303.111
 20
34.5229
 30
7.11000e-14
  70
    32
  0
VERTEX
  8
0
  5
1154
 10
303.133
 20
34.9646
 30
7.11000e-14
  70
    32
  0
VERTEX
  8
0
  5
1155
 10
303.156
 20
35.4010
 30
7.11000e-14
  70
    32
  0
VERTEX
  8
0
  5
1156
 10
303.179
 20
35.8320
 30
7.11000e-14
  70
    32
  0
VERTEX
  8
0
  5
1157
 10
303.202
 20
36.2576
 30
7.11000e-14
  70
    32
  0
VERTEX
  8
0
  5
1158
 10
303.225
 20
36.6777
 30
7.11000e-14
  70
    32
  0
VERTEX
  8
0
  5
1159
 10
303.249
 20
37.0922
 30
7.11000e-14
  70
    32
  0
VERTEX
  8
0
  5
115A
 10
303.273
 20
37.5011
 30
7.11000e-14
  70
    32
  0
VERTEX
  8
0
  5
115B
 10
303.297
 20
37.9044
 30
7.11000e-14
  70
    32
  0
VERTEX
  8
0
  5
115C
 10
303.322
 20
38.3019
 30
7.11000e-14
  70
    32
  0
VERTEX
  8
0
  5
115D
 10
303.347
 20
38.6936
 30
7.11000e-14
  70
    32
  0
VERTEX
  8
0
  5
115E
 10
303.372
 20
39.0794
 30
7.11000e-14
  70
    32
  0
VERTEX
  8
0
  5
115F
 10
303.397
 20
39.4593
 30
7.11000e-14
  70
    32
  0
VERTEX
  8
0
  5
1160
 10
303.423
 20
39.8333
 30
7.11000e-14
  70
    32
  0
VERTEX
  8
0
  5
1161
 10
303.448
 20
40.2012
 30
7.11000e-14
  70
    32
  0
VERTEX
  8
0
  5
1162
 10
303.474
 20
40.5630
 30
7.11000e-14
  70
    32
  0
VERTEX
  8
0
  5
1163
 10
303.501
 20
40.9187
 30
7.11000e-14
  70
    32
  0
VERTEX
  8
0
  5
1164
 10
303.527
 20
41.2682
 30
7.11000e-14
  70
    32
  0
VERTEX
  8
0
  5
1165
 10
303.554
 20
41.6114
 30
7.11000e-14
  70
    32
  0
VERTEX
  8
0
  5
1166
 10
303.581
 20
41.9483
 30
7.11000e-14
  70
    32
  0
VERTEX
  8
0
  5
1167
 10
303.608
 20
42.2789
 30
7.11000e-14
  70
    32
  0
VERTEX
  8
0
  5
1168
 10
303.635
 20
42.6030
 30
7.11000e-14
  70
    32
  0
VERTEX
  8
0
  5
1169
 10
303.663
 20
42.9207
 30
7.11000e-14
  70
    32
  0
VERTEX
  8
0
  5
116A
 10
303.691
 20
43.2319
 30
7.11000e-14
  70
    32
  0
VERTEX
  8
0
  5
116B
 10
303.718
 20
43.5366
 30
7.11000e-14
  70
    32
  0
VERTEX
  8
0
  5
116C
 10
303.747
 20
43.8347
 30
7.11000e-14
  70
    32
  0
VERTEX
  8
0
  5
116D
 10
303.775
 20
44.1261
 30
7.11000e-14
  70
    32
  0
VERTEX
  8
0
  5
116E
 10
303.803
 20
44.4108
 30
7.11000e-14
  70
    32
  0
VERTEX
  8
0
  5
116F
 10
303.832
 20
44.6888
 30
7.11000e-14
  70
    32
  0
VERTEX
  8
0
  5
1170
 10
303.861
 20
44.9601
 30
7.11000e-14
  70
    32
  0
VERTEX
  8
0
  5
1171
 10
303.890
 20
45.2245
 30
7.11000e-14
  70
    32
  0
VERTEX
  8
0
  5
1172
 10
303.919
 20
45.4821
 30
7.11000e-14
  70
    32
  0
VERTEX
  8
0
  5
1173
 10
303.949
 20
45.7328
 30
7.11000e-14
  70
    32
  0
VERTEX
  8
0
  5
1174
 10
303.978
 20
45.9766
 30
7.11000e-14
  70
    32
  0
VERTEX
  8
0
  5
1175
 10
304.008
 20
46.2134
 30
7.11000e-14
  70
    32
  0
VERTEX
  8
0
  5
1176
 10
304.038
 20
46.4432
 30
7.11000e-14
  70
    32
  0
VERTEX
  8
0
  5
1177
 10
304.068
 20
46.6659
 30
7.11000e-14
  70
    32
  0
VERTEX
  8
0
  5
1178
 10
304.098
 20
46.8816
 30
7.11000e-14
  70
    32
  0
VERTEX
  8
0
  5
1179
 10
304.128
 20
47.0902
 30
7.11000e-14
  70
    32
  0
VERTEX
  8
0
  5
117A
 10
304.159
 20
47.2917
 30
7.11000e-14
  70
    32
  0
VERTEX
  8
0
  5
117B
 10
304.189
 20
47.4860
 30
7.11000e-14
  70
    32
  0
VERTEX
  8
0
  5
117C
 10
304.220
 20
47.6731
 30
7.11000e-14
  70
    32
  0
VERTEX
  8
0
  5
117D
 10
304.250
 20
47.8530
 30
7.11000e-14
  70
    32
  0
VERTEX
  8
0
  5
117E
 10
304.281
 20
48.0256
 30
7.11000e-14
  70
    32
  0
VERTEX
  8
0
  5
117F
 10
304.312
 20
48.1910
 30
7.11000e-14
  70
    32
  0
VERTEX
  8
0
  5
1180
 10
304.343
 20
48.3490
 30
7.11000e-14
  70
    32
  0
VERTEX
  8
0
  5
1181
 10
304.375
 20
48.4998
 30
7.11000e-14
  70
    32
  0
VERTEX
  8
0
  5
1182
 10
304.406
 20
48.6432
 30
7.11000e-14
  70
    32
  0
VERTEX
  8
0
  5
1183
 10
304.437
 20
48.7792
 30
7.11000e-14
  70
    32
  0
VERTEX
  8
0
  5
1184
 10
304.469
 20
48.9078
 30
7.11000e-14
  70
    32
  0
VERTEX
  8
0
  5
1185
 10
304.500
 20
49.0291
 30
7.11000e-14
  70
    32
  0
VERTEX
  8
0
  5
1186
 10
304.532
 20
49.1429
 30
7.11000e-14
  70
    32
  0
VERTEX
  8
0
  5
1187
 10
304.564
 20
49.2492
 30
7.11000e-14
  70
    32
  0
VERTEX
  8
0
  5
1188
 10
304.595
 20
49.3481
 30
7.11000e-14
  70
    32
  0
VERTEX
  8
0
  5
1189
 10
304.627
 20
49.4395
 30
7.11000e-14
  70
    32
  0
VERTEX
  8
0
  5
118A
 10
304.659
 20
49.5235
 30
7.11000e-14
  70
    32
  0
VERTEX
  8
0
  5
118B
 10
304.691
 20
49.5999
 30
7.11000e-14
  70
    32
  0
VERTEX
  8
0
  5
118C
 10
304.723
 20
49.6688
 30
7.11000e-14
  70
    32
  0
VERTEX
  8
0
  5
118D
 10
304.755
 20
49.7302
 30
7.11000e-14
  70
    32
  0
VERTEX
  8
0
  5
118E
 10
304.787
 20
49.7841
 30
7.11000e-14
  70
    32
  0
VERTEX
  8
0
  5
118F
 10
304.819
 20
49.8304
 30
7.11000e-14
  70
    32
  0
VERTEX
  8
0
  5
1190
 10
304.851
 20
49.8691
 30
7.11000e-14
  70
    32
  0
VERTEX
  8
0
  5
1191
 10
304.883
 20
49.9004
 30
7.11000e-14
  70
    32
  0
VERTEX
  8
0
  5
1192
 10
304.915
 20
49.9240
 30
7.11000e-14
  70
    32
  0
VERTEX
  8
0
  5
1193
 10
304.948
 20
49.9401
 30
7.11000e-14
  70
    32
  0
VERTEX
  8
0
  5
1194
 10
304.980
 20
49.9486
 30
7.11000e-14
  70
    32
  0
VERTEX
  8
0
  5
1195
 10
305.012
 20
49.9496
 30
7.11000e-14
  70
    32
  0
SEQEND
  8
0
  5
1196
  0
POLYLINE
  5
D6B
  8
0
  6
VERDECKT
 62
     1
 10
305.0119862788992577
 20
-49.949610983604309
 30
0.0000000000000711
 66
     1
 70
     8
  0
VERTEX
  8
0
  5
1197
 10
305.012
 20
-49.9496
 30
7.11000e-14
  70
    32
  0
VERTEX
  8
0
  5
1198
 10
304.980
 20
-49.9486
 30
7.11000e-14
  70
    32
  0
VERTEX
  8
0
  5
1199
 10
304.948
 20
-49.9401
 30
7.11000e-14
  70
    32
  0
VERTEX
  8
0
  5
119A
 10
304.915
 20
-49.9240
 30
7.11000e-14
  70
    32
  0
VERTEX
  8
0
  5
119B
 10
304.883
 20
-49.9004
 30
7.11000e-14
  70
    32
  0
VERTEX
  8
0
  5
119C
 10
304.851
 20
-49.8691
 30
7.11000e-14
  70
    32
  0
VERTEX
  8
0
  5
119D
 10
304.819
 20
-49.8304
 30
7.11000e-14
  70
    32
  0
VERTEX
  8
0
  5
119E
 10
304.787
 20
-49.7841
 30
7.11000e-14
  70
    32
  0
VERTEX
  8
0
  5
119F
 10
304.755
 20
-49.7302
 30
7.11000e-14
  70
    32
  0
VERTEX
  8
0
  5
11A0
 10
304.723
 20
-49.6688
 30
7.11000e-14
  70
    32
  0
VERTEX
  8
0
  5
11A1
 10
304.691
 20
-49.5999
 30
7.11000e-14
  70
    32
  0
VERTEX
  8
0
  5
11A2
 10
304.659
 20
-49.5235
 30
7.11000e-14
  70
    32
  0
VERTEX
  8
0
  5
11A3
 10
304.627
 20
-49.4395
 30
7.11000e-14
  70
    32
  0
VERTEX
  8
0
  5
11A4
 10
304.595
 20
-49.3481
 30
7.11000e-14
  70
    32
  0
VERTEX
  8
0
  5
11A5
 10
304.564
 20
-49.2492
 30
7.11000e-14
  70
    32
  0
VERTEX
  8
0
  5
11A6
 10
304.532
 20
-49.1429
 30
7.11000e-14
  70
    32
  0
VERTEX
  8
0
  5
11A7
 10
304.500
 20
-49.0291
 30
7.11000e-14
  70
    32
  0
VERTEX
  8
0
  5
11A8
 10
304.469
 20
-48.9078
 30
7.11000e-14
  70
    32
  0
VERTEX
  8
0
  5
11A9
 10
304.437
 20
-48.7792
 30
7.11000e-14
  70
    32
  0
VERTEX
  8
0
  5
11AA
 10
304.406
 20
-48.6432
 30
7.11000e-14
  70
    32
  0
VERTEX
  8
0
  5
11AB
 10
304.375
 20
-48.4998
 30
7.11000e-14
  70
    32
  0
VERTEX
  8
0
  5
11AC
 10
304.343
 20
-48.3490
 30
7.11000e-14
  70
    32
  0
VERTEX
  8
0
  5
11AD
 10
304.312
 20
-48.1910
 30
7.11000e-14
  70
    32
  0
VERTEX
  8
0
  5
11AE
 10
304.281
 20
-48.0256
 30
7.11000e-14
  70
    32
  0
VERTEX
  8
0
  5
11AF
 10
304.250
 20
-47.8530
 30
7.11000e-14
  70
    32
  0
VERTEX
  8
0
  5
11B0
 10
304.220
 20
-47.6731
 30
7.11000e-14
  70
    32
  0
VERTEX
  8
0
  5
11B1
 10
304.189
 20
-47.4860
 30
7.11000e-14
  70
    32
  0
VERTEX
  8
0
  5
11B2
 10
304.159
 20
-47.2917
 30
7.11000e-14
  70
    32
  0
VERTEX
  8
0
  5
11B3
 10
304.128
 20
-47.0902
 30
7.11000e-14
  70
    32
  0
VERTEX
  8
0
  5
11B4
 10
304.098
 20
-46.8816
 30
7.11000e-14
  70
    32
  0
VERTEX
  8
0
  5
11B5
 10
304.068
 20
-46.6659
 30
7.11000e-14
  70
    32
  0
VERTEX
  8
0
  5
11B6
 10
304.038
 20
-46.4432
 30
7.11000e-14
  70
    32
  0
VERTEX
  8
0
  5
11B7
 10
304.008
 20
-46.2134
 30
7.11000e-14
  70
    32
  0
VERTEX
  8
0
  5
11B8
 10
303.978
 20
-45.9766
 30
7.11000e-14
  70
    32
  0
VERTEX
  8
0
  5
11B9
 10
303.949
 20
-45.7328
 30
7.11000e-14
  70
    32
  0
VERTEX
  8
0
  5
11BA
 10
303.919
 20
-45.4821
 30
7.11000e-14
  70
    32
  0
VERTEX
  8
0
  5
11BB
 10
303.890
 20
-45.2245
 30
7.11000e-14
  70
    32
  0
VERTEX
  8
0
  5
11BC
 10
303.861
 20
-44.9601
 30
7.11000e-14
  70
    32
  0
VERTEX
  8
0
  5
11BD
 10
303.832
 20
-44.6888
 30
7.11000e-14
  70
    32
  0
VERTEX
  8
0
  5
11BE
 10
303.803
 20
-44.4108
 30
7.11000e-14
  70
    32
  0
VERTEX
  8
0
  5
11BF
 10
303.775
 20
-44.1261
 30
7.11000e-14
  70
    32
  0
VERTEX
  8
0
  5
11C0
 10
303.747
 20
-43.8347
 30
7.11000e-14
  70
    32
  0
VERTEX
  8
0
  5
11C1
 10
303.718
 20
-43.5366
 30
7.11000e-14
  70
    32
  0
VERTEX
  8
0
  5
11C2
 10
303.691
 20
-43.2319
 30
7.11000e-14
  70
    32
  0
VERTEX
  8
0
  5
11C3
 10
303.663
 20
-42.9207
 30
7.11000e-14
  70
    32
  0
VERTEX
  8
0
  5
11C4
 10
303.635
 20
-42.6030
 30
7.11000e-14
  70
    32
  0
VERTEX
  8
0
  5
11C5
 10
303.608
 20
-42.2789
 30
7.11000e-14
  70
    32
  0
VERTEX
  8
0
  5
11C6
 10
303.581
 20
-41.9483
 30
7.11000e-14
  70
    32
  0
VERTEX
  8
0
  5
11C7
 10
303.554
 20
-41.6114
 30
7.11000e-14
  70
    32
  0
VERTEX
  8
0
  5
11C8
 10
303.527
 20
-41.2682
 30
7.11000e-14
  70
    32
  0
VERTEX
  8
0
  5
11C9
 10
303.501
 20
-40.9187
 30
7.11000e-14
  70
    32
  0
VERTEX
  8
0
  5
11CA
 10
303.474
 20
-40.5630
 30
7.11000e-14
  70
    32
  0
VERTEX
  8
0
  5
11CB
 10
303.448
 20
-40.2012
 30
7.11000e-14
  70
    32
  0
VERTEX
  8
0
  5
11CC
 10
303.423
 20
-39.8333
 30
7.11000e-14
  70
    32
  0
VERTEX
  8
0
  5
11CD
 10
303.397
 20
-39.4593
 30
7.11000e-14
  70
    32
  0
VERTEX
  8
0
  5
11CE
 10
303.372
 20
-39.0794
 30
7.11000e-14
  70
    32
  0
VERTEX
  8
0
  5
11CF
 10
303.347
 20
-38.6936
 30
7.11000e-14
  70
    32
  0
VERTEX
  8
0
  5
11D0
 10
303.322
 20
-38.3019
 30
7.11000e-14
  70
    32
  0
VERTEX
  8
0
  5
11D1
 10
303.297
 20
-37.9044
 30
7.11000e-14
  70
    32
  0
VERTEX
  8
0
  5
11D2
 10
303.273
 20
-37.5011
 30
7.11000e-14
  70
    32
  0
VERTEX
  8
0
  5
11D3
 10
303.249
 20
-37.0922
 30
7.11000e-14
  70
    32
  0
VERTEX
  8
0
  5
11D4
 10
303.225
 20
-36.6777
 30
7.11000e-14
  70
    32
  0
VERTEX
  8
0
  5
11D5
 10
303.202
 20
-36.2576
 30
7.11000e-14
  70
    32
  0
VERTEX
  8
0
  5
11D6
 10
303.179
 20
-35.8320
 30
7.11000e-14
  70
    32
  0
VERTEX
  8
0
  5
11D7
 10
303.156
 20
-35.4010
 30
7.11000e-14
  70
    32
  0
VERTEX
  8
0
  5
11D8
 10
303.133
 20
-34.9646
 30
7.11000e-14
  70
    32
  0
VERTEX
  8
0
  5
11D9
 10
303.111
 20
-34.5229
 30
7.11000e-14
  70
    32
  0
VERTEX
  8
0
  5
11DA
 10
303.089
 20
-34.0760
 30
7.11000e-14
  70
    32
  0
VERTEX
  8
0
  5
11DB
 10
303.067
 20
-33.6239
 30
7.11000e-14
  70
    32
  0
VERTEX
  8
0
  5
11DC
 10
303.045
 20
-33.1668
 30
7.11000e-14
  70
    32
  0
VERTEX
  8
0
  5
11DD
 10
303.024
 20
-32.7046
 30
7.11000e-14
  70
    32
  0
VERTEX
  8
0
  5
11DE
 10
303.003
 20
-32.2374
 30
7.11000e-14
  70
    32
  0
VERTEX
  8
0
  5
11DF
 10
302.983
 20
-31.7654
 30
7.11000e-14
  70
    32
  0
VERTEX
  8
0
  5
11E0
 10
302.962
 20
-31.2886
 30
7.11000e-14
  70
    32
  0
VERTEX
  8
0
  5
11E1
 10
302.942
 20
-30.8070
 30
7.11000e-14
  70
    32
  0
VERTEX
  8
0
  5
11E2
 10
302.923
 20
-30.3208
 30
7.11000e-14
  70
    32
  0
VERTEX
  8
0
  5
11E3
 10
302.903
 20
-29.8299
 30
7.11000e-14
  70
    32
  0
VERTEX
  8
0
  5
11E4
 10
302.884
 20
-29.3346
 30
7.11000e-14
  70
    32
  0
VERTEX
  8
0
  5
11E5
 10
302.865
 20
-28.8348
 30
7.11000e-14
  70
    32
  0
VERTEX
  8
0
  5
11E6
 10
302.847
 20
-28.3306
 30
7.11000e-14
  70
    32
  0
VERTEX
  8
0
  5
11E7
 10
302.829
 20
-27.8222
 30
7.11000e-14
  70
    32
  0
VERTEX
  8
0
  5
11E8
 10
302.811
 20
-27.3095
 30
7.11000e-14
  70
    32
  0
VERTEX
  8
0
  5
11E9
 10
302.794
 20
-26.7927
 30
7.11000e-14
  70
    32
  0
VERTEX
  8
0
  5
11EA
 10
302.777
 20
-26.2718
 30
7.11000e-14
  70
    32
  0
VERTEX
  8
0
  5
11EB
 10
302.760
 20
-25.7470
 30
7.11000e-14
  70
    32
  0
VERTEX
  8
0
  5
11EC
 10
302.743
 20
-25.2183
 30
7.11000e-14
  70
    32
  0
VERTEX
  8
0
  5
11ED
 10
302.727
 20
-24.6857
 30
7.11000e-14
  70
    32
  0
VERTEX
  8
0
  5
11EE
 10
302.712
 20
-24.1494
 30
7.11000e-14
  70
    32
  0
VERTEX
  8
0
  5
11EF
 10
302.696
 20
-23.6094
 30
7.11000e-14
  70
    32
  0
VERTEX
  8
0
  5
11F0
 10
302.681
 20
-23.0659
 30
7.11000e-14
  70
    32
  0
VERTEX
  8
0
  5
11F1
 10
302.667
 20
-22.5189
 30
7.11000e-14
  70
    32
  0
VERTEX
  8
0
  5
11F2
 10
302.652
 20
-21.9684
 30
7.11000e-14
  70
    32
  0
VERTEX
  8
0
  5
11F3
 10
302.638
 20
-21.4146
 30
7.11000e-14
  70
    32
  0
VERTEX
  8
0
  5
11F4
 10
302.625
 20
-20.8576
 30
7.11000e-14
  70
    32
  0
VERTEX
  8
0
  5
11F5
 10
302.611
 20
-20.2975
 30
7.11000e-14
  70
    32
  0
VERTEX
  8
0
  5
11F6
 10
302.598
 20
-19.7342
 30
7.11000e-14
  70
    32
  0
VERTEX
  8
0
  5
11F7
 10
302.586
 20
-19.1680
 30
7.11000e-14
  70
    32
  0
VERTEX
  8
0
  5
11F8
 10
302.574
 20
-18.5988
 30
7.11000e-14
  70
    32
  0
VERTEX
  8
0
  5
11F9
 10
302.562
 20
-18.0269
 30
7.11000e-14
  70
    32
  0
VERTEX
  8
0
  5
11FA
 10
302.551
 20
-17.4522
 30
7.11000e-14
  70
    32
  0
VERTEX
  8
0
  5
11FB
 10
302.540
 20
-16.8749
 30
7.11000e-14
  70
    32
  0
VERTEX
  8
0
  5
11FC
 10
302.529
 20
-16.2950
 30
7.11000e-14
  70
    32
  0
VERTEX
  8
0
  5
11FD
 10
302.519
 20
-15.7126
 30
7.11000e-14
  70
    32
  0
VERTEX
  8
0
  5
11FE
 10
302.509
 20
-15.1279
 30
7.11000e-14
  70
    32
  0
VERTEX
  8
0
  5
11FF
 10
302.499
 20
-14.5408
 30
7.11000e-14
  70
    32
  0
VERTEX
  8
0
  5
1200
 10
302.490
 20
-13.9516
 30
7.11000e-14
  70
    32
  0
VERTEX
  8
0
  5
1201
 10
302.481
 20
-13.3603
 30
7.11000e-14
  70
    32
  0
VERTEX
  8
0
  5
1202
 10
302.473
 20
-12.7669
 30
7.11000e-14
  70
    32
  0
VERTEX
  8
0
  5
1203
 10
302.465
 20
-12.1716
 30
7.11000e-14
  70
    32
  0
VERTEX
  8
0
  5
1204
 10
302.457
 20
-11.5745
 30
7.11000e-14
  70
    32
  0
VERTEX
  8
0
  5
1205
 10
302.450
 20
-10.9756
 30
7.11000e-14
  70
    32
  0
VERTEX
  8
0
  5
1206
 10
302.443
 20
-10.3750
 30
7.11000e-14
  70
    32
  0
VERTEX
  8
0
  5
1207
 10
302.436
 20
-9.77286
 30
7.11000e-14
  70
    32
  0
VERTEX
  8
0
  5
1208
 10
302.430
 20
-9.16925
 30
7.11000e-14
  70
    32
  0
VERTEX
  8
0
  5
1209
 10
302.425
 20
-8.56425
 30
7.11000e-14
  70
    32
  0
VERTEX
  8
0
  5
120A
 10
302.419
 20
-7.95795
 30
7.11000e-14
  70
    32
  0
VERTEX
  8
0
  5
120B
 10
302.414
 20
-7.35045
 30
7.11000e-14
  70
    32
  0
VERTEX
  8
0
  5
120C
 10
302.410
 20
-6.74183
 30
7.11000e-14
  70
    32
  0
VERTEX
  8
0
  5
120D
 10
302.406
 20
-6.13219
 30
7.11000e-14
  70
    32
  0
VERTEX
  8
0
  5
120E
 10
302.402
 20
-5.52162
 30
7.11000e-14
  70
    32
  0
VERTEX
  8
0
  5
120F
 10
302.398
 20
-4.91021
 30
7.11000e-14
  70
    32
  0
VERTEX
  8
0
  5
1210
 10
302.396
 20
-4.29807
 30
7.11000e-14
  70
    32
  0
VERTEX
  8
0
  5
1211
 10
302.393
 20
-3.68527
 30
7.11000e-14
  70
    32
  0
VERTEX
  8
0
  5
1212
 10
302.391
 20
-3.07191
 30
7.11000e-14
  70
    32
  0
VERTEX
  8
0
  5
1213
 10
302.389
 20
-2.45809
 30
7.11000e-14
  70
    32
  0
VERTEX
  8
0
  5
1214
 10
302.388
 20
-1.84389
 30
7.11000e-14
  70
    32
  0
VERTEX
  8
0
  5
1215
 10
302.387
 20
-1.22942
 30
7.11000e-14
  70
    32
  0
VERTEX
  8
0
  5
1216
 10
302.386
 20
-0.614754
 30
7.11000e-14
  70
    32
  0
VERTEX
  8
0
  5
1217
 10
302.386
 20
-9.85273e-14
 30
7.11000e-14
  70
    32
  0
SEQEND
  8
0
  5
1218
  0
LINE
  5
D6C
  8
0
  6
VERDECKT
 62
     1
 10
218.8140892212807103
 20
48.9999999999999787
 30
0.0000000000000497
 11
145.246504851456308
 21
48.9999999999999787
 31
0.0000000000000284
  0
LINE
  5
D6D
  8
0
  6
VERDECKT
 62
     1
 10
145.246504851456308
 20
-49.0000000000000284
 30
0.0000000000000284
 11
218.8140892212807103
 21
-49.0000000000000284
 31
0.0000000000000497
  0
LINE
  5
D6E
  8
0
  6
VERDECKT
 62
     1
 10
139.9040674328221883
 20
48.9999999999999574
 30
0.0000000000000284
 11
145.246504851456308
 21
48.9999999999999716
 31
0.0000000000000284
  0
LINE
  5
D6F
  8
0
  6
VERDECKT
 62
     1
 10
139.904067432822302
 20
-49.0000000000000284
 30
0.0000000000000284
 11
145.2465048514563932
 21
-49.0000000000000284
 31
0.0000000000000284
  0
LINE
  5
D70
  8
0
  6
VERDECKT
 62
     1
 10
0.0000000000020024
 20
-49.0000000000000284
 30
0.0
 11
139.9040674328221883
 21
-49.0000000000000284
 31
0.0000000000000284
  0
LINE
  5
D71
  8
0
  6
VERDECKT
 62
     1
 10
139.9040674328221883
 20
48.9999999999999574
 30
0.0000000000000284
 11
0.0000000000019895
 21
48.9999999999999574
 31
0.0
  0
LINE
  5
D72
  8
0
  6
VERDECKT
 62
     1
 10
0.0000000000020024
 20
-51.0000000000000426
 30
0.0
 11
29.6647939483825915
 21
-51.0000000000000426
 31
0.0
  0
LINE
  5
D73
  8
0
  6
VERDECKT
 62
     1
 10
29.6647939483825809
 20
50.9999999999999574
 30
0.0
 11
0.0000000000020037
 21
50.9999999999999574
 31
0.0
  0
LINE
  5
D74
  8
0
  6
VERDECKT
 62
     1
 10
218.8140892212807103
 20
49.0000000000002984
 30
0.0000000000000497
 11
292.9292433687385255
 21
49.0000000000002984
 31
0.0000000000000666
  0
LINE
  5
D75
  8
0
  6
VERDECKT
 62
     1
 10
218.8140892212807103
 20
-49.0000000000003624
 30
0.0000000000000497
 11
292.9292433687385255
 21
-49.0000000000003624
 31
0.0000000000000666
  0
LINE
  5
D76
  8
0
  6
VERDECKT
 62
     1
 10
305.0115045158649991
 20
-47.9419924119520218
 30
0.0000000000000711
 11
292.9410016483478216
 21
-48.9994849333318427
 31
0.0000000000000683
  0
LINE
  5
D77
  8
0
  6
VERDECKT
 62
     1
 10
305.0115045158649991
 20
47.941992411951972
 30
0.0000000000000711
 11
292.9410016483478216
 21
48.9994849333317788
 31
0.0000000000000683
  0
ENDBLK
  5
D79
  8
0
  0
BLOCK
  8
0
  2
A$C56064F69
 70
     0
 10
0.0
 20
0.0
 30
0.0
  3
A$C56064F69
  1

  0
LINE
  5
D7D
  8
0
  6
AUSGEZOGEN
 62
     3
 10
-55.7067558379251295
 20
0.0
 30
0.0
 11
55.7067558379251295
 21
0.0
 31
0.0
210
0.0
220
1.0
230
-0.0000000000000002
  0
LINE
  5
D7E
  8
0
  6
AUSGEZOGEN
 62
     3
 10
302.3858118660024843
 20
-84.8816811122454453
 30
0.0000000000000188
 11
307.6141881339979136
 21
14.8816811122451895
 31
-0.0000000000000033
210
0.0
220
1.0
230
-0.0000000000000002
  0
LINE
  5
D7F
  8
0
  6
AUSGEZOGEN
 62
     3
 10
55.7067558379252432
 20
0.0000000000000491
 30
0.0
 11
56.6576946759165523
 21
-2.0392949190539951
 31
0.0000000000000005
210
0.0
220
1.0
230
-0.0000000000000002
  0
LINE
  5
D80
  8
0
  6
AUSGEZOGEN
 62
     3
 10
-55.7067558379252432
 20
0.0000000000000491
 30
0.0
 11
-56.6576946759165523
 21
-2.0392949190539951
 31
0.0000000000000005
210
0.0
220
1.0
230
-0.0000000000000002
  0
ARC
  5
D81
  8
0
  6
AUSGEZOGEN
 62
     3
 10
34.000000000000199
 20
-12.6047514625710697
 30
0.0
 40
24.999999999999801
210
0.0
220
-0.0000000000000002
230
-1.0
 50
359.9999999999997726
 51
24.9999999999990408
  0
ARC
  5
D82
  8
0
  6
AUSGEZOGEN
 62
     3
 10
-34.0000000000004121
 20
-12.60475146257102
 30
0.0
 40
24.9999999999995914
210
0.0
220
-0.0000000000000002
230
-1.0
 50
155.0000000000007958
 51
180.000000000000199
  0
LINE
  5
D83
  8
0
  6
AUSGEZOGEN
 62
     3
 10
59.0
 20
-12.6047514625711301
 30
0.0000000000000028
 11
59.0
 21
-27.7667994693184816
 31
0.0000000000000062
210
0.0
220
1.0
230
-0.0000000000000002
  0
LINE
  5
D84
  8
0
  6
AUSGEZOGEN
 62
     3
 10
-59.0
 20
-12.6047514625711301
 30
0.0000000000000028
 11
-59.0
 21
-27.7667994693184816
 31
0.0000000000000062
210
0.0
220
1.0
230
-0.0000000000000002
  0
ARC
  5
D85
  8
0
  6
AUSGEZOGEN
 62
     3
 10
33.999999999997101
 20
-27.7667994693178102
 30
0.0
 40
25.0000000000029097
210
0.0
220
-0.0000000000000002
230
-1.0
 50
333.1119523822774795
 51
359.9999999999984084
  0
ARC
  5
D86
  8
0
  6
AUSGEZOGEN
 62
     3
 10
-33.9999999999972715
 20
-27.7667994693178493
 30
0.0
 40
25.0000000000027391
210
0.0
220
-0.0000000000000002
230
-1.0
 50
180.0000000000013074
 51
206.8880476177226058
  0
ARC
  5
D87
  8
0
  6
AUSGEZOGEN
 62
     3
 10
66.999999999997101
 20
-44.4999999999993392
 30
0.0
 40
11.9999999999970992
210
0.0
220
-0.0000000000000002
230
-1.0
 50
153.1119523822727047
 51
180.0000000000034106
  0
ARC
  5
D88
  8
0
  6
AUSGEZOGEN
 62
     3
 10
-66.9999999999971436
 20
-44.4999999999993392
 30
0.0
 40
11.9999999999971507
210
0.0
220
-0.0000000000000002
230
-1.0
 50
359.9999999999964757
 51
26.8880476177272314
  0
LINE
  5
D89
  8
0
  6
AUSGEZOGEN
 62
     3
 10
55.0
 20
-44.5000000000000568
 30
0.0000000000000099
 11
55.0
 21
-63.072511123052557
 31
0.000000000000014
210
0.0
220
1.0
230
-0.0000000000000002
  0
LINE
  5
D8A
  8
0
  6
AUSGEZOGEN
 62
     3
 10
-55.0
 20
-44.5000000000000568
 30
0.0000000000000099
 11
-55.0
 21
-63.072511123052557
 31
0.000000000000014
210
0.0
220
1.0
230
-0.0000000000000002
  0
ARC
  5
D8B
  8
0
  6
AUSGEZOGEN
 62
     3
 10
40.0000000000003411
 20
-63.0725111230525783
 30
0.0
 40
14.9999999999996501
210
0.0
220
-0.0000000000000002
230
-1.0
 50
325.698847243209002
 51
0.0000000000000636
  0
ARC
  5
D8C
  8
0
  6
AUSGEZOGEN
 62
     3
 10
-40.0000000000003411
 20
-63.0725111230525783
 30
0.0
 40
14.9999999999996394
210
0.0
220
-0.0000000000000002
230
-1.0
 50
179.9999999999998863
 51
214.3011527567909127
  0
ARC
  5
D8D
  8
0
  6
AUSGEZOGEN
 62
     3
 10
59.0000000000012932
 20
-76.0339925198685904
 30
0.0
 40
8.0000000000012843
210
0.0
220
-0.0000000000000002
230
-1.0
 50
145.6988472432092863
 51
179.9999999999976978
  0
ARC
  5
D8E
  8
0
  6
AUSGEZOGEN
 62
     3
 10
-59.0000000000012932
 20
-76.0339925198685904
 30
0.0
 40
8.0000000000012861
210
0.0
220
-0.0000000000000002
230
-1.0
 50
0.0
 51
34.30115275678844
  0
ARC
  5
D8F
  8
0
  6
AUSGEZOGEN
 62
     3
 10
-215.1505722842759951
 20
-100.3872552434207961
 30
0.0
 40
120.9999999999995026
210
0.0
220
-0.0000000000000002
230
-1.0
 50
2.9999999999994942
 51
92.9999999999982805
  0
ARC
  5
D90
  8
0
  6
AUSGEZOGEN
 62
     3
 10
215.1505722842759951
 20
-100.3872552434206966
 30
0.0000000000000223
 40
18.9999999999994493
 50
87.0000000000041069
 51
176.9999999999934062
  0
LINE
  5
D91
  8
0
  6
AUSGEZOGEN
 62
     3
 10
88.9739611603389733
 20
-195.994383168614803
 30
0.0000000000000435
 11
94.3163985789730361
 21
-94.0546045380255862
 31
0.0000000000000209
210
0.0
220
1.0
230
-0.0000000000000002
  0
LINE
  5
D92
  8
0
  6
AUSGEZOGEN
 62
     3
 10
190.8341737053056875
 20
-201.3326507053918135
 30
0.0000000000000447
 11
196.1766111239396935
 21
-99.3928720748026535
 31
0.0000000000000221
210
0.0
220
1.0
230
-0.0000000000000002
  0
ARC
  5
D93
  8
0
  6
AUSGEZOGEN
 62
     3
 10
-70.0000000000020464
 20
-194.9999999999994031
 30
0.0
 40
121.0
210
0.0
220
-0.0000000000000002
230
-1.0
 50
182.9999999999980957
 51
0.0000000000000877
  0
ARC
  5
D94
  8
0
  6
AUSGEZOGEN
 62
     3
 10
70.0000000000020464
 20
-194.9999999999992895
 30
0.0000000000000433
 40
19.0
 50
179.9999999999994884
 51
357.0000000000014779
  0
LINE
  5
D95
  8
0
  6
AUSGEZOGEN
 62
     3
 10
51.0000000000020393
 20
-76.0339925198682778
 30
0.0000000000000169
 11
51.0000000000020393
 21
-194.9999999999992042
 31
0.0000000000000433
210
0.0
220
1.0
230
-0.0000000000000002
  0
LINE
  5
D96
  8
0
  6
AUSGEZOGEN
 62
     3
 10
-50.9999999999979465
 20
-76.0339925198682778
 30
0.0000000000000169
 11
-50.9999999999979465
 21
-194.9999999999992042
 31
0.0000000000000433
210
0.0
220
1.0
230
-0.0000000000000002
  0
LINE
  5
D97
  8
0
  6
AUSGEZOGEN
 62
     3
 10
221.4832229896686044
 20
20.4469184618824613
 30
-0.0000000000000045
 11
295.6855793513354911
 21
16.5581377473985896
 31
-0.0000000000000037
210
0.0
220
1.0
230
-0.0000000000000002
  0
LINE
  5
D98
  8
0
  6
AUSGEZOGEN
 62
     3
 10
216.1449554528905992
 20
-81.4132940830844234
 30
0.0000000000000181
 11
290.3473118145553258
 21
-85.3020747975681957
 31
0.0000000000000189
210
0.0
220
1.0
230
-0.0000000000000002
  0
LINE
  5
D99
  8
0
  6
AUSGEZOGEN
 62
     3
 10
302.3858118660024843
 20
-84.8816811122453743
 30
0.0000000000000188
 11
290.3473118145553258
 21
-85.3020747975683662
 31
0.0000000000000189
210
0.0
220
1.0
230
-0.0000000000000002
  0
LINE
  5
D9A
  8
0
  6
AUSGEZOGEN
 62
     3
 10
307.6141881339979136
 20
14.8816811122451291
 30
-0.0000000000000033
 11
295.6855793513354911
 21
16.5581377473988205
 31
-0.0000000000000037
210
0.0
220
1.0
230
-0.0000000000000002
  0
LINE
  5
D9B
  8
0
  6
VERDECKT
 62
     1
 10
53.5000000000000071
 20
-0.0000000000000004
 30
0.0
 11
54.845079101843119
 21
-2.8845314425353141
 31
0.0000000000000006
210
0.0
220
1.0
230
-0.0000000000000002
  0
LINE
  5
D9C
  8
0
  6
VERDECKT
 62
     1
 10
-53.5000000000000071
 20
0.0000000000000051
 30
0.0
 11
-54.845079101843119
 21
-2.8845314425353141
 31
0.0000000000000006
210
0.0
220
1.0
230
-0.0000000000000002
  0
ARC
  5
D9D
  8
0
  6
VERDECKT
 62
     1
 10
33.9999999999973213
 20
-12.6047514625710502
 30
0.0
 40
23.0000000000024514
210
0.0
220
-0.0000000000000002
230
-1.0
 50
360.0
 51
24.9999999999961915
  0
ARC
  5
D9E
  8
0
  6
VERDECKT
 62
     1
 10
-33.9999999999974634
 20
-12.6047514625710306
 30
0.0
 40
23.0000000000023199
210
0.0
220
-0.0000000000000002
230
-1.0
 50
155.0000000000036948
 51
180.0
  0
LINE
  5
D9F
  8
0
  6
VERDECKT
 62
     1
 10
57.0
 20
-12.6047514625710697
 30
0.0000000000000028
 11
57.0
 21
-27.7667994693184212
 31
0.0000000000000062
210
0.0
220
1.0
230
-0.0000000000000002
  0
LINE
  5
DA0
  8
0
  6
VERDECKT
 62
     1
 10
-57.0
 20
-12.6047514625710697
 30
0.0000000000000028
 11
-57.0
 21
-27.7667994693184212
 31
0.0000000000000062
210
0.0
220
1.0
230
-0.0000000000000002
  0
ARC
  5
DA1
  8
0
  6
VERDECKT
 62
     1
 10
33.9999999999993108
 20
-27.7667994693183715
 30
0.0
 40
23.0000000000006892
210
0.0
220
-0.0000000000000002
230
-1.0
 50
333.1119523822765132
 51
359.9999999999997726
  0
ARC
  5
DA2
  8
0
  6
VERDECKT
 62
     1
 10
-33.9999999999991118
 20
-27.7667994693183111
 30
0.0
 40
23.0000000000008917
210
0.0
220
-0.0000000000000002
230
-1.0
 50
180.000000000000199
 51
206.8880476177232879
  0
ARC
  5
DA3
  8
0
  6
VERDECKT
 62
     1
 10
66.9999999999980247
 20
-44.4999999999995666
 30
0.0
 40
13.9999999999980194
210
0.0
220
-0.0000000000000002
230
-1.0
 50
153.1119523822736994
 51
180.0000000000017053
  0
ARC
  5
DA4
  8
0
  6
VERDECKT
 62
     1
 10
-66.9999999999980815
 20
-44.4999999999995879
 30
0.0
 40
13.9999999999980798
210
0.0
220
-0.0000000000000002
230
-1.0
 50
359.9999999999982947
 51
26.8880476177261905
  0
LINE
  5
DA5
  8
0
  6
VERDECKT
 62
     1
 10
53.0
 20
-44.5000000000000071
 30
0.0000000000000099
 11
53.0
 21
-63.0725111230525073
 31
0.000000000000014
210
0.0
220
1.0
230
-0.0000000000000002
  0
LINE
  5
DA6
  8
0
  6
VERDECKT
 62
     1
 10
-53.0
 20
-44.5000000000000071
 30
0.0000000000000099
 11
-53.0
 21
-63.0725111230525073
 31
0.000000000000014
210
0.0
220
1.0
230
-0.0000000000000002
  0
ARC
  5
DA7
  8
0
  6
VERDECKT
 62
     1
 10
40.0000000000004476
 20
-63.072511123052621
 30
0.0
 40
12.9999999999995595
210
0.0
220
-0.0000000000000002
230
-1.0
 50
325.6988472432071831
 51
0.0000000000005025
  0
ARC
  5
DA8
  8
0
  6
VERDECKT
 62
     1
 10
-40.0000000000004476
 20
-63.072511123052621
 30
0.0
 40
12.9999999999995595
210
0.0
220
-0.0000000000000002
230
-1.0
 50
179.9999999999994884
 51
214.3011527567927885
  0
ARC
  5
DA9
  8
0
  6
VERDECKT
 62
     1
 10
59.000000000001549
 20
-76.0339925198686615
 30
0.0
 40
10.0000000000015508
210
0.0
220
-0.0000000000000002
230
-1.0
 50
145.6988472432121
 51
179.9999999999974136
  0
ARC
  5
DAA
  8
0
  6
VERDECKT
 62
     1
 10
-59.0000000000015419
 20
-76.0339925198686615
 30
0.0
 40
10.0000000000015401
210
0.0
220
-0.0000000000000002
230
-1.0
 50
0.0000000000025317
 51
34.3011527567878076
  0
ARC
  5
DAB
  8
0
  6
VERDECKT
 62
     1
 10
-215.1505722842757962
 20
-100.3872552434206966
 30
0.0
 40
118.9999999999993037
210
0.0
220
-0.0000000000000002
230
-1.0
 50
2.9999999999994951
 51
92.9999999999994884
  0
ARC
  5
DAC
  8
0
  6
VERDECKT
 62
     1
 10
215.1505722842757109
 20
-100.3872552434205971
 30
0.0000000000000223
 40
20.9999999999992113
 50
87.0000000000030553
 51
176.9999999999940883
  0
LINE
  5
DAD
  8
0
  6
VERDECKT
 62
     1
 10
90.9712202298481145
 20
-196.0990550811006869
 30
0.0000000000000435
 11
96.3136576484821916
 21
-94.1592764505114559
 31
0.0000000000000209
210
0.0
220
1.0
230
-0.0000000000000002
  0
LINE
  5
DAE
  8
0
  6
VERDECKT
 62
     1
 10
188.8369146357964894
 20
-201.2279787929059864
 30
0.0000000000000447
 11
194.1793520544306091
 21
-99.288200162316727
 31
0.000000000000022
210
0.0
220
1.0
230
-0.0000000000000002
  0
ARC
  5
DAF
  8
0
  6
VERDECKT
 62
     1
 10
-70.0000000000020179
 20
-194.9999999999992895
 30
0.0
 40
119.0
210
0.0
220
-0.0000000000000002
230
-1.0
 50
182.9999999999980957
 51
0.0000000000000369
  0
ARC
  5
DB0
  8
0
  6
VERDECKT
 62
     1
 10
70.0000000000020464
 20
-194.9999999999992895
 30
0.0000000000000433
 40
21.0
 50
179.9999999999994884
 51
357.0000000000014211
  0
LINE
  5
DB1
  8
0
  6
VERDECKT
 62
     1
 10
49.0000000000020393
 20
-76.0339925198682209
 30
0.0000000000000169
 11
49.0000000000020393
 21
-194.9999999999992042
 31
0.0000000000000433
210
0.0
220
1.0
230
-0.0000000000000002
  0
LINE
  5
DB2
  8
0
  6
VERDECKT
 62
     1
 10
-48.9999999999979607
 20
-76.0339925198682209
 30
0.0000000000000169
 11
-48.9999999999979607
 21
-194.9999999999992042
 31
0.0000000000000433
210
0.0
220
1.0
230
-0.0000000000000002
  0
LINE
  5
DB3
  8
0
  6
VERDECKT
 62
     1
 10
221.3785510771849943
 20
18.4496593923733805
 30
-0.0000000000000041
 11
295.4937052246427811
 21
14.5654487522848193
 31
-0.0000000000000032
210
0.0
220
1.0
230
-0.0000000000000002
  0
LINE
  5
DB4
  8
0
  6
VERDECKT
 62
     1
 10
216.2496273653763978
 20
-79.416035013575538
 30
0.0000000000000176
 11
290.3647815128343268
 21
-83.3002456536641063
 31
0.0000000000000185
210
0.0
220
1.0
230
-0.0000000000000002
  0
LINE
  5
DB5
  8
0
  6
VERDECKT
 62
     1
 10
302.490883608189506
 20
-82.8767928375588241
 30
0.0000000000000184
 11
290.3647815128343268
 21
-83.3002456536641063
 31
0.0000000000000185
210
0.0
220
1.0
230
-0.0000000000000002
  0
LINE
  5
DB6
  8
0
  6
VERDECKT
 62
     1
 10
307.509116391810494
 20
12.8767928375586607
 30
-0.0000000000000029
 11
295.4937052246427811
 21
14.5654487522848406
 31
-0.0000000000000032
210
0.0
220
1.0
230
-0.0000000000000002
  0
ENDBLK
  5
DB8
  8
0
  0
ENDSEC
  0
SECTION
  2
ENTITIES
  0
TEXT
  5
314
  8
VOLL
 10
421.388162674505395
 20
174.3046634717333063
 30
0.0
 40
1.8
  1

  7
GREEKS
  0
TEXT
  5
315
  8
TEXT
 10
753.2204308780983411
 20
179.8628990049589049
 30
0.0
 40
2.5
  1
  
  7
GREEKS
 72
     1
 11
755.4823356400030434
 21
179.8628990049589049
 31
0.0
  0
TEXT
  5
316
  8
BEM
 10
997.3401481905804076
 20
315.4217810353611071
 30
0.0
 40
2.5
  1
 
 72
     4
 11
998.4711005715327019
 21
315.4217810353611071
 31
0.0
  0
TEXT
  5
32C
  8
BEM
 10
535.877181052672654
 20
237.2435895725068917
 30
0.0
 40
2.5
  1

  7
GREEKS
  0
TEXT
  5
32D
  8
VOLL
 10
521.8109880329512862
 20
217.0603289154718993
 30
0.0
 40
1.8
  1

  7
GREEKS
  0
TEXT
  5
32E
  8
BEM
 10
556.2990528722358476
 20
221.7860532386924035
 30
0.0
 40
2.5
  1

 41
0.8
  7
GREEKS
  0
TEXT
  5
32F
  8
BEM
 10
556.2990528722358476
 20
217.0922846846403047
 30
0.0
 40
2.5
  1

 41
0.8
  7
GREEKS
  0
TEXT
  5
330
  8
BEM
 10
556.2990528722358476
 20
211.8544408659768123
 30
0.0
 40
2.5
  1

 41
0.8
  7
GREEKS
  0
TEXT
  5
331
  8
BEM
 10
556.2261083948615124
 20
207.3492519158791936
 30
0.0
 40
1.8
  1

 41
0.8
  7
GREEKS
  0
TEXT
  5
332
  8
BEM
 10
543.5425375152502738
 20
232.9408410121044994
 30
0.0
 40
2.0
  1

 41
0.8
  7
GREEKS
 72
     1
 11
543.5425375152502738
 21
232.9408410121044994
 31
0.0
  0
TEXT
  5
333
  8
TEXT
 10
853.6432562365441754
 20
222.6185644486974127
 30
0.0
 40
2.5
  1
  
  7
GREEKS
 72
     1
 11
855.9051609984488778
 21
222.6185644486974127
 31
0.0
  0
TEXT
  5
334
  8
BEM
 10
1097.7629735490259009
 20
358.1774464790996149
 30
0.0
 40
2.5
  1
 
 72
     4
 11
1098.8939259299791047
 21
358.1774464790996149
 31
0.0
  0
TEXT
  5
3C0
  8
VOLL
 10
487.7304587180743738
 20
718.0852660065393138
 30
0.0
 40
1.8
  1

  7
GREEKS
  0
TEXT
  5
3C1
  8
TEXT
 10
819.5627269216674904
 20
723.6435015397647703
 30
0.0
 40
2.5
  1
  
  7
GREEKS
 72
     1
 11
821.8246316835721927
 21
723.6435015397647703
 31
0.0
  0
TEXT
  5
3C2
  8
BEM
 10
1063.6824442341489885
 20
859.2023835701669441
 30
0.0
 40
2.5
  1
 
 72
     4
 11
1064.8133966151019649
 21
859.2023835701669441
 31
0.0
  0
TEXT
  5
3C3
  8
BEM
 10
642.8700608748704326
 20
738.4186768962158567
 30
0.0
 40
2.5
  1

  7
GREEKS
  0
TEXT
  5
3C4
  8
VOLL
 10
628.8038678551489511
 20
718.2354162391807222
 30
0.0
 40
1.8
  1

  7
GREEKS
  0
TEXT
  5
3C5
  8
BEM
 10
663.2919326944336262
 20
722.9611405624012832
 30
0.0
 40
2.5
  1

 41
0.8
  7
GREEKS
  0
TEXT
  5
3C6
  8
BEM
 10
663.2919326944336262
 20
718.2673720083490707
 30
0.0
 40
2.5
  1

 41
0.8
  7
GREEKS
  0
TEXT
  5
3C7
  8
BEM
 10
663.2919326944336262
 20
713.0295281896857205
 30
0.0
 40
2.5
  1

 41
0.8
  7
GREEKS
  0
TEXT
  5
3C8
  8
BEM
 10
663.2189882170591773
 20
708.5243392395881301
 30
0.0
 40
1.8
  1

 41
0.8
  7
GREEKS
  0
TEXT
  5
3C9
  8
BEM
 10
650.5354173374479387
 20
734.1159283358133507
 30
0.0
 40
2.0
  1

 41
0.8
  7
GREEKS
 72
     1
 11
650.5354173374479387
 21
734.1159283358133507
 31
0.0
  0
TEXT
  5
3CA
  8
TEXT
 10
960.636136058741954
 20
723.7936517724062924
 30
0.0
 40
2.5
  1
  
  7
GREEKS
 72
     1
 11
962.89804082064677
 21
723.7936517724062924
 31
0.0
  0
TEXT
  5
3CB
  8
BEM
 10
1204.7558533712240205
 20
859.3525338028084661
 30
0.0
 40
2.5
  1
 
 72
     4
 11
1205.8868057521760875
 21
859.3525338028084661
 31
0.0
  0
TEXT
  5
3D0
  8
VOLL
 10
583.6220073704930655
 20
875.0295223152586459
 30
0.0
 40
1.8
  1

  7
GREEKS
  0
TEXT
  5
3D1
  8
TEXT
 10
915.4542755740860684
 20
880.5877578484842161
 30
0.0
 40
2.5
  1
  
  7
GREEKS
 72
     1
 11
917.7161803359907708
 21
880.5877578484842161
 31
0.0
  0
TEXT
  5
3D2
  8
BEM
 10
1159.5739928865680213
 20
1016.1466398788860488
 30
0.0
 40
2.5
  1
 
 72
     4
 11
1160.7049452675200882
 21
1016.1466398788860488
 31
0.0
  0
TEXT
  5
3D3
  8
VOLL
 10
741.156724447654824
 20
880.5850779503298327
 30
0.0
 40
1.8
  1

  7
GREEKS
  0
TEXT
  5
3D4
  8
BEM
 10
775.6447892869393854
 20
885.3108022735503937
 30
0.0
 40
2.5
  1

 41
0.8
  7
GREEKS
  0
TEXT
  5
3D5
  8
BEM
 10
775.6447892869393854
 20
880.6170337194981812
 30
0.0
 40
2.5
  1

 41
0.8
  7
GREEKS
  0
TEXT
  5
3D6
  8
BEM
 10
775.6447892869393854
 20
875.379189900834831
 30
0.0
 40
2.5
  1

 41
0.8
  7
GREEKS
  0
TEXT
  5
3D7
  8
BEM
 10
775.5718448095649364
 20
870.8740009507371269
 30
0.0
 40
1.8
  1

 41
0.8
  7
GREEKS
  0
TEXT
  5
3D8
  8
TEXT
 10
1072.9889926512469174
 20
886.1433134835554029
 30
0.0
 40
2.5
  1
  
  7
GREEKS
 72
     1
 11
1075.2508974131519608
 21
886.1433134835554029
 31
0.0
  0
TEXT
  5
3D9
  8
BEM
 10
1317.1087099637290976
 20
1021.7021955139570082
 30
0.0
 40
2.5
  1
 
 72
     4
 11
1318.239662344682074
 21
1021.7021955139570082
 31
0.0
  0
TEXT
  5
3DC
  8
VOLL
 10
582.729612564292097
 20
897.157541983345368
 30
0.0
 40
1.8
  1

  7
GREEKS
  0
TEXT
  5
3DD
  8
TEXT
 10
914.5618807678849862
 20
902.7157775165710518
 30
0.0
 40
2.5
  1
  
  7
GREEKS
 72
     1
 11
916.8237855297896886
 21
902.7157775165710518
 31
0.0
  0
TEXT
  5
3DE
  8
BEM
 10
1158.681598080366939
 20
1038.2746595469729982
 30
0.0
 40
2.5
  1
 
 72
     4
 11
1159.812550461319006
 21
1038.2746595469729982
 31
0.0
  0
TEXT
  5
3DF
  8
BEM
 10
748.0752256439419625
 20
937.3107726819310983
 30
0.0
 40
2.5
  1

  7
GREEKS
  0
TEXT
  5
3E0
  8
VOLL
 10
734.009032624220481
 20
917.1275120248959638
 30
0.0
 40
1.8
  1

  7
GREEKS
  0
TEXT
  5
3E1
  8
BEM
 10
768.4970974635051562
 20
921.8532363481166385
 30
0.0
 40
2.5
  1

 41
0.8
  7
GREEKS
  0
TEXT
  5
3E2
  8
BEM
 10
768.4970974635051562
 20
917.159467794064426
 30
0.0
 40
2.5
  1

 41
0.8
  7
GREEKS
  0
TEXT
  5
3E3
  8
BEM
 10
768.4970974635051562
 20
911.9216239754009621
 30
0.0
 40
2.5
  1

 41
0.8
  7
GREEKS
  0
TEXT
  5
3E4
  8
BEM
 10
768.4241529861308209
 20
907.416435025303258
 30
0.0
 40
1.8
  1

 41
0.8
  7
GREEKS
  0
TEXT
  5
3E5
  8
BEM
 10
755.7405821065194687
 20
933.0080241215285923
 30
0.0
 40
2.0
  1

 41
0.8
  7
GREEKS
 72
     1
 11
755.7405821065194687
 21
933.0080241215285923
 31
0.0
  0
TEXT
  5
3E6
  8
TEXT
 10
1065.8413008278130292
 20
922.6857475581216477
 30
0.0
 40
2.5
  1
  
  7
GREEKS
 72
     1
 11
1068.1032055897180726
 21
922.6857475581216477
 31
0.0
  0
TEXT
  5
3E7
  8
BEM
 10
1309.9610181402958915
 20
1058.2446295885240488
 30
0.0
 40
2.5
  1
 
 72
     4
 11
1311.0919705212479585
 21
1058.2446295885240488
 31
0.0
  0
TEXT
  5
3E8
  8
VOLL
 10
535.2274952054301593
 20
943.9290125399834324
 30
0.0
 40
1.8
  1

  7
GREEKS
  0
TEXT
  5
3E9
  8
TEXT
 10
867.0597634090230486
 20
949.4872480732088889
 30
0.0
 40
2.5
  1
  
  7
GREEKS
 72
     1
 11
869.3216681709279783
 21
949.4872480732088889
 31
0.0
  0
TEXT
  5
3EA
  8
BEM
 10
1111.1794807215048877
 20
1085.0461301036109489
 30
0.0
 40
2.5
  1
 
 72
     4
 11
1112.3104331024569547
 21
1085.0461301036109489
 31
0.0
  0
TEXT
  5
3EB
  8
VOLL
 10
692.7622122825916904
 20
949.4845681750545054
 30
0.0
 40
1.8
  1

  7
GREEKS
  0
TEXT
  5
3EC
  8
BEM
 10
727.2502771218763655
 20
954.2102924982752938
 30
0.0
 40
2.5
  1

 41
0.8
  7
GREEKS
  0
TEXT
  5
3ED
  8
BEM
 10
727.2502771218763655
 20
949.5165239442230813
 30
0.0
 40
2.5
  1

 41
0.8
  7
GREEKS
  0
TEXT
  5
3EE
  8
BEM
 10
727.2502771218763655
 20
944.2786801255596174
 30
0.0
 40
2.5
  1

 41
0.8
  7
GREEKS
  0
TEXT
  5
3EF
  8
BEM
 10
727.1773326445020302
 20
939.7734911754620271
 30
0.0
 40
1.8
  1

 41
0.8
  7
GREEKS
  0
TEXT
  5
3F0
  8
TEXT
 10
1024.5944804861849207
 20
955.0428037082801893
 30
0.0
 40
2.5
  1
  
  7
GREEKS
 72
     1
 11
1026.8563852480890546
 21
955.0428037082801893
 31
0.0
  0
TEXT
  5
3F1
  8
BEM
 10
1268.7141977986671009
 20
1090.6016857386819083
 30
0.0
 40
2.5
  1
 
 72
     4
 11
1269.8451501796189405
 21
1090.6016857386819083
 31
0.0
  0
TEXT
  5
3F2
  8
VOLL
 10
535.9472242482787578
 20
918.024813704834969
 30
0.0
 40
1.8
  1

  7
GREEKS
  0
TEXT
  5
3F3
  8
TEXT
 10
867.7794924518717607
 20
923.5830492380606529
 30
0.0
 40
2.5
  1
  
  7
GREEKS
 72
     1
 11
870.0413972137764631
 21
923.5830492380606529
 31
0.0
  0
TEXT
  5
3F4
  8
BEM
 10
1111.8992097643540546
 20
1059.1419312684629404
 30
0.0
 40
2.5
  1
 
 72
     4
 11
1113.0301621453058942
 21
1059.1419312684629404
 31
0.0
  0
TEXT
  5
3F5
  8
VOLL
 10
693.4819413254404026
 20
923.5803693399062695
 30
0.0
 40
1.8
  1

  7
GREEKS
  0
TEXT
  5
3F6
  8
BEM
 10
727.970006164724964
 20
928.3060936631269442
 30
0.0
 40
2.5
  1

 41
0.8
  7
GREEKS
  0
TEXT
  5
3F7
  8
BEM
 10
727.970006164724964
 20
923.6123251090747317
 30
0.0
 40
2.5
  1

 41
0.8
  7
GREEKS
  0
TEXT
  5
3F8
  8
BEM
 10
727.970006164724964
 20
918.3744812904111541
 30
0.0
 40
2.5
  1

 41
0.8
  7
GREEKS
  0
TEXT
  5
3F9
  8
BEM
 10
727.8970616873506287
 20
913.8692923403136774
 30
0.0
 40
1.8
  1

 41
0.8
  7
GREEKS
  0
TEXT
  5
3FA
  8
TEXT
 10
1025.3142095290329507
 20
929.1386048731318397
 30
0.0
 40
2.5
  1
  
  7
GREEKS
 72
     1
 11
1027.5761142909379942
 21
929.1386048731318397
 31
0.0
  0
TEXT
  5
3FB
  8
BEM
 10
1269.4339268415149036
 20
1064.6974869035338997
 30
0.0
 40
2.5
  1
 
 72
     4
 11
1270.5648792224669705
 21
1064.6974869035338997
 31
0.0
  0
TEXT
  5
3FC
  8
BEM
 10
550.0134172680002393
 20
938.2080743618702172
 30
0.0
 40
2.5
  1

  7
GREEKS
  0
TEXT
  5
3FD
  8
VOLL
 10
535.9472242482787578
 20
918.024813704834969
 30
0.0
 40
1.8
  1

  7
GREEKS
  0
TEXT
  5
3FE
  8
BEM
 10
570.435289087563433
 20
922.7505380280556437
 30
0.0
 40
2.5
  1

 41
0.8
  7
GREEKS
  0
TEXT
  5
3FF
  8
BEM
 10
570.435289087563433
 20
918.0567694740035449
 30
0.0
 40
2.5
  1

 41
0.8
  7
GREEKS
  0
TEXT
  5
400
  8
BEM
 10
570.435289087563433
 20
912.818925655340081
 30
0.0
 40
2.5
  1

 41
0.8
  7
GREEKS
  0
TEXT
  5
401
  8
BEM
 10
557.6787737305777455
 20
933.9053258014677112
 30
0.0
 40
2.0
  1

 41
0.8
  7
GREEKS
 72
     1
 11
557.6787737305777455
 21
933.9053258014677112
 31
0.0
  0
TEXT
  5
402
  8
TEXT
 10
867.7794924518717607
 20
923.5830492380606529
 30
0.0
 40
2.5
  1
  
  7
GREEKS
 72
     1
 11
870.0413972137764631
 21
923.5830492380606529
 31
0.0
  0
TEXT
  5
403
  8
BEM
 10
1111.8992097643540546
 20
1059.1419312684629404
 30
0.0
 40
2.5
  1
 
 72
     4
 11
1113.0301621453058942
 21
1059.1419312684629404
 31
0.0
  0
TEXT
  5
404
  8
VOLL
 10
566.1758440479196679
 20
910.8292029172939692
 30
0.0
 40
1.8
  1

  7
GREEKS
  0
TEXT
  5
405
  8
TEXT
 10
898.0081122515127845
 20
916.387438450519312
 30
0.0
 40
2.5
  1
  
  7
GREEKS
 72
     1
 11
900.2700170134176005
 21
916.387438450519312
 31
0.0
  0
TEXT
  5
406
  8
BEM
 10
1142.1278295639949647
 20
1051.946320480921031
 30
0.0
 40
2.5
  1
 
 72
     4
 11
1143.2587819449470317
 21
1051.946320480921031
 31
0.0
  0
TEXT
  5
407
  8
BEM
 10
680.6648624260872111
 20
973.7681290180673841
 30
0.0
 40
2.5
  1

  7
GREEKS
  0
TEXT
  5
408
  8
VOLL
 10
666.5986694063657296
 20
953.584868361032477
 30
0.0
 40
1.8
  1

  7
GREEKS
  0
TEXT
  5
409
  8
BEM
 10
701.0867342456502911
 20
958.3105926842531517
 30
0.0
 40
2.5
  1

 41
0.8
  7
GREEKS
  0
TEXT
  5
40A
  8
BEM
 10
701.0867342456502911
 20
953.6168241302007118
 30
0.0
 40
2.5
  1

 41
0.8
  7
GREEKS
  0
TEXT
  5
40B
  8
BEM
 10
701.0867342456502911
 20
948.3789803115372479
 30
0.0
 40
2.5
  1

 41
0.8
  7
GREEKS
  0
TEXT
  5
40C
  8
BEM
 10
701.0137897682759558
 20
943.8737913614397712
 30
0.0
 40
1.8
  1

 41
0.8
  7
GREEKS
  0
TEXT
  5
40D
  8
BEM
 10
688.3302188886647173
 20
969.4653804576648781
 30
0.0
 40
2.0
  1

 41
0.8
  7
GREEKS
 72
     1
 11
688.3302188886647173
 21
969.4653804576648781
 31
0.0
  0
TEXT
  5
40E
  8
TEXT
 10
998.4309376099586189
 20
959.1431038942578198
 30
0.0
 40
2.5
  1
  
  7
GREEKS
 72
     1
 11
1000.6928423718629801
 21
959.1431038942578198
 31
0.0
  0
TEXT
  5
40F
  8
BEM
 10
1242.5506549224410264
 20
1094.7019859246599935
 30
0.0
 40
2.5
  1
 
 72
     4
 11
1243.6816073033930934
 21
1094.7019859246599935
 31
0.0
  0
TEXT
  5
7F4
  8
VOLL
 10
139.6113840760147866
 20
353.6196229563482802
 30
0.0
 40
1.8
  1

  7
GREEKS
  0
INSERT
  5
D7A
  8
0
  2
A$C75AC76DC
 10
0.0
 20
-0.000000000000028
 30
-38.168518718120481
  0
INSERT
  5
DB9
  8
0
  2
A$C56064F69
 10
0.0
 20
416.3283984683955055
 30
-39.0730160441033334
  0
VIEWPORT
  5
B1D
 67
     1
  8
0
 10
6.9443500821166859
 20
4.3941727136927327
 30
0.0
 40
17.2149675178266612
 41
9.1440245237262285
 68
     1
 69
     1
1001
ACAD
1000
MVIEW
1002
{
1070
    16
1010
0.0
1020
0.0
1030
0.0
1010
0.0
1020
0.0
1030
1.0
1040
0.0
1040
9.1440245237262285
1040
6.9443500821166859
1040
4.3941727136927327
1040
50.0
1040
0.0
1040
0.0
1070
     0
1070
  1500
1070
     1
1070
     1
1070
     0
1070
     0
1070
     0
1070
     0
1040
0.0
1040
0.0
1040
0.0
1040
10.0
1040
10.0
1040
10.0
1040
10.0
1070
     0
1002
{
1002
}
1002
}
  0
ENDSEC
  0
EOF
