  0
SECTION
  2
HEADER
  9
$ACADVER
  1
AC1009
  9
$INSBASE
 10
214.1896305907800127
 20
83.9878893283155321
 30
0.0
  9
$EXTMIN
 10
-43.6640829313271297
 20
-443.2363328807402922
 30
-19.6352072499348616
  9
$EXTMAX
 10
221.8919452776258083
 20
-34.8627138407464372
 30
-19.6154855659822189
  9
$LIMMIN
 10
0.0
 20
0.0
  9
$LIMMAX
 10
420.0
 20
594.0
  9
$ORTHOMODE
 70
     1
  9
$REGENMODE
 70
     1
  9
$FILLMODE
 70
     1
  9
$QTEXTMODE
 70
     0
  9
$MIRRTEXT
 70
     1
  9
$DRAGMODE
 70
     2
  9
$LTSCALE
 40
20.0
  9
$OSMODE
 70
  1327
  9
$ATTMODE
 70
     1
  9
$TEXTSIZE
 40
3.5
  9
$TRACEWID
 40
1.0
  9
$TEXTSTYLE
  7
STANDARD
  9
$CLAYER
  8
0
  9
$CELTYPE
  6
BYLAYER
  9
$CECOLOR
 62
   256
  9
$DIMSCALE
 40
2.0
  9
$DIMASZ
 40
3.5
  9
$DIMEXO
 40
1.0
  9
$DIMDLI
 40
7.0
  9
$DIMRND
 40
0.0
  9
$DIMDLE
 40
0.0
  9
$DIMEXE
 40
1.0
  9
$DIMTP
 40
0.7
  9
$DIMTM
 40
0.7
  9
$DIMTXT
 40
3.5
  9
$DIMCEN
 40
1.5
  9
$DIMTSZ
 40
0.0
  9
$DIMTOL
 70
     0
  9
$DIMLIM
 70
     0
  9
$DIMTIH
 70
     0
  9
$DIMTOH
 70
     0
  9
$DIMSE1
 70
     0
  9
$DIMSE2
 70
     0
  9
$DIMTAD
 70
     1
  9
$DIMZIN
 70
     8
  9
$DIMBLK
  1

  9
$DIMASO
 70
     1
  9
$DIMSHO
 70
     0
  9
$DIMPOST
  1

  9
$DIMAPOST
  1

  9
$DIMALT
 70
     0
  9
$DIMALTD
 70
     2
  9
$DIMALTF
 40
25.3999999999999986
  9
$DIMLFAC
 40
1.0
  9
$DIMTOFL
 70
     1
  9
$DIMTVP
 40
0.2857142857142857
  9
$DIMTIX
 70
     0
  9
$DIMSOXD
 70
     0
  9
$DIMSAH
 70
     0
  9
$DIMBLK1
  1

  9
$DIMBLK2
  1

  9
$DIMSTYLE
  2
STANDARD
  9
$DIMCLRD
 70
     0
  9
$DIMCLRE
 70
     0
  9
$DIMCLRT
 70
     1
  9
$DIMTFAC
 40
0.5
  9
$DIMGAP
 40
1.5
  9
$LUNITS
 70
     2
  9
$LUPREC
 70
     1
  9
$SKETCHINC
 40
1.0
  9
$FILLETRAD
 40
0.0
  9
$AUNITS
 70
     0
  9
$AUPREC
 70
     0
  9
$MENU
  1
ACAD
  9
$ELEVATION
 40
0.0
  9
$PELEVATION
 40
0.0
  9
$THICKNESS
 40
0.0
  9
$LIMCHECK
 70
     0
  9
$BLIPMODE
 70
     0
  9
$CHAMFERA
 40
0.0
  9
$CHAMFERB
 40
0.0
  9
$SKPOLY
 70
     0
  9
$TDCREATE
 40
2450058.6372453710064292
  9
$TDUPDATE
 40
2458388.4748495370149612
  9
$TDINDWG
 40
0.0913762037
  9
$TDUSRTIMER
 40
0.0913762037
  9
$USRTIMER
 70
     1
  9
$ANGBASE
 50
0.0
  9
$ANGDIR
 70
     0
  9
$PDMODE
 70
     0
  9
$PDSIZE
 40
0.0
  9
$PLINEWID
 40
0.0
  9
$COORDS
 70
     1
  9
$SPLFRAME
 70
     0
  9
$SPLINETYPE
 70
     6
  9
$SPLINESEGS
 70
     8
  9
$ATTDIA
 70
     0
  9
$ATTREQ
 70
     0
  9
$HANDLING
 70
     1
  9
$HANDSEED
  5
12F2
  9
$SURFTAB1
 70
     6
  9
$SURFTAB2
 70
     6
  9
$SURFTYPE
 70
     6
  9
$SURFU
 70
     6
  9
$SURFV
 70
     6
  9
$UCSNAME
  2

  9
$UCSORG
 10
0.0
 20
0.0
 30
0.0
  9
$UCSXDIR
 10
1.0
 20
0.0
 30
0.0
  9
$UCSYDIR
 10
0.0
 20
1.0
 30
0.0
  9
$PUCSNAME
  2

  9
$PUCSORG
 10
0.0
 20
0.0
 30
0.0
  9
$PUCSXDIR
 10
1.0
 20
0.0
 30
0.0
  9
$PUCSYDIR
 10
0.0
 20
1.0
 30
0.0
  9
$USERI1
 70
     0
  9
$USERI2
 70
     0
  9
$USERI3
 70
     0
  9
$USERI4
 70
     0
  9
$USERI5
 70
     0
  9
$USERR1
 40
0.0
  9
$USERR2
 40
0.0
  9
$USERR3
 40
0.0
  9
$USERR4
 40
0.0
  9
$USERR5
 40
0.0
  9
$WORLDVIEW
 70
     1
  9
$SHADEDGE
 70
     3
  9
$SHADEDIF
 70
    70
  9
$TILEMODE
 70
     1
  9
$MAXACTVP
 70
    16
  9
$PLIMCHECK
 70
     0
  9
$PEXTMIN
 10
-0.1487886689261089
 20
-0.1671860122965221
 30
-0.0000000000112498
  9
$PEXTMAX
 10
6.197494146005563
 20
8.6032585119738627
 30
0.0000000000002956
  9
$PLIMMIN
 10
-0.2500002402958907
 20
-0.2499999962453767
  9
$PLIMMAX
 10
10.7499995194082203
 20
8.2499997634587334
  9
$UNITMODE
 70
     0
  9
$VISRETAIN
 70
     0
  9
$PLINEGEN
 70
     0
  9
$PSLTSCALE
 70
     0
  0
ENDSEC
  0
SECTION
  2
TABLES
  0
TABLE
  2
VPORT
 70
     1
  0
VPORT
  2
*ACTIVE
 70
     0
 10
0.0
 20
0.0
 11
1.0
 21
1.0
 12
-0.7683045446240442
 22
-113.4143388819834968
 13
0.0
 23
0.0
 14
2.5
 24
2.5
 15
10.0
 25
10.0
 16
-0.0000000000002842
 26
0.0
 36
1290.8007109425609542
 17
89.8822357177733693
 27
-125.6351844787597969
 37
-129.2479553222626976
 40
411.4287832722133089
 41
1.8826466916354549
 42
50.0
 43
0.0
 44
0.0
 50
0.0
 51
0.0
 71
     0
 72
   500
 73
     1
 74
     0
 75
     0
 76
     0
 77
     0
 78
     0
  0
ENDTAB
  0
TABLE
  2
LTYPE
 70
     4
  0
LTYPE
  2
AUSGEZOGEN
 70
     0
  3
Ausgezogene Linie
 72
    65
 73
     0
 40
0.0
  0
LTYPE
  2
CONTINUOUS
 70
     0
  3
Solid Line
 72
    65
 73
     0
 40
0.0
  0
LTYPE
  2
VERDECKT
 70
     0
  3
Verdeckt __ __ __ __ __ __ __ __ __ __ __ __ __
 72
    65
 73
     2
 40
0.375
 49
0.25
 49
-0.125
  0
ENDTAB
  0
TABLE
  2
LAYER
 70
    10
  0
LAYER
  2
0
 70
     0
 62
     7
  6
AUSGEZOGEN
  0
LAYER
  2
VOLL
 70
     0
 62
     1
  6
AUSGEZOGEN
  0
LAYER
  2
BEM
 70
     0
 62
     7
  6
AUSGEZOGEN
  0
LAYER
  2
DEFPOINTS
 70
     0
 62
     7
  6
AUSGEZOGEN
  0
LAYER
  2
TEXT
 70
     0
 62
     7
  6
AUSGEZOGEN
  0
ENDTAB
  0
TABLE
  2
STYLE
 70
     5
  0
STYLE
  2
STANDARD
 70
     0
 40
0.0
 41
0.8
 50
0.0
 71
     0
 42
3.5
  3
simplex.shx
  4

  0
STYLE
  2
GREEKS
 70
     0
 40
0.0
 41
0.8
 50
0.0
 71
     0
 42
1.8
  3
SIMPLEX.shx
  4

  0
ENDTAB
  0
TABLE
  2
VIEW
 70
     2
  0
ENDTAB
  0
TABLE
  2
UCS
 70
     0
  0
ENDTAB
  0
TABLE
  2
APPID
 70
    11
  0
APPID
  2
ACAD
 70
     0
  0
APPID
  2
ACADANNOMONITORALERTICONDI
 70
     0
  0
APPID
  2
ACAD_EXEMPT_FROM_CAD_STANDARDS
 70
     0
  0
APPID
  2
ACAD_NAV_VCDISPLAY
 70
     0
  0
APPID
  2
GRADIENTCOLOR1ACI
 70
     0
  0
APPID
  2
GRADIENTCOLOR2ACI
 70
     0
  0
APPID
  2
ACAECLAYERSTANDARD
 70
     0
  0
APPID
  2
ACCMTRANSPARENCY
 70
     0
  0
APPID
  2
ACAD_PSEXT
 70
     0
  0
APPID
  2
ACAD_MLEADERVER
 70
     0
  0
APPID
  2
ACAD_OBJECT_CHANGE_GUID
 70
     0
  0
ENDTAB
  0
TABLE
  2
DIMSTYLE
 70
     3
  0
DIMSTYLE
  2
STANDARD
 70
     0
  3

  4

  5

  6

  7

 40
1.0
 41
0.18
 42
0.0625
 43
0.38
 44
0.18
 45
0.0
 46
0.0
 47
0.0
 48
0.0
140
0.18
141
0.09
142
0.0
143
25.3999999999999986
144
1.0
145
0.0
146
1.0
147
0.09
 71
     0
 72
     0
 73
     1
 74
     1
 75
     0
 76
     0
 77
     0
 78
     0
170
     0
171
     2
172
     0
173
     0
174
     0
175
     0
176
     0
177
     0
178
     0
  0
ENDTAB
  0
ENDSEC
  0
SECTION
  2
BLOCKS
  0
BLOCK
  8
0
  2
$MODEL_SPACE
 70
     0
 10
0.0
 20
0.0
 30
0.0
  3
$MODEL_SPACE
  1

  0
ENDBLK
  5
4E
  8
0
  0
BLOCK
 67
     1
  8
0
  2
$PAPER_SPACE
 70
     0
 10
0.0
 20
0.0
 30
0.0
  3
$PAPER_SPACE
  1

  0
ENDBLK
  5
4C
 67
     1
  8
0
  0
BLOCK
  8
0
  2
A$C65823C2D
 70
     0
 10
0.0
 20
0.0
 30
0.0
  3
A$C65823C2D
  1

  0
CIRCLE
  5
E2F
  8
0
  6
AUSGEZOGEN
 62
     3
 10
0.0
 20
-0.0000000000000267
 30
0.0
 40
37.9873223762320293
  0
CIRCLE
  5
E30
  8
0
  6
AUSGEZOGEN
 62
     3
 10
-0.0000000000000999
 20
-0.0000000000000304
 30
0.0
 40
34.9000001581801769
  0
CIRCLE
  5
E31
  8
0
  6
AUSGEZOGEN
 62
     3
 10
0.0
 20
-0.0000000000000267
 30
0.0
 40
39.7653973282765421
  0
CIRCLE
  5
E32
  8
0
  6
AUSGEZOGEN
 62
     3
 10
0.0000000000000024
 20
-0.0000000000000274
 30
0.0
 40
42.1000000000001009
  0
POLYLINE
  5
E33
  8
0
  6
AUSGEZOGEN
 62
     3
 10
210.0137046524536117
 20
36.4999999999999929
 30
-0.0000000000000497
 66
     1
 70
     8
  0
VERTEX
  8
0
  5
EE2
 10
210.014
 20
36.5000
 30
-4.97000e-14
  70
    32
  0
VERTEX
  8
0
  5
EE3
 10
210.014
 20
36.5000
 30
-4.97000e-14
  70
    32
  0
VERTEX
  8
0
  5
EE4
 10
210.014
 20
36.5000
 30
-4.97000e-14
  70
    32
  0
VERTEX
  8
0
  5
EE5
 10
210.014
 20
36.5000
 30
-4.97000e-14
  70
    32
  0
VERTEX
  8
0
  5
EE6
 10
210.014
 20
36.5000
 30
-4.97000e-14
  70
    32
  0
VERTEX
  8
0
  5
EE7
 10
210.014
 20
36.5000
 30
-4.97000e-14
  70
    32
  0
VERTEX
  8
0
  5
EE8
 10
210.014
 20
36.5000
 30
-4.97000e-14
  70
    32
  0
VERTEX
  8
0
  5
EE9
 10
210.014
 20
36.5000
 30
-4.97000e-14
  70
    32
  0
VERTEX
  8
0
  5
EEA
 10
210.014
 20
36.5000
 30
-4.97000e-14
  70
    32
  0
VERTEX
  8
0
  5
EEB
 10
210.014
 20
36.5000
 30
-4.97000e-14
  70
    32
  0
VERTEX
  8
0
  5
EEC
 10
210.014
 20
36.5000
 30
-4.97000e-14
  70
    32
  0
VERTEX
  8
0
  5
EED
 10
210.014
 20
36.5000
 30
-4.97000e-14
  70
    32
  0
VERTEX
  8
0
  5
EEE
 10
210.015
 20
36.5000
 30
-4.97000e-14
  70
    32
  0
VERTEX
  8
0
  5
EEF
 10
210.015
 20
36.5000
 30
-4.97000e-14
  70
    32
  0
VERTEX
  8
0
  5
EF0
 10
210.015
 20
36.5000
 30
-4.97000e-14
  70
    32
  0
VERTEX
  8
0
  5
EF1
 10
210.015
 20
36.5000
 30
-4.97000e-14
  70
    32
  0
VERTEX
  8
0
  5
EF2
 10
210.015
 20
36.5000
 30
-4.97000e-14
  70
    32
  0
VERTEX
  8
0
  5
EF3
 10
210.015
 20
36.5000
 30
-4.97000e-14
  70
    32
  0
VERTEX
  8
0
  5
EF4
 10
210.015
 20
36.5000
 30
-4.97000e-14
  70
    32
  0
VERTEX
  8
0
  5
EF5
 10
210.015
 20
36.5000
 30
-4.97000e-14
  70
    32
  0
VERTEX
  8
0
  5
EF6
 10
210.015
 20
36.5000
 30
-4.97000e-14
  70
    32
  0
VERTEX
  8
0
  5
EF7
 10
210.015
 20
36.5000
 30
-4.97000e-14
  70
    32
  0
VERTEX
  8
0
  5
EF8
 10
210.015
 20
36.5000
 30
-4.97000e-14
  70
    32
  0
VERTEX
  8
0
  5
EF9
 10
210.015
 20
36.5000
 30
-4.97000e-14
  70
    32
  0
VERTEX
  8
0
  5
EFA
 10
210.015
 20
36.5000
 30
-4.97000e-14
  70
    32
  0
VERTEX
  8
0
  5
EFB
 10
210.015
 20
36.5000
 30
-4.97000e-14
  70
    32
  0
VERTEX
  8
0
  5
EFC
 10
210.015
 20
36.5000
 30
-4.97000e-14
  70
    32
  0
VERTEX
  8
0
  5
EFD
 10
210.016
 20
36.5000
 30
-4.97000e-14
  70
    32
  0
VERTEX
  8
0
  5
EFE
 10
210.016
 20
36.5000
 30
-4.97000e-14
  70
    32
  0
VERTEX
  8
0
  5
EFF
 10
210.016
 20
36.5000
 30
-4.97000e-14
  70
    32
  0
VERTEX
  8
0
  5
F00
 10
210.016
 20
36.5000
 30
-4.97000e-14
  70
    32
  0
VERTEX
  8
0
  5
F01
 10
210.016
 20
36.5000
 30
-4.97000e-14
  70
    32
  0
VERTEX
  8
0
  5
F02
 10
210.016
 20
36.5000
 30
-4.97000e-14
  70
    32
  0
VERTEX
  8
0
  5
F03
 10
210.016
 20
36.5000
 30
-4.97000e-14
  70
    32
  0
VERTEX
  8
0
  5
F04
 10
210.016
 20
36.5000
 30
-4.97000e-14
  70
    32
  0
VERTEX
  8
0
  5
F05
 10
210.016
 20
36.5000
 30
-4.97000e-14
  70
    32
  0
VERTEX
  8
0
  5
F06
 10
210.016
 20
36.5000
 30
-4.97000e-14
  70
    32
  0
VERTEX
  8
0
  5
F07
 10
210.016
 20
36.5000
 30
-4.97000e-14
  70
    32
  0
VERTEX
  8
0
  5
F08
 10
210.016
 20
36.5000
 30
-4.97000e-14
  70
    32
  0
VERTEX
  8
0
  5
F09
 10
210.016
 20
36.5000
 30
-4.97000e-14
  70
    32
  0
VERTEX
  8
0
  5
F0A
 10
210.016
 20
36.5000
 30
-4.97000e-14
  70
    32
  0
VERTEX
  8
0
  5
F0B
 10
210.017
 20
36.5000
 30
-4.97000e-14
  70
    32
  0
VERTEX
  8
0
  5
F0C
 10
210.017
 20
36.5000
 30
-4.97000e-14
  70
    32
  0
VERTEX
  8
0
  5
F0D
 10
210.017
 20
36.5000
 30
-4.97000e-14
  70
    32
  0
VERTEX
  8
0
  5
F0E
 10
210.017
 20
36.5000
 30
-4.97000e-14
  70
    32
  0
VERTEX
  8
0
  5
F0F
 10
210.017
 20
36.5000
 30
-4.97000e-14
  70
    32
  0
VERTEX
  8
0
  5
F10
 10
210.017
 20
36.5000
 30
-4.97000e-14
  70
    32
  0
VERTEX
  8
0
  5
F11
 10
210.017
 20
36.4999
 30
-4.97000e-14
  70
    32
  0
VERTEX
  8
0
  5
F12
 10
210.017
 20
36.4999
 30
-4.97000e-14
  70
    32
  0
VERTEX
  8
0
  5
F13
 10
210.017
 20
36.4999
 30
-4.97000e-14
  70
    32
  0
VERTEX
  8
0
  5
F14
 10
210.017
 20
36.4999
 30
-4.97000e-14
  70
    32
  0
VERTEX
  8
0
  5
F15
 10
210.017
 20
36.4999
 30
-4.97000e-14
  70
    32
  0
VERTEX
  8
0
  5
F16
 10
210.017
 20
36.4999
 30
-4.97000e-14
  70
    32
  0
VERTEX
  8
0
  5
F17
 10
210.017
 20
36.4999
 30
-4.97000e-14
  70
    32
  0
VERTEX
  8
0
  5
F18
 10
210.017
 20
36.4999
 30
-4.97000e-14
  70
    32
  0
VERTEX
  8
0
  5
F19
 10
210.017
 20
36.4999
 30
-4.97000e-14
  70
    32
  0
VERTEX
  8
0
  5
F1A
 10
210.018
 20
36.4999
 30
-4.97000e-14
  70
    32
  0
VERTEX
  8
0
  5
F1B
 10
210.018
 20
36.4999
 30
-4.97000e-14
  70
    32
  0
VERTEX
  8
0
  5
F1C
 10
210.018
 20
36.4999
 30
-4.97000e-14
  70
    32
  0
VERTEX
  8
0
  5
F1D
 10
210.018
 20
36.4999
 30
-4.97000e-14
  70
    32
  0
VERTEX
  8
0
  5
F1E
 10
210.018
 20
36.4999
 30
-4.97000e-14
  70
    32
  0
VERTEX
  8
0
  5
F1F
 10
210.018
 20
36.4999
 30
-4.97000e-14
  70
    32
  0
VERTEX
  8
0
  5
F20
 10
210.018
 20
36.4999
 30
-4.97000e-14
  70
    32
  0
VERTEX
  8
0
  5
F21
 10
210.018
 20
36.4999
 30
-4.97000e-14
  70
    32
  0
VERTEX
  8
0
  5
F22
 10
210.018
 20
36.4999
 30
-4.97000e-14
  70
    32
  0
VERTEX
  8
0
  5
F23
 10
210.018
 20
36.4999
 30
-4.97000e-14
  70
    32
  0
VERTEX
  8
0
  5
F24
 10
210.018
 20
36.4999
 30
-4.97000e-14
  70
    32
  0
VERTEX
  8
0
  5
F25
 10
210.018
 20
36.4999
 30
-4.97000e-14
  70
    32
  0
VERTEX
  8
0
  5
F26
 10
210.018
 20
36.4999
 30
-4.97000e-14
  70
    32
  0
VERTEX
  8
0
  5
F27
 10
210.018
 20
36.4999
 30
-4.97000e-14
  70
    32
  0
VERTEX
  8
0
  5
F28
 10
210.018
 20
36.4999
 30
-4.97000e-14
  70
    32
  0
VERTEX
  8
0
  5
F29
 10
210.019
 20
36.4999
 30
-4.97000e-14
  70
    32
  0
VERTEX
  8
0
  5
F2A
 10
210.019
 20
36.4999
 30
-4.97000e-14
  70
    32
  0
VERTEX
  8
0
  5
F2B
 10
210.019
 20
36.4999
 30
-4.97000e-14
  70
    32
  0
VERTEX
  8
0
  5
F2C
 10
210.019
 20
36.4999
 30
-4.97000e-14
  70
    32
  0
VERTEX
  8
0
  5
F2D
 10
210.019
 20
36.4999
 30
-4.97000e-14
  70
    32
  0
VERTEX
  8
0
  5
F2E
 10
210.019
 20
36.4999
 30
-4.97000e-14
  70
    32
  0
VERTEX
  8
0
  5
F2F
 10
210.019
 20
36.4999
 30
-4.97000e-14
  70
    32
  0
VERTEX
  8
0
  5
F30
 10
210.019
 20
36.4999
 30
-4.97000e-14
  70
    32
  0
VERTEX
  8
0
  5
F31
 10
210.019
 20
36.4999
 30
-4.97000e-14
  70
    32
  0
VERTEX
  8
0
  5
F32
 10
210.019
 20
36.4999
 30
-4.97000e-14
  70
    32
  0
VERTEX
  8
0
  5
F33
 10
210.019
 20
36.4998
 30
-4.97000e-14
  70
    32
  0
VERTEX
  8
0
  5
F34
 10
210.019
 20
36.4998
 30
-4.97000e-14
  70
    32
  0
VERTEX
  8
0
  5
F35
 10
210.019
 20
36.4998
 30
-4.97000e-14
  70
    32
  0
VERTEX
  8
0
  5
F36
 10
210.019
 20
36.4998
 30
-4.97000e-14
  70
    32
  0
VERTEX
  8
0
  5
F37
 10
210.020
 20
36.4998
 30
-4.97000e-14
  70
    32
  0
VERTEX
  8
0
  5
F38
 10
210.020
 20
36.4998
 30
-4.97000e-14
  70
    32
  0
VERTEX
  8
0
  5
F39
 10
210.020
 20
36.4998
 30
-4.97000e-14
  70
    32
  0
VERTEX
  8
0
  5
F3A
 10
210.020
 20
36.4998
 30
-4.97000e-14
  70
    32
  0
VERTEX
  8
0
  5
F3B
 10
210.020
 20
36.4998
 30
-4.97000e-14
  70
    32
  0
VERTEX
  8
0
  5
F3C
 10
210.020
 20
36.4998
 30
-4.97000e-14
  70
    32
  0
VERTEX
  8
0
  5
F3D
 10
210.020
 20
36.4998
 30
-4.97000e-14
  70
    32
  0
VERTEX
  8
0
  5
F3E
 10
210.020
 20
36.4998
 30
-4.97000e-14
  70
    32
  0
VERTEX
  8
0
  5
F3F
 10
210.020
 20
36.4998
 30
-4.97000e-14
  70
    32
  0
VERTEX
  8
0
  5
F40
 10
210.020
 20
36.4998
 30
-4.97000e-14
  70
    32
  0
VERTEX
  8
0
  5
F41
 10
210.020
 20
36.4998
 30
-4.97000e-14
  70
    32
  0
VERTEX
  8
0
  5
F42
 10
210.020
 20
36.4998
 30
-4.97000e-14
  70
    32
  0
VERTEX
  8
0
  5
F43
 10
210.020
 20
36.4998
 30
-4.97000e-14
  70
    32
  0
VERTEX
  8
0
  5
F44
 10
210.020
 20
36.4998
 30
-4.97000e-14
  70
    32
  0
VERTEX
  8
0
  5
F45
 10
210.020
 20
36.4998
 30
-4.97000e-14
  70
    32
  0
VERTEX
  8
0
  5
F46
 10
210.021
 20
36.4998
 30
-4.97000e-14
  70
    32
  0
VERTEX
  8
0
  5
F47
 10
210.021
 20
36.4998
 30
-4.97000e-14
  70
    32
  0
VERTEX
  8
0
  5
F48
 10
210.021
 20
36.4998
 30
-4.97000e-14
  70
    32
  0
VERTEX
  8
0
  5
F49
 10
210.021
 20
36.4998
 30
-4.97000e-14
  70
    32
  0
VERTEX
  8
0
  5
F4A
 10
210.021
 20
36.4997
 30
-4.97000e-14
  70
    32
  0
VERTEX
  8
0
  5
F4B
 10
210.021
 20
36.4997
 30
-4.97000e-14
  70
    32
  0
VERTEX
  8
0
  5
F4C
 10
210.021
 20
36.4997
 30
-4.97000e-14
  70
    32
  0
VERTEX
  8
0
  5
F4D
 10
210.021
 20
36.4997
 30
-4.97000e-14
  70
    32
  0
VERTEX
  8
0
  5
F4E
 10
210.021
 20
36.4997
 30
-4.97000e-14
  70
    32
  0
VERTEX
  8
0
  5
F4F
 10
210.021
 20
36.4997
 30
-4.97000e-14
  70
    32
  0
VERTEX
  8
0
  5
F50
 10
210.021
 20
36.4997
 30
-4.97000e-14
  70
    32
  0
VERTEX
  8
0
  5
F51
 10
210.021
 20
36.4997
 30
-4.97000e-14
  70
    32
  0
VERTEX
  8
0
  5
F52
 10
210.021
 20
36.4997
 30
-4.97000e-14
  70
    32
  0
VERTEX
  8
0
  5
F53
 10
210.021
 20
36.4997
 30
-4.97000e-14
  70
    32
  0
VERTEX
  8
0
  5
F54
 10
210.022
 20
36.4997
 30
-4.97000e-14
  70
    32
  0
VERTEX
  8
0
  5
F55
 10
210.022
 20
36.4997
 30
-4.97000e-14
  70
    32
  0
VERTEX
  8
0
  5
F56
 10
210.022
 20
36.4997
 30
-4.97000e-14
  70
    32
  0
VERTEX
  8
0
  5
F57
 10
210.022
 20
36.4997
 30
-4.97000e-14
  70
    32
  0
VERTEX
  8
0
  5
F58
 10
210.022
 20
36.4997
 30
-4.97000e-14
  70
    32
  0
VERTEX
  8
0
  5
F59
 10
210.022
 20
36.4997
 30
-4.97000e-14
  70
    32
  0
VERTEX
  8
0
  5
F5A
 10
210.022
 20
36.4997
 30
-4.97000e-14
  70
    32
  0
VERTEX
  8
0
  5
F5B
 10
210.022
 20
36.4997
 30
-4.97000e-14
  70
    32
  0
VERTEX
  8
0
  5
F5C
 10
210.022
 20
36.4997
 30
-4.97000e-14
  70
    32
  0
VERTEX
  8
0
  5
F5D
 10
210.022
 20
36.4996
 30
-4.97000e-14
  70
    32
  0
VERTEX
  8
0
  5
F5E
 10
210.022
 20
36.4996
 30
-4.97000e-14
  70
    32
  0
VERTEX
  8
0
  5
F5F
 10
210.022
 20
36.4996
 30
-4.97000e-14
  70
    32
  0
VERTEX
  8
0
  5
F60
 10
210.022
 20
36.4996
 30
-4.97000e-14
  70
    32
  0
VERTEX
  8
0
  5
F61
 10
210.022
 20
36.4996
 30
-4.97000e-14
  70
    32
  0
VERTEX
  8
0
  5
F62
 10
210.022
 20
36.4996
 30
-4.97000e-14
  70
    32
  0
SEQEND
  8
0
  5
F63
  0
POLYLINE
  5
E34
  8
0
  6
AUSGEZOGEN
 62
     3
 10
210.0224633709379134
 20
-36.4996163278898251
 30
-0.0000000000000497
 66
     1
 70
     8
  0
VERTEX
  8
0
  5
F64
 10
210.022
 20
-36.4996
 30
-4.97000e-14
  70
    32
  0
VERTEX
  8
0
  5
F65
 10
210.022
 20
-36.4996
 30
-4.97000e-14
  70
    32
  0
VERTEX
  8
0
  5
F66
 10
210.022
 20
-36.4996
 30
-4.97000e-14
  70
    32
  0
VERTEX
  8
0
  5
F67
 10
210.022
 20
-36.4996
 30
-4.97000e-14
  70
    32
  0
VERTEX
  8
0
  5
F68
 10
210.022
 20
-36.4996
 30
-4.97000e-14
  70
    32
  0
VERTEX
  8
0
  5
F69
 10
210.022
 20
-36.4996
 30
-4.97000e-14
  70
    32
  0
VERTEX
  8
0
  5
F6A
 10
210.022
 20
-36.4997
 30
-4.97000e-14
  70
    32
  0
VERTEX
  8
0
  5
F6B
 10
210.022
 20
-36.4997
 30
-4.97000e-14
  70
    32
  0
VERTEX
  8
0
  5
F6C
 10
210.022
 20
-36.4997
 30
-4.97000e-14
  70
    32
  0
VERTEX
  8
0
  5
F6D
 10
210.022
 20
-36.4997
 30
-4.97000e-14
  70
    32
  0
VERTEX
  8
0
  5
F6E
 10
210.022
 20
-36.4997
 30
-4.97000e-14
  70
    32
  0
VERTEX
  8
0
  5
F6F
 10
210.022
 20
-36.4997
 30
-4.97000e-14
  70
    32
  0
VERTEX
  8
0
  5
F70
 10
210.022
 20
-36.4997
 30
-4.97000e-14
  70
    32
  0
VERTEX
  8
0
  5
F71
 10
210.022
 20
-36.4997
 30
-4.97000e-14
  70
    32
  0
VERTEX
  8
0
  5
F72
 10
210.022
 20
-36.4997
 30
-4.97000e-14
  70
    32
  0
VERTEX
  8
0
  5
F73
 10
210.021
 20
-36.4997
 30
-4.97000e-14
  70
    32
  0
VERTEX
  8
0
  5
F74
 10
210.021
 20
-36.4997
 30
-4.97000e-14
  70
    32
  0
VERTEX
  8
0
  5
F75
 10
210.021
 20
-36.4997
 30
-4.97000e-14
  70
    32
  0
VERTEX
  8
0
  5
F76
 10
210.021
 20
-36.4997
 30
-4.97000e-14
  70
    32
  0
VERTEX
  8
0
  5
F77
 10
210.021
 20
-36.4997
 30
-4.97000e-14
  70
    32
  0
VERTEX
  8
0
  5
F78
 10
210.021
 20
-36.4997
 30
-4.97000e-14
  70
    32
  0
VERTEX
  8
0
  5
F79
 10
210.021
 20
-36.4997
 30
-4.97000e-14
  70
    32
  0
VERTEX
  8
0
  5
F7A
 10
210.021
 20
-36.4997
 30
-4.97000e-14
  70
    32
  0
VERTEX
  8
0
  5
F7B
 10
210.021
 20
-36.4997
 30
-4.97000e-14
  70
    32
  0
VERTEX
  8
0
  5
F7C
 10
210.021
 20
-36.4997
 30
-4.97000e-14
  70
    32
  0
VERTEX
  8
0
  5
F7D
 10
210.021
 20
-36.4998
 30
-4.97000e-14
  70
    32
  0
VERTEX
  8
0
  5
F7E
 10
210.021
 20
-36.4998
 30
-4.97000e-14
  70
    32
  0
VERTEX
  8
0
  5
F7F
 10
210.021
 20
-36.4998
 30
-4.97000e-14
  70
    32
  0
VERTEX
  8
0
  5
F80
 10
210.021
 20
-36.4998
 30
-4.97000e-14
  70
    32
  0
VERTEX
  8
0
  5
F81
 10
210.020
 20
-36.4998
 30
-4.97000e-14
  70
    32
  0
VERTEX
  8
0
  5
F82
 10
210.020
 20
-36.4998
 30
-4.97000e-14
  70
    32
  0
VERTEX
  8
0
  5
F83
 10
210.020
 20
-36.4998
 30
-4.97000e-14
  70
    32
  0
VERTEX
  8
0
  5
F84
 10
210.020
 20
-36.4998
 30
-4.97000e-14
  70
    32
  0
VERTEX
  8
0
  5
F85
 10
210.020
 20
-36.4998
 30
-4.97000e-14
  70
    32
  0
VERTEX
  8
0
  5
F86
 10
210.020
 20
-36.4998
 30
-4.97000e-14
  70
    32
  0
VERTEX
  8
0
  5
F87
 10
210.020
 20
-36.4998
 30
-4.97000e-14
  70
    32
  0
VERTEX
  8
0
  5
F88
 10
210.020
 20
-36.4998
 30
-4.97000e-14
  70
    32
  0
VERTEX
  8
0
  5
F89
 10
210.020
 20
-36.4998
 30
-4.97000e-14
  70
    32
  0
VERTEX
  8
0
  5
F8A
 10
210.020
 20
-36.4998
 30
-4.97000e-14
  70
    32
  0
VERTEX
  8
0
  5
F8B
 10
210.020
 20
-36.4998
 30
-4.97000e-14
  70
    32
  0
VERTEX
  8
0
  5
F8C
 10
210.020
 20
-36.4998
 30
-4.97000e-14
  70
    32
  0
VERTEX
  8
0
  5
F8D
 10
210.020
 20
-36.4998
 30
-4.97000e-14
  70
    32
  0
VERTEX
  8
0
  5
F8E
 10
210.020
 20
-36.4998
 30
-4.97000e-14
  70
    32
  0
VERTEX
  8
0
  5
F8F
 10
210.020
 20
-36.4998
 30
-4.97000e-14
  70
    32
  0
VERTEX
  8
0
  5
F90
 10
210.019
 20
-36.4998
 30
-4.97000e-14
  70
    32
  0
VERTEX
  8
0
  5
F91
 10
210.019
 20
-36.4998
 30
-4.97000e-14
  70
    32
  0
VERTEX
  8
0
  5
F92
 10
210.019
 20
-36.4998
 30
-4.97000e-14
  70
    32
  0
VERTEX
  8
0
  5
F93
 10
210.019
 20
-36.4998
 30
-4.97000e-14
  70
    32
  0
VERTEX
  8
0
  5
F94
 10
210.019
 20
-36.4999
 30
-4.97000e-14
  70
    32
  0
VERTEX
  8
0
  5
F95
 10
210.019
 20
-36.4999
 30
-4.97000e-14
  70
    32
  0
VERTEX
  8
0
  5
F96
 10
210.019
 20
-36.4999
 30
-4.97000e-14
  70
    32
  0
VERTEX
  8
0
  5
F97
 10
210.019
 20
-36.4999
 30
-4.97000e-14
  70
    32
  0
VERTEX
  8
0
  5
F98
 10
210.019
 20
-36.4999
 30
-4.97000e-14
  70
    32
  0
VERTEX
  8
0
  5
F99
 10
210.019
 20
-36.4999
 30
-4.97000e-14
  70
    32
  0
VERTEX
  8
0
  5
F9A
 10
210.019
 20
-36.4999
 30
-4.97000e-14
  70
    32
  0
VERTEX
  8
0
  5
F9B
 10
210.019
 20
-36.4999
 30
-4.97000e-14
  70
    32
  0
VERTEX
  8
0
  5
F9C
 10
210.019
 20
-36.4999
 30
-4.97000e-14
  70
    32
  0
VERTEX
  8
0
  5
F9D
 10
210.019
 20
-36.4999
 30
-4.97000e-14
  70
    32
  0
VERTEX
  8
0
  5
F9E
 10
210.018
 20
-36.4999
 30
-4.97000e-14
  70
    32
  0
VERTEX
  8
0
  5
F9F
 10
210.018
 20
-36.4999
 30
-4.97000e-14
  70
    32
  0
VERTEX
  8
0
  5
FA0
 10
210.018
 20
-36.4999
 30
-4.97000e-14
  70
    32
  0
VERTEX
  8
0
  5
FA1
 10
210.018
 20
-36.4999
 30
-4.97000e-14
  70
    32
  0
VERTEX
  8
0
  5
FA2
 10
210.018
 20
-36.4999
 30
-4.97000e-14
  70
    32
  0
VERTEX
  8
0
  5
FA3
 10
210.018
 20
-36.4999
 30
-4.97000e-14
  70
    32
  0
VERTEX
  8
0
  5
FA4
 10
210.018
 20
-36.4999
 30
-4.97000e-14
  70
    32
  0
VERTEX
  8
0
  5
FA5
 10
210.018
 20
-36.4999
 30
-4.97000e-14
  70
    32
  0
VERTEX
  8
0
  5
FA6
 10
210.018
 20
-36.4999
 30
-4.97000e-14
  70
    32
  0
VERTEX
  8
0
  5
FA7
 10
210.018
 20
-36.4999
 30
-4.97000e-14
  70
    32
  0
VERTEX
  8
0
  5
FA8
 10
210.018
 20
-36.4999
 30
-4.97000e-14
  70
    32
  0
VERTEX
  8
0
  5
FA9
 10
210.018
 20
-36.4999
 30
-4.97000e-14
  70
    32
  0
VERTEX
  8
0
  5
FAA
 10
210.018
 20
-36.4999
 30
-4.97000e-14
  70
    32
  0
VERTEX
  8
0
  5
FAB
 10
210.018
 20
-36.4999
 30
-4.97000e-14
  70
    32
  0
VERTEX
  8
0
  5
FAC
 10
210.018
 20
-36.4999
 30
-4.97000e-14
  70
    32
  0
VERTEX
  8
0
  5
FAD
 10
210.017
 20
-36.4999
 30
-4.97000e-14
  70
    32
  0
VERTEX
  8
0
  5
FAE
 10
210.017
 20
-36.4999
 30
-4.97000e-14
  70
    32
  0
VERTEX
  8
0
  5
FAF
 10
210.017
 20
-36.4999
 30
-4.97000e-14
  70
    32
  0
VERTEX
  8
0
  5
FB0
 10
210.017
 20
-36.4999
 30
-4.97000e-14
  70
    32
  0
VERTEX
  8
0
  5
FB1
 10
210.017
 20
-36.4999
 30
-4.97000e-14
  70
    32
  0
VERTEX
  8
0
  5
FB2
 10
210.017
 20
-36.4999
 30
-4.97000e-14
  70
    32
  0
VERTEX
  8
0
  5
FB3
 10
210.017
 20
-36.4999
 30
-4.97000e-14
  70
    32
  0
VERTEX
  8
0
  5
FB4
 10
210.017
 20
-36.4999
 30
-4.97000e-14
  70
    32
  0
VERTEX
  8
0
  5
FB5
 10
210.017
 20
-36.4999
 30
-4.97000e-14
  70
    32
  0
VERTEX
  8
0
  5
FB6
 10
210.017
 20
-36.5000
 30
-4.97000e-14
  70
    32
  0
VERTEX
  8
0
  5
FB7
 10
210.017
 20
-36.5000
 30
-4.97000e-14
  70
    32
  0
VERTEX
  8
0
  5
FB8
 10
210.017
 20
-36.5000
 30
-4.97000e-14
  70
    32
  0
VERTEX
  8
0
  5
FB9
 10
210.017
 20
-36.5000
 30
-4.97000e-14
  70
    32
  0
VERTEX
  8
0
  5
FBA
 10
210.017
 20
-36.5000
 30
-4.97000e-14
  70
    32
  0
VERTEX
  8
0
  5
FBB
 10
210.017
 20
-36.5000
 30
-4.97000e-14
  70
    32
  0
VERTEX
  8
0
  5
FBC
 10
210.016
 20
-36.5000
 30
-4.97000e-14
  70
    32
  0
VERTEX
  8
0
  5
FBD
 10
210.016
 20
-36.5000
 30
-4.97000e-14
  70
    32
  0
VERTEX
  8
0
  5
FBE
 10
210.016
 20
-36.5000
 30
-4.97000e-14
  70
    32
  0
VERTEX
  8
0
  5
FBF
 10
210.016
 20
-36.5000
 30
-4.97000e-14
  70
    32
  0
VERTEX
  8
0
  5
FC0
 10
210.016
 20
-36.5000
 30
-4.97000e-14
  70
    32
  0
VERTEX
  8
0
  5
FC1
 10
210.016
 20
-36.5000
 30
-4.97000e-14
  70
    32
  0
VERTEX
  8
0
  5
FC2
 10
210.016
 20
-36.5000
 30
-4.97000e-14
  70
    32
  0
VERTEX
  8
0
  5
FC3
 10
210.016
 20
-36.5000
 30
-4.97000e-14
  70
    32
  0
VERTEX
  8
0
  5
FC4
 10
210.016
 20
-36.5000
 30
-4.97000e-14
  70
    32
  0
VERTEX
  8
0
  5
FC5
 10
210.016
 20
-36.5000
 30
-4.97000e-14
  70
    32
  0
VERTEX
  8
0
  5
FC6
 10
210.016
 20
-36.5000
 30
-4.97000e-14
  70
    32
  0
VERTEX
  8
0
  5
FC7
 10
210.016
 20
-36.5000
 30
-4.97000e-14
  70
    32
  0
VERTEX
  8
0
  5
FC8
 10
210.016
 20
-36.5000
 30
-4.97000e-14
  70
    32
  0
VERTEX
  8
0
  5
FC9
 10
210.016
 20
-36.5000
 30
-4.97000e-14
  70
    32
  0
VERTEX
  8
0
  5
FCA
 10
210.015
 20
-36.5000
 30
-4.97000e-14
  70
    32
  0
VERTEX
  8
0
  5
FCB
 10
210.015
 20
-36.5000
 30
-4.97000e-14
  70
    32
  0
VERTEX
  8
0
  5
FCC
 10
210.015
 20
-36.5000
 30
-4.97000e-14
  70
    32
  0
VERTEX
  8
0
  5
FCD
 10
210.015
 20
-36.5000
 30
-4.97000e-14
  70
    32
  0
VERTEX
  8
0
  5
FCE
 10
210.015
 20
-36.5000
 30
-4.97000e-14
  70
    32
  0
VERTEX
  8
0
  5
FCF
 10
210.015
 20
-36.5000
 30
-4.97000e-14
  70
    32
  0
VERTEX
  8
0
  5
FD0
 10
210.015
 20
-36.5000
 30
-4.97000e-14
  70
    32
  0
VERTEX
  8
0
  5
FD1
 10
210.015
 20
-36.5000
 30
-4.97000e-14
  70
    32
  0
VERTEX
  8
0
  5
FD2
 10
210.015
 20
-36.5000
 30
-4.97000e-14
  70
    32
  0
VERTEX
  8
0
  5
FD3
 10
210.015
 20
-36.5000
 30
-4.97000e-14
  70
    32
  0
VERTEX
  8
0
  5
FD4
 10
210.015
 20
-36.5000
 30
-4.97000e-14
  70
    32
  0
VERTEX
  8
0
  5
FD5
 10
210.015
 20
-36.5000
 30
-4.97000e-14
  70
    32
  0
VERTEX
  8
0
  5
FD6
 10
210.015
 20
-36.5000
 30
-4.97000e-14
  70
    32
  0
VERTEX
  8
0
  5
FD7
 10
210.015
 20
-36.5000
 30
-4.97000e-14
  70
    32
  0
VERTEX
  8
0
  5
FD8
 10
210.015
 20
-36.5000
 30
-4.97000e-14
  70
    32
  0
VERTEX
  8
0
  5
FD9
 10
210.014
 20
-36.5000
 30
-4.97000e-14
  70
    32
  0
VERTEX
  8
0
  5
FDA
 10
210.014
 20
-36.5000
 30
-4.97000e-14
  70
    32
  0
VERTEX
  8
0
  5
FDB
 10
210.014
 20
-36.5000
 30
-4.97000e-14
  70
    32
  0
VERTEX
  8
0
  5
FDC
 10
210.014
 20
-36.5000
 30
-4.97000e-14
  70
    32
  0
VERTEX
  8
0
  5
FDD
 10
210.014
 20
-36.5000
 30
-4.97000e-14
  70
    32
  0
VERTEX
  8
0
  5
FDE
 10
210.014
 20
-36.5000
 30
-4.97000e-14
  70
    32
  0
VERTEX
  8
0
  5
FDF
 10
210.014
 20
-36.5000
 30
-4.97000e-14
  70
    32
  0
VERTEX
  8
0
  5
FE0
 10
210.014
 20
-36.5000
 30
-4.97000e-14
  70
    32
  0
VERTEX
  8
0
  5
FE1
 10
210.014
 20
-36.5000
 30
-4.97000e-14
  70
    32
  0
VERTEX
  8
0
  5
FE2
 10
210.014
 20
-36.5000
 30
-4.97000e-14
  70
    32
  0
VERTEX
  8
0
  5
FE3
 10
210.014
 20
-36.5000
 30
-4.97000e-14
  70
    32
  0
VERTEX
  8
0
  5
FE4
 10
210.014
 20
-36.5000
 30
-4.97000e-14
  70
    32
  0
SEQEND
  8
0
  5
FE5
  0
POLYLINE
  5
E35
  8
0
  6
AUSGEZOGEN
 62
     3
 10
220.0085487764093841
 20
35.6247388890578733
 30
-0.0000000000000497
 66
     1
 70
     8
  0
VERTEX
  8
0
  5
FE6
 10
220.009
 20
35.6247
 30
-4.97000e-14
  70
    32
  0
VERTEX
  8
0
  5
FE7
 10
220.054
 20
35.6101
 30
-4.97000e-14
  70
    32
  0
VERTEX
  8
0
  5
FE8
 10
220.100
 20
35.5741
 30
-4.97000e-14
  70
    32
  0
VERTEX
  8
0
  5
FE9
 10
220.145
 20
35.5168
 30
-4.97000e-14
  70
    32
  0
VERTEX
  8
0
  5
FEA
 10
220.191
 20
35.4382
 30
-4.97000e-14
  70
    32
  0
VERTEX
  8
0
  5
FEB
 10
220.236
 20
35.3384
 30
-4.97000e-14
  70
    32
  0
VERTEX
  8
0
  5
FEC
 10
220.281
 20
35.2175
 30
-4.97000e-14
  70
    32
  0
VERTEX
  8
0
  5
FED
 10
220.326
 20
35.0755
 30
-4.97000e-14
  70
    32
  0
VERTEX
  8
0
  5
FEE
 10
220.371
 20
34.9124
 30
-4.97000e-14
  70
    32
  0
VERTEX
  8
0
  5
FEF
 10
220.416
 20
34.7285
 30
-4.97000e-14
  70
    32
  0
VERTEX
  8
0
  5
FF0
 10
220.460
 20
34.5237
 30
-4.97000e-14
  70
    32
  0
VERTEX
  8
0
  5
FF1
 10
220.504
 20
34.2983
 30
-4.97000e-14
  70
    32
  0
VERTEX
  8
0
  5
FF2
 10
220.548
 20
34.0523
 30
-4.97000e-14
  70
    32
  0
VERTEX
  8
0
  5
FF3
 10
220.591
 20
33.7860
 30
-4.97000e-14
  70
    32
  0
VERTEX
  8
0
  5
FF4
 10
220.634
 20
33.4994
 30
-4.97000e-14
  70
    32
  0
VERTEX
  8
0
  5
FF5
 10
220.677
 20
33.1928
 30
-4.97000e-14
  70
    32
  0
VERTEX
  8
0
  5
FF6
 10
220.719
 20
32.8662
 30
-4.97000e-14
  70
    32
  0
VERTEX
  8
0
  5
FF7
 10
220.761
 20
32.5200
 30
-4.97000e-14
  70
    32
  0
VERTEX
  8
0
  5
FF8
 10
220.803
 20
32.1543
 30
-4.97000e-14
  70
    32
  0
VERTEX
  8
0
  5
FF9
 10
220.844
 20
31.7694
 30
-4.97000e-14
  70
    32
  0
VERTEX
  8
0
  5
FFA
 10
220.884
 20
31.3655
 30
-4.97000e-14
  70
    32
  0
VERTEX
  8
0
  5
FFB
 10
220.924
 20
30.9427
 30
-4.97000e-14
  70
    32
  0
VERTEX
  8
0
  5
FFC
 10
220.963
 20
30.5014
 30
-4.97000e-14
  70
    32
  0
VERTEX
  8
0
  5
FFD
 10
221.002
 20
30.0419
 30
-4.97000e-14
  70
    32
  0
VERTEX
  8
0
  5
FFE
 10
221.040
 20
29.5644
 30
-4.97000e-14
  70
    32
  0
VERTEX
  8
0
  5
FFF
 10
221.078
 20
29.0691
 30
-4.97000e-14
  70
    32
  0
VERTEX
  8
0
  5
1000
 10
221.115
 20
28.5565
 30
-4.97000e-14
  70
    32
  0
VERTEX
  8
0
  5
1001
 10
221.151
 20
28.0267
 30
-4.97000e-14
  70
    32
  0
VERTEX
  8
0
  5
1002
 10
221.187
 20
27.4802
 30
-4.97000e-14
  70
    32
  0
VERTEX
  8
0
  5
1003
 10
221.221
 20
26.9172
 30
-4.97000e-14
  70
    32
  0
VERTEX
  8
0
  5
1004
 10
221.255
 20
26.3381
 30
-4.97000e-14
  70
    32
  0
VERTEX
  8
0
  5
1005
 10
221.289
 20
25.7432
 30
-4.97000e-14
  70
    32
  0
VERTEX
  8
0
  5
1006
 10
221.321
 20
25.1329
 30
-4.97000e-14
  70
    32
  0
VERTEX
  8
0
  5
1007
 10
221.353
 20
24.5076
 30
-4.97000e-14
  70
    32
  0
VERTEX
  8
0
  5
1008
 10
221.384
 20
23.8676
 30
-4.97000e-14
  70
    32
  0
VERTEX
  8
0
  5
1009
 10
221.414
 20
23.2133
 30
-4.97000e-14
  70
    32
  0
VERTEX
  8
0
  5
100A
 10
221.444
 20
22.5450
 30
-4.97000e-14
  70
    32
  0
VERTEX
  8
0
  5
100B
 10
221.472
 20
21.8633
 30
-4.97000e-14
  70
    32
  0
VERTEX
  8
0
  5
100C
 10
221.500
 20
21.1685
 30
-4.97000e-14
  70
    32
  0
VERTEX
  8
0
  5
100D
 10
221.526
 20
20.4610
 30
-4.97000e-14
  70
    32
  0
VERTEX
  8
0
  5
100E
 10
221.552
 20
19.7413
 30
-4.97000e-14
  70
    32
  0
VERTEX
  8
0
  5
100F
 10
221.577
 20
19.0097
 30
-4.97000e-14
  70
    32
  0
VERTEX
  8
0
  5
1010
 10
221.601
 20
18.2668
 30
-4.97000e-14
  70
    32
  0
VERTEX
  8
0
  5
1011
 10
221.624
 20
17.5129
 30
-4.97000e-14
  70
    32
  0
VERTEX
  8
0
  5
1012
 10
221.646
 20
16.7485
 30
-4.97000e-14
  70
    32
  0
VERTEX
  8
0
  5
1013
 10
221.667
 20
15.9741
 30
-4.97000e-14
  70
    32
  0
VERTEX
  8
0
  5
1014
 10
221.686
 20
15.1902
 30
-4.97000e-14
  70
    32
  0
VERTEX
  8
0
  5
1015
 10
221.705
 20
14.3971
 30
-4.97000e-14
  70
    32
  0
VERTEX
  8
0
  5
1016
 10
221.723
 20
13.5954
 30
-4.97000e-14
  70
    32
  0
VERTEX
  8
0
  5
1017
 10
221.740
 20
12.7856
 30
-4.97000e-14
  70
    32
  0
VERTEX
  8
0
  5
1018
 10
221.756
 20
11.9681
 30
-4.97000e-14
  70
    32
  0
VERTEX
  8
0
  5
1019
 10
221.771
 20
11.1434
 30
-4.97000e-14
  70
    32
  0
VERTEX
  8
0
  5
101A
 10
221.785
 20
10.3121
 30
-4.97000e-14
  70
    32
  0
VERTEX
  8
0
  5
101B
 10
221.797
 20
9.47461
 30
-4.97000e-14
  70
    32
  0
VERTEX
  8
0
  5
101C
 10
221.809
 20
8.63144
 30
-4.97000e-14
  70
    32
  0
VERTEX
  8
0
  5
101D
 10
221.819
 20
7.78309
 30
-4.97000e-14
  70
    32
  0
VERTEX
  8
0
  5
101E
 10
221.829
 20
6.93009
 30
-4.97000e-14
  70
    32
  0
VERTEX
  8
0
  5
101F
 10
221.837
 20
6.07293
 30
-4.97000e-14
  70
    32
  0
VERTEX
  8
0
  5
1020
 10
221.844
 20
5.21214
 30
-4.97000e-14
  70
    32
  0
VERTEX
  8
0
  5
1021
 10
221.851
 20
4.34823
 30
-4.97000e-14
  70
    32
  0
VERTEX
  8
0
  5
1022
 10
221.856
 20
3.48171
 30
-4.97000e-14
  70
    32
  0
VERTEX
  8
0
  5
1023
 10
221.859
 20
2.61311
 30
-4.97000e-14
  70
    32
  0
VERTEX
  8
0
  5
1024
 10
221.862
 20
1.74294
 30
-4.97000e-14
  70
    32
  0
VERTEX
  8
0
  5
1025
 10
221.864
 20
0.871733
 30
-4.97000e-14
  70
    32
  0
VERTEX
  8
0
  5
1026
 10
221.864
 20
8.97059e-14
 30
-4.97000e-14
  70
    32
  0
VERTEX
  8
0
  5
1027
 10
221.864
 20
-0.871733
 30
-4.97000e-14
  70
    32
  0
VERTEX
  8
0
  5
1028
 10
221.862
 20
-1.74294
 30
-4.97000e-14
  70
    32
  0
VERTEX
  8
0
  5
1029
 10
221.859
 20
-2.61311
 30
-4.97000e-14
  70
    32
  0
VERTEX
  8
0
  5
102A
 10
221.856
 20
-3.48171
 30
-4.97000e-14
  70
    32
  0
VERTEX
  8
0
  5
102B
 10
221.851
 20
-4.34823
 30
-4.97000e-14
  70
    32
  0
VERTEX
  8
0
  5
102C
 10
221.844
 20
-5.21214
 30
-4.97000e-14
  70
    32
  0
VERTEX
  8
0
  5
102D
 10
221.837
 20
-6.07293
 30
-4.97000e-14
  70
    32
  0
VERTEX
  8
0
  5
102E
 10
221.829
 20
-6.93009
 30
-4.97000e-14
  70
    32
  0
VERTEX
  8
0
  5
102F
 10
221.819
 20
-7.78309
 30
-4.97000e-14
  70
    32
  0
VERTEX
  8
0
  5
1030
 10
221.809
 20
-8.63144
 30
-4.97000e-14
  70
    32
  0
VERTEX
  8
0
  5
1031
 10
221.797
 20
-9.47461
 30
-4.97000e-14
  70
    32
  0
VERTEX
  8
0
  5
1032
 10
221.785
 20
-10.3121
 30
-4.97000e-14
  70
    32
  0
VERTEX
  8
0
  5
1033
 10
221.771
 20
-11.1434
 30
-4.97000e-14
  70
    32
  0
VERTEX
  8
0
  5
1034
 10
221.756
 20
-11.9681
 30
-4.97000e-14
  70
    32
  0
VERTEX
  8
0
  5
1035
 10
221.740
 20
-12.7856
 30
-4.97000e-14
  70
    32
  0
VERTEX
  8
0
  5
1036
 10
221.723
 20
-13.5954
 30
-4.97000e-14
  70
    32
  0
VERTEX
  8
0
  5
1037
 10
221.705
 20
-14.3971
 30
-4.97000e-14
  70
    32
  0
VERTEX
  8
0
  5
1038
 10
221.686
 20
-15.1902
 30
-4.97000e-14
  70
    32
  0
VERTEX
  8
0
  5
1039
 10
221.667
 20
-15.9741
 30
-4.97000e-14
  70
    32
  0
VERTEX
  8
0
  5
103A
 10
221.646
 20
-16.7485
 30
-4.97000e-14
  70
    32
  0
VERTEX
  8
0
  5
103B
 10
221.624
 20
-17.5129
 30
-4.97000e-14
  70
    32
  0
VERTEX
  8
0
  5
103C
 10
221.601
 20
-18.2668
 30
-4.97000e-14
  70
    32
  0
VERTEX
  8
0
  5
103D
 10
221.577
 20
-19.0097
 30
-4.97000e-14
  70
    32
  0
VERTEX
  8
0
  5
103E
 10
221.552
 20
-19.7413
 30
-4.97000e-14
  70
    32
  0
VERTEX
  8
0
  5
103F
 10
221.526
 20
-20.4610
 30
-4.97000e-14
  70
    32
  0
VERTEX
  8
0
  5
1040
 10
221.500
 20
-21.1685
 30
-4.97000e-14
  70
    32
  0
VERTEX
  8
0
  5
1041
 10
221.472
 20
-21.8633
 30
-4.97000e-14
  70
    32
  0
VERTEX
  8
0
  5
1042
 10
221.444
 20
-22.5450
 30
-4.97000e-14
  70
    32
  0
VERTEX
  8
0
  5
1043
 10
221.414
 20
-23.2133
 30
-4.97000e-14
  70
    32
  0
VERTEX
  8
0
  5
1044
 10
221.384
 20
-23.8676
 30
-4.97000e-14
  70
    32
  0
VERTEX
  8
0
  5
1045
 10
221.353
 20
-24.5076
 30
-4.97000e-14
  70
    32
  0
VERTEX
  8
0
  5
1046
 10
221.321
 20
-25.1329
 30
-4.97000e-14
  70
    32
  0
VERTEX
  8
0
  5
1047
 10
221.289
 20
-25.7432
 30
-4.97000e-14
  70
    32
  0
VERTEX
  8
0
  5
1048
 10
221.255
 20
-26.3381
 30
-4.97000e-14
  70
    32
  0
VERTEX
  8
0
  5
1049
 10
221.221
 20
-26.9172
 30
-4.97000e-14
  70
    32
  0
VERTEX
  8
0
  5
104A
 10
221.187
 20
-27.4802
 30
-4.97000e-14
  70
    32
  0
VERTEX
  8
0
  5
104B
 10
221.151
 20
-28.0267
 30
-4.97000e-14
  70
    32
  0
VERTEX
  8
0
  5
104C
 10
221.115
 20
-28.5565
 30
-4.97000e-14
  70
    32
  0
VERTEX
  8
0
  5
104D
 10
221.078
 20
-29.0691
 30
-4.97000e-14
  70
    32
  0
VERTEX
  8
0
  5
104E
 10
221.040
 20
-29.5644
 30
-4.97000e-14
  70
    32
  0
VERTEX
  8
0
  5
104F
 10
221.002
 20
-30.0419
 30
-4.97000e-14
  70
    32
  0
VERTEX
  8
0
  5
1050
 10
220.963
 20
-30.5014
 30
-4.97000e-14
  70
    32
  0
VERTEX
  8
0
  5
1051
 10
220.924
 20
-30.9427
 30
-4.97000e-14
  70
    32
  0
VERTEX
  8
0
  5
1052
 10
220.884
 20
-31.3655
 30
-4.97000e-14
  70
    32
  0
VERTEX
  8
0
  5
1053
 10
220.844
 20
-31.7694
 30
-4.97000e-14
  70
    32
  0
VERTEX
  8
0
  5
1054
 10
220.803
 20
-32.1543
 30
-4.97000e-14
  70
    32
  0
VERTEX
  8
0
  5
1055
 10
220.761
 20
-32.5200
 30
-4.97000e-14
  70
    32
  0
VERTEX
  8
0
  5
1056
 10
220.719
 20
-32.8662
 30
-4.97000e-14
  70
    32
  0
VERTEX
  8
0
  5
1057
 10
220.677
 20
-33.1928
 30
-4.97000e-14
  70
    32
  0
VERTEX
  8
0
  5
1058
 10
220.634
 20
-33.4994
 30
-4.97000e-14
  70
    32
  0
VERTEX
  8
0
  5
1059
 10
220.591
 20
-33.7860
 30
-4.97000e-14
  70
    32
  0
VERTEX
  8
0
  5
105A
 10
220.548
 20
-34.0523
 30
-4.97000e-14
  70
    32
  0
VERTEX
  8
0
  5
105B
 10
220.504
 20
-34.2983
 30
-4.97000e-14
  70
    32
  0
VERTEX
  8
0
  5
105C
 10
220.460
 20
-34.5237
 30
-4.97000e-14
  70
    32
  0
VERTEX
  8
0
  5
105D
 10
220.416
 20
-34.7285
 30
-4.97000e-14
  70
    32
  0
VERTEX
  8
0
  5
105E
 10
220.371
 20
-34.9124
 30
-4.97000e-14
  70
    32
  0
VERTEX
  8
0
  5
105F
 10
220.326
 20
-35.0755
 30
-4.97000e-14
  70
    32
  0
VERTEX
  8
0
  5
1060
 10
220.281
 20
-35.2175
 30
-4.97000e-14
  70
    32
  0
VERTEX
  8
0
  5
1061
 10
220.236
 20
-35.3384
 30
-4.97000e-14
  70
    32
  0
VERTEX
  8
0
  5
1062
 10
220.191
 20
-35.4382
 30
-4.97000e-14
  70
    32
  0
VERTEX
  8
0
  5
1063
 10
220.145
 20
-35.5168
 30
-4.97000e-14
  70
    32
  0
VERTEX
  8
0
  5
1064
 10
220.100
 20
-35.5741
 30
-4.97000e-14
  70
    32
  0
VERTEX
  8
0
  5
1065
 10
220.054
 20
-35.6101
 30
-4.97000e-14
  70
    32
  0
VERTEX
  8
0
  5
1066
 10
220.009
 20
-35.6247
 30
-4.97000e-14
  70
    32
  0
SEQEND
  8
0
  5
1067
  0
LINE
  5
E36
  8
0
  6
AUSGEZOGEN
 62
     3
 10
156.4119455861950883
 20
36.4999999999999716
 30
-0.0000000000000355
 11
103.8636710363193032
 21
36.4999999999999716
 31
-0.0000000000000284
  0
LINE
  5
E37
  8
0
  6
AUSGEZOGEN
 62
     3
 10
103.8636710363192037
 20
-36.5000000000000426
 30
-0.0000000000000284
 11
156.4119455861950883
 21
-36.5000000000000426
 31
-0.0000000000000355
  0
LINE
  5
E38
  8
0
  6
AUSGEZOGEN
 62
     3
 10
99.931476737728886
 20
36.4999999999999716
 30
-0.0000000000000284
 11
103.8636710363193032
 21
36.4999999999999716
 31
-0.0000000000000284
  0
LINE
  5
E39
  8
0
  6
AUSGEZOGEN
 62
     3
 10
99.931476737728957
 20
-36.5000000000000426
 30
-0.0000000000000284
 11
103.8636710363194027
 21
-36.5000000000000284
 31
-0.0000000000000284
  0
LINE
  5
E3A
  8
0
  6
AUSGEZOGEN
 62
     3
 10
20.97999046710963
 20
-36.5000000000000426
 30
0.0
 11
99.9314767377290849
 21
-36.5000000000000426
 31
-0.0000000000000284
  0
LINE
  5
E3B
  8
0
  6
AUSGEZOGEN
 62
     3
 10
99.9314767377290849
 20
36.4999999999999716
 30
-0.0000000000000284
 11
20.9799904671096016
 21
36.4999999999999716
 31
0.0
  0
LINE
  5
E3C
  8
0
  6
AUSGEZOGEN
 62
     3
 10
156.4119455861950883
 20
36.4999999999999929
 30
-0.0000000000000355
 11
210.0137046524536117
 21
36.4999999999999929
 31
-0.0000000000000475
  0
LINE
  5
E3D
  8
0
  6
AUSGEZOGEN
 62
     3
 10
156.4119455861950883
 20
-36.5000000000000497
 30
-0.0000000000000355
 11
210.0137046524536117
 21
-36.5000000000000497
 31
-0.0000000000000475
  0
LINE
  5
E3E
  8
0
  6
AUSGEZOGEN
 62
     3
 10
220.0085487764094125
 20
-35.6247388890579728
 30
-0.0000000000000497
 11
210.0224633709379987
 21
-36.4996163278898536
 31
-0.0000000000000475
  0
LINE
  5
E3F
  8
0
  6
AUSGEZOGEN
 62
     3
 10
220.0085487764094125
 20
35.6247388890579089
 30
-0.0000000000000497
 11
210.0224633709379987
 21
36.4996163278897967
 31
-0.0000000000000475
  0
CIRCLE
  5
E40
  8
0
  6
VERDECKT
 62
     1
 10
0.0000000000000024
 20
-0.0000000000000274
 30
0.0
 40
40.5000000000000711
  0
CIRCLE
  5
E41
  8
0
  6
VERDECKT
 62
     1
 10
-0.0000000000001062
 20
-0.0000000000000287
 30
0.0
 40
38.0000000000000426
  0
CIRCLE
  5
E42
  8
0
  6
VERDECKT
 62
     1
 10
-0.0000000000001062
 20
-0.0000000000000287
 30
0.0
 40
39.6000000000000583
  0
CIRCLE
  5
E43
  8
0
  6
VERDECKT
 62
     1
 10
-0.0000000000000999
 20
-0.0000000000000304
 30
0.0
 40
36.4999999999998579
  0
POLYLINE
  5
E44
  8
0
  6
VERDECKT
 62
     1
 10
209.943942881087537
 20
34.9000000000000981
 30
-0.0000000000000497
 66
     1
 70
     8
  0
VERTEX
  8
0
  5
1068
 10
209.944
 20
34.9000
 30
-4.97000e-14
  70
    32
  0
VERTEX
  8
0
  5
1069
 10
209.944
 20
34.9000
 30
-4.97000e-14
  70
    32
  0
VERTEX
  8
0
  5
106A
 10
209.944
 20
34.9000
 30
-4.97000e-14
  70
    32
  0
VERTEX
  8
0
  5
106B
 10
209.944
 20
34.9000
 30
-4.97000e-14
  70
    32
  0
VERTEX
  8
0
  5
106C
 10
209.944
 20
34.9000
 30
-4.97000e-14
  70
    32
  0
VERTEX
  8
0
  5
106D
 10
209.944
 20
34.9000
 30
-4.97000e-14
  70
    32
  0
VERTEX
  8
0
  5
106E
 10
209.944
 20
34.9000
 30
-4.97000e-14
  70
    32
  0
VERTEX
  8
0
  5
106F
 10
209.944
 20
34.9000
 30
-4.97000e-14
  70
    32
  0
VERTEX
  8
0
  5
1070
 10
209.944
 20
34.9000
 30
-4.97000e-14
  70
    32
  0
VERTEX
  8
0
  5
1071
 10
209.945
 20
34.9000
 30
-4.97000e-14
  70
    32
  0
VERTEX
  8
0
  5
1072
 10
209.945
 20
34.9000
 30
-4.97000e-14
  70
    32
  0
VERTEX
  8
0
  5
1073
 10
209.945
 20
34.9000
 30
-4.97000e-14
  70
    32
  0
VERTEX
  8
0
  5
1074
 10
209.945
 20
34.9000
 30
-4.97000e-14
  70
    32
  0
VERTEX
  8
0
  5
1075
 10
209.945
 20
34.9000
 30
-4.97000e-14
  70
    32
  0
VERTEX
  8
0
  5
1076
 10
209.945
 20
34.9000
 30
-4.97000e-14
  70
    32
  0
VERTEX
  8
0
  5
1077
 10
209.945
 20
34.9000
 30
-4.97000e-14
  70
    32
  0
VERTEX
  8
0
  5
1078
 10
209.945
 20
34.9000
 30
-4.97000e-14
  70
    32
  0
VERTEX
  8
0
  5
1079
 10
209.945
 20
34.9000
 30
-4.97000e-14
  70
    32
  0
VERTEX
  8
0
  5
107A
 10
209.945
 20
34.9000
 30
-4.97000e-14
  70
    32
  0
VERTEX
  8
0
  5
107B
 10
209.945
 20
34.9000
 30
-4.97000e-14
  70
    32
  0
VERTEX
  8
0
  5
107C
 10
209.945
 20
34.9000
 30
-4.97000e-14
  70
    32
  0
VERTEX
  8
0
  5
107D
 10
209.945
 20
34.9000
 30
-4.97000e-14
  70
    32
  0
VERTEX
  8
0
  5
107E
 10
209.945
 20
34.9000
 30
-4.97000e-14
  70
    32
  0
VERTEX
  8
0
  5
107F
 10
209.945
 20
34.9000
 30
-4.97000e-14
  70
    32
  0
VERTEX
  8
0
  5
1080
 10
209.946
 20
34.9000
 30
-4.97000e-14
  70
    32
  0
VERTEX
  8
0
  5
1081
 10
209.946
 20
34.9000
 30
-4.97000e-14
  70
    32
  0
VERTEX
  8
0
  5
1082
 10
209.946
 20
34.9000
 30
-4.97000e-14
  70
    32
  0
VERTEX
  8
0
  5
1083
 10
209.946
 20
34.9000
 30
-4.97000e-14
  70
    32
  0
VERTEX
  8
0
  5
1084
 10
209.946
 20
34.9000
 30
-4.97000e-14
  70
    32
  0
VERTEX
  8
0
  5
1085
 10
209.946
 20
34.9000
 30
-4.97000e-14
  70
    32
  0
VERTEX
  8
0
  5
1086
 10
209.946
 20
34.9000
 30
-4.97000e-14
  70
    32
  0
VERTEX
  8
0
  5
1087
 10
209.946
 20
34.9000
 30
-4.97000e-14
  70
    32
  0
VERTEX
  8
0
  5
1088
 10
209.946
 20
34.9000
 30
-4.97000e-14
  70
    32
  0
VERTEX
  8
0
  5
1089
 10
209.946
 20
34.9000
 30
-4.97000e-14
  70
    32
  0
VERTEX
  8
0
  5
108A
 10
209.946
 20
34.9000
 30
-4.97000e-14
  70
    32
  0
VERTEX
  8
0
  5
108B
 10
209.946
 20
34.9000
 30
-4.97000e-14
  70
    32
  0
VERTEX
  8
0
  5
108C
 10
209.946
 20
34.9000
 30
-4.97000e-14
  70
    32
  0
VERTEX
  8
0
  5
108D
 10
209.946
 20
34.9000
 30
-4.97000e-14
  70
    32
  0
VERTEX
  8
0
  5
108E
 10
209.946
 20
34.9000
 30
-4.97000e-14
  70
    32
  0
VERTEX
  8
0
  5
108F
 10
209.946
 20
34.9000
 30
-4.97000e-14
  70
    32
  0
VERTEX
  8
0
  5
1090
 10
209.947
 20
34.9000
 30
-4.97000e-14
  70
    32
  0
VERTEX
  8
0
  5
1091
 10
209.947
 20
34.9000
 30
-4.97000e-14
  70
    32
  0
VERTEX
  8
0
  5
1092
 10
209.947
 20
34.9000
 30
-4.97000e-14
  70
    32
  0
VERTEX
  8
0
  5
1093
 10
209.947
 20
34.9000
 30
-4.97000e-14
  70
    32
  0
VERTEX
  8
0
  5
1094
 10
209.947
 20
34.9000
 30
-4.97000e-14
  70
    32
  0
VERTEX
  8
0
  5
1095
 10
209.947
 20
34.9000
 30
-4.97000e-14
  70
    32
  0
VERTEX
  8
0
  5
1096
 10
209.947
 20
34.9000
 30
-4.97000e-14
  70
    32
  0
VERTEX
  8
0
  5
1097
 10
209.947
 20
34.9000
 30
-4.97000e-14
  70
    32
  0
VERTEX
  8
0
  5
1098
 10
209.947
 20
34.8999
 30
-4.97000e-14
  70
    32
  0
VERTEX
  8
0
  5
1099
 10
209.947
 20
34.8999
 30
-4.97000e-14
  70
    32
  0
VERTEX
  8
0
  5
109A
 10
209.947
 20
34.8999
 30
-4.97000e-14
  70
    32
  0
VERTEX
  8
0
  5
109B
 10
209.947
 20
34.8999
 30
-4.97000e-14
  70
    32
  0
VERTEX
  8
0
  5
109C
 10
209.947
 20
34.8999
 30
-4.97000e-14
  70
    32
  0
VERTEX
  8
0
  5
109D
 10
209.947
 20
34.8999
 30
-4.97000e-14
  70
    32
  0
VERTEX
  8
0
  5
109E
 10
209.947
 20
34.8999
 30
-4.97000e-14
  70
    32
  0
VERTEX
  8
0
  5
109F
 10
209.948
 20
34.8999
 30
-4.97000e-14
  70
    32
  0
VERTEX
  8
0
  5
10A0
 10
209.948
 20
34.8999
 30
-4.97000e-14
  70
    32
  0
VERTEX
  8
0
  5
10A1
 10
209.948
 20
34.8999
 30
-4.97000e-14
  70
    32
  0
VERTEX
  8
0
  5
10A2
 10
209.948
 20
34.8999
 30
-4.97000e-14
  70
    32
  0
VERTEX
  8
0
  5
10A3
 10
209.948
 20
34.8999
 30
-4.97000e-14
  70
    32
  0
VERTEX
  8
0
  5
10A4
 10
209.948
 20
34.8999
 30
-4.97000e-14
  70
    32
  0
VERTEX
  8
0
  5
10A5
 10
209.948
 20
34.8999
 30
-4.97000e-14
  70
    32
  0
VERTEX
  8
0
  5
10A6
 10
209.948
 20
34.8999
 30
-4.97000e-14
  70
    32
  0
VERTEX
  8
0
  5
10A7
 10
209.948
 20
34.8999
 30
-4.97000e-14
  70
    32
  0
VERTEX
  8
0
  5
10A8
 10
209.948
 20
34.8999
 30
-4.97000e-14
  70
    32
  0
VERTEX
  8
0
  5
10A9
 10
209.948
 20
34.8999
 30
-4.97000e-14
  70
    32
  0
VERTEX
  8
0
  5
10AA
 10
209.948
 20
34.8999
 30
-4.97000e-14
  70
    32
  0
VERTEX
  8
0
  5
10AB
 10
209.948
 20
34.8999
 30
-4.97000e-14
  70
    32
  0
VERTEX
  8
0
  5
10AC
 10
209.948
 20
34.8999
 30
-4.97000e-14
  70
    32
  0
VERTEX
  8
0
  5
10AD
 10
209.948
 20
34.8999
 30
-4.97000e-14
  70
    32
  0
VERTEX
  8
0
  5
10AE
 10
209.949
 20
34.8999
 30
-4.97000e-14
  70
    32
  0
VERTEX
  8
0
  5
10AF
 10
209.949
 20
34.8999
 30
-4.97000e-14
  70
    32
  0
VERTEX
  8
0
  5
10B0
 10
209.949
 20
34.8999
 30
-4.97000e-14
  70
    32
  0
VERTEX
  8
0
  5
10B1
 10
209.949
 20
34.8999
 30
-4.97000e-14
  70
    32
  0
VERTEX
  8
0
  5
10B2
 10
209.949
 20
34.8999
 30
-4.97000e-14
  70
    32
  0
VERTEX
  8
0
  5
10B3
 10
209.949
 20
34.8999
 30
-4.97000e-14
  70
    32
  0
VERTEX
  8
0
  5
10B4
 10
209.949
 20
34.8999
 30
-4.97000e-14
  70
    32
  0
VERTEX
  8
0
  5
10B5
 10
209.949
 20
34.8999
 30
-4.97000e-14
  70
    32
  0
VERTEX
  8
0
  5
10B6
 10
209.949
 20
34.8999
 30
-4.97000e-14
  70
    32
  0
VERTEX
  8
0
  5
10B7
 10
209.949
 20
34.8999
 30
-4.97000e-14
  70
    32
  0
VERTEX
  8
0
  5
10B8
 10
209.949
 20
34.8999
 30
-4.97000e-14
  70
    32
  0
VERTEX
  8
0
  5
10B9
 10
209.949
 20
34.8999
 30
-4.97000e-14
  70
    32
  0
VERTEX
  8
0
  5
10BA
 10
209.949
 20
34.8998
 30
-4.97000e-14
  70
    32
  0
VERTEX
  8
0
  5
10BB
 10
209.949
 20
34.8998
 30
-4.97000e-14
  70
    32
  0
VERTEX
  8
0
  5
10BC
 10
209.949
 20
34.8998
 30
-4.97000e-14
  70
    32
  0
VERTEX
  8
0
  5
10BD
 10
209.950
 20
34.8998
 30
-4.97000e-14
  70
    32
  0
VERTEX
  8
0
  5
10BE
 10
209.950
 20
34.8998
 30
-4.97000e-14
  70
    32
  0
VERTEX
  8
0
  5
10BF
 10
209.950
 20
34.8998
 30
-4.97000e-14
  70
    32
  0
VERTEX
  8
0
  5
10C0
 10
209.950
 20
34.8998
 30
-4.97000e-14
  70
    32
  0
VERTEX
  8
0
  5
10C1
 10
209.950
 20
34.8998
 30
-4.97000e-14
  70
    32
  0
VERTEX
  8
0
  5
10C2
 10
209.950
 20
34.8998
 30
-4.97000e-14
  70
    32
  0
VERTEX
  8
0
  5
10C3
 10
209.950
 20
34.8998
 30
-4.97000e-14
  70
    32
  0
VERTEX
  8
0
  5
10C4
 10
209.950
 20
34.8998
 30
-4.97000e-14
  70
    32
  0
VERTEX
  8
0
  5
10C5
 10
209.950
 20
34.8998
 30
-4.97000e-14
  70
    32
  0
VERTEX
  8
0
  5
10C6
 10
209.950
 20
34.8998
 30
-4.97000e-14
  70
    32
  0
VERTEX
  8
0
  5
10C7
 10
209.950
 20
34.8998
 30
-4.97000e-14
  70
    32
  0
VERTEX
  8
0
  5
10C8
 10
209.950
 20
34.8998
 30
-4.97000e-14
  70
    32
  0
VERTEX
  8
0
  5
10C9
 10
209.950
 20
34.8998
 30
-4.97000e-14
  70
    32
  0
VERTEX
  8
0
  5
10CA
 10
209.950
 20
34.8998
 30
-4.97000e-14
  70
    32
  0
VERTEX
  8
0
  5
10CB
 10
209.950
 20
34.8998
 30
-4.97000e-14
  70
    32
  0
VERTEX
  8
0
  5
10CC
 10
209.950
 20
34.8998
 30
-4.97000e-14
  70
    32
  0
VERTEX
  8
0
  5
10CD
 10
209.951
 20
34.8998
 30
-4.97000e-14
  70
    32
  0
VERTEX
  8
0
  5
10CE
 10
209.951
 20
34.8998
 30
-4.97000e-14
  70
    32
  0
VERTEX
  8
0
  5
10CF
 10
209.951
 20
34.8998
 30
-4.97000e-14
  70
    32
  0
VERTEX
  8
0
  5
10D0
 10
209.951
 20
34.8998
 30
-4.97000e-14
  70
    32
  0
VERTEX
  8
0
  5
10D1
 10
209.951
 20
34.8998
 30
-4.97000e-14
  70
    32
  0
VERTEX
  8
0
  5
10D2
 10
209.951
 20
34.8997
 30
-4.97000e-14
  70
    32
  0
VERTEX
  8
0
  5
10D3
 10
209.951
 20
34.8997
 30
-4.97000e-14
  70
    32
  0
VERTEX
  8
0
  5
10D4
 10
209.951
 20
34.8997
 30
-4.97000e-14
  70
    32
  0
VERTEX
  8
0
  5
10D5
 10
209.951
 20
34.8997
 30
-4.97000e-14
  70
    32
  0
VERTEX
  8
0
  5
10D6
 10
209.951
 20
34.8997
 30
-4.97000e-14
  70
    32
  0
VERTEX
  8
0
  5
10D7
 10
209.951
 20
34.8997
 30
-4.97000e-14
  70
    32
  0
VERTEX
  8
0
  5
10D8
 10
209.951
 20
34.8997
 30
-4.97000e-14
  70
    32
  0
VERTEX
  8
0
  5
10D9
 10
209.951
 20
34.8997
 30
-4.97000e-14
  70
    32
  0
VERTEX
  8
0
  5
10DA
 10
209.951
 20
34.8997
 30
-4.97000e-14
  70
    32
  0
VERTEX
  8
0
  5
10DB
 10
209.951
 20
34.8997
 30
-4.97000e-14
  70
    32
  0
VERTEX
  8
0
  5
10DC
 10
209.952
 20
34.8997
 30
-4.97000e-14
  70
    32
  0
VERTEX
  8
0
  5
10DD
 10
209.952
 20
34.8997
 30
-4.97000e-14
  70
    32
  0
VERTEX
  8
0
  5
10DE
 10
209.952
 20
34.8997
 30
-4.97000e-14
  70
    32
  0
VERTEX
  8
0
  5
10DF
 10
209.952
 20
34.8997
 30
-4.97000e-14
  70
    32
  0
VERTEX
  8
0
  5
10E0
 10
209.952
 20
34.8997
 30
-4.97000e-14
  70
    32
  0
VERTEX
  8
0
  5
10E1
 10
209.952
 20
34.8997
 30
-4.97000e-14
  70
    32
  0
VERTEX
  8
0
  5
10E2
 10
209.952
 20
34.8997
 30
-4.97000e-14
  70
    32
  0
VERTEX
  8
0
  5
10E3
 10
209.952
 20
34.8997
 30
-4.97000e-14
  70
    32
  0
VERTEX
  8
0
  5
10E4
 10
209.952
 20
34.8997
 30
-4.97000e-14
  70
    32
  0
VERTEX
  8
0
  5
10E5
 10
209.952
 20
34.8997
 30
-4.97000e-14
  70
    32
  0
VERTEX
  8
0
  5
10E6
 10
209.952
 20
34.8996
 30
-4.97000e-14
  70
    32
  0
VERTEX
  8
0
  5
10E7
 10
209.952
 20
34.8996
 30
-4.97000e-14
  70
    32
  0
VERTEX
  8
0
  5
10E8
 10
209.952
 20
34.8996
 30
-4.97000e-14
  70
    32
  0
SEQEND
  8
0
  5
10E9
  0
POLYLINE
  5
E45
  8
0
  6
VERDECKT
 62
     1
 10
209.9523176557478905
 20
-34.8996331463933771
 30
-0.0000000000000497
 66
     1
 70
     8
  0
VERTEX
  8
0
  5
10EA
 10
209.952
 20
-34.8996
 30
-4.97000e-14
  70
    32
  0
VERTEX
  8
0
  5
10EB
 10
209.952
 20
-34.8996
 30
-4.97000e-14
  70
    32
  0
VERTEX
  8
0
  5
10EC
 10
209.952
 20
-34.8996
 30
-4.97000e-14
  70
    32
  0
VERTEX
  8
0
  5
10ED
 10
209.952
 20
-34.8997
 30
-4.97000e-14
  70
    32
  0
VERTEX
  8
0
  5
10EE
 10
209.952
 20
-34.8997
 30
-4.97000e-14
  70
    32
  0
VERTEX
  8
0
  5
10EF
 10
209.952
 20
-34.8997
 30
-4.97000e-14
  70
    32
  0
VERTEX
  8
0
  5
10F0
 10
209.952
 20
-34.8997
 30
-4.97000e-14
  70
    32
  0
VERTEX
  8
0
  5
10F1
 10
209.952
 20
-34.8997
 30
-4.97000e-14
  70
    32
  0
VERTEX
  8
0
  5
10F2
 10
209.952
 20
-34.8997
 30
-4.97000e-14
  70
    32
  0
VERTEX
  8
0
  5
10F3
 10
209.952
 20
-34.8997
 30
-4.97000e-14
  70
    32
  0
VERTEX
  8
0
  5
10F4
 10
209.952
 20
-34.8997
 30
-4.97000e-14
  70
    32
  0
VERTEX
  8
0
  5
10F5
 10
209.952
 20
-34.8997
 30
-4.97000e-14
  70
    32
  0
VERTEX
  8
0
  5
10F6
 10
209.952
 20
-34.8997
 30
-4.97000e-14
  70
    32
  0
VERTEX
  8
0
  5
10F7
 10
209.951
 20
-34.8997
 30
-4.97000e-14
  70
    32
  0
VERTEX
  8
0
  5
10F8
 10
209.951
 20
-34.8997
 30
-4.97000e-14
  70
    32
  0
VERTEX
  8
0
  5
10F9
 10
209.951
 20
-34.8997
 30
-4.97000e-14
  70
    32
  0
VERTEX
  8
0
  5
10FA
 10
209.951
 20
-34.8997
 30
-4.97000e-14
  70
    32
  0
VERTEX
  8
0
  5
10FB
 10
209.951
 20
-34.8997
 30
-4.97000e-14
  70
    32
  0
VERTEX
  8
0
  5
10FC
 10
209.951
 20
-34.8997
 30
-4.97000e-14
  70
    32
  0
VERTEX
  8
0
  5
10FD
 10
209.951
 20
-34.8997
 30
-4.97000e-14
  70
    32
  0
VERTEX
  8
0
  5
10FE
 10
209.951
 20
-34.8997
 30
-4.97000e-14
  70
    32
  0
VERTEX
  8
0
  5
10FF
 10
209.951
 20
-34.8997
 30
-4.97000e-14
  70
    32
  0
VERTEX
  8
0
  5
1100
 10
209.951
 20
-34.8997
 30
-4.97000e-14
  70
    32
  0
VERTEX
  8
0
  5
1101
 10
209.951
 20
-34.8998
 30
-4.97000e-14
  70
    32
  0
VERTEX
  8
0
  5
1102
 10
209.951
 20
-34.8998
 30
-4.97000e-14
  70
    32
  0
VERTEX
  8
0
  5
1103
 10
209.951
 20
-34.8998
 30
-4.97000e-14
  70
    32
  0
VERTEX
  8
0
  5
1104
 10
209.951
 20
-34.8998
 30
-4.97000e-14
  70
    32
  0
VERTEX
  8
0
  5
1105
 10
209.951
 20
-34.8998
 30
-4.97000e-14
  70
    32
  0
VERTEX
  8
0
  5
1106
 10
209.950
 20
-34.8998
 30
-4.97000e-14
  70
    32
  0
VERTEX
  8
0
  5
1107
 10
209.950
 20
-34.8998
 30
-4.97000e-14
  70
    32
  0
VERTEX
  8
0
  5
1108
 10
209.950
 20
-34.8998
 30
-4.97000e-14
  70
    32
  0
VERTEX
  8
0
  5
1109
 10
209.950
 20
-34.8998
 30
-4.97000e-14
  70
    32
  0
VERTEX
  8
0
  5
110A
 10
209.950
 20
-34.8998
 30
-4.97000e-14
  70
    32
  0
VERTEX
  8
0
  5
110B
 10
209.950
 20
-34.8998
 30
-4.97000e-14
  70
    32
  0
VERTEX
  8
0
  5
110C
 10
209.950
 20
-34.8998
 30
-4.97000e-14
  70
    32
  0
VERTEX
  8
0
  5
110D
 10
209.950
 20
-34.8998
 30
-4.97000e-14
  70
    32
  0
VERTEX
  8
0
  5
110E
 10
209.950
 20
-34.8998
 30
-4.97000e-14
  70
    32
  0
VERTEX
  8
0
  5
110F
 10
209.950
 20
-34.8998
 30
-4.97000e-14
  70
    32
  0
VERTEX
  8
0
  5
1110
 10
209.950
 20
-34.8998
 30
-4.97000e-14
  70
    32
  0
VERTEX
  8
0
  5
1111
 10
209.950
 20
-34.8998
 30
-4.97000e-14
  70
    32
  0
VERTEX
  8
0
  5
1112
 10
209.950
 20
-34.8998
 30
-4.97000e-14
  70
    32
  0
VERTEX
  8
0
  5
1113
 10
209.950
 20
-34.8998
 30
-4.97000e-14
  70
    32
  0
VERTEX
  8
0
  5
1114
 10
209.950
 20
-34.8998
 30
-4.97000e-14
  70
    32
  0
VERTEX
  8
0
  5
1115
 10
209.950
 20
-34.8998
 30
-4.97000e-14
  70
    32
  0
VERTEX
  8
0
  5
1116
 10
209.949
 20
-34.8998
 30
-4.97000e-14
  70
    32
  0
VERTEX
  8
0
  5
1117
 10
209.949
 20
-34.8998
 30
-4.97000e-14
  70
    32
  0
VERTEX
  8
0
  5
1118
 10
209.949
 20
-34.8998
 30
-4.97000e-14
  70
    32
  0
VERTEX
  8
0
  5
1119
 10
209.949
 20
-34.8999
 30
-4.97000e-14
  70
    32
  0
VERTEX
  8
0
  5
111A
 10
209.949
 20
-34.8999
 30
-4.97000e-14
  70
    32
  0
VERTEX
  8
0
  5
111B
 10
209.949
 20
-34.8999
 30
-4.97000e-14
  70
    32
  0
VERTEX
  8
0
  5
111C
 10
209.949
 20
-34.8999
 30
-4.97000e-14
  70
    32
  0
VERTEX
  8
0
  5
111D
 10
209.949
 20
-34.8999
 30
-4.97000e-14
  70
    32
  0
VERTEX
  8
0
  5
111E
 10
209.949
 20
-34.8999
 30
-4.97000e-14
  70
    32
  0
VERTEX
  8
0
  5
111F
 10
209.949
 20
-34.8999
 30
-4.97000e-14
  70
    32
  0
VERTEX
  8
0
  5
1120
 10
209.949
 20
-34.8999
 30
-4.97000e-14
  70
    32
  0
VERTEX
  8
0
  5
1121
 10
209.949
 20
-34.8999
 30
-4.97000e-14
  70
    32
  0
VERTEX
  8
0
  5
1122
 10
209.949
 20
-34.8999
 30
-4.97000e-14
  70
    32
  0
VERTEX
  8
0
  5
1123
 10
209.949
 20
-34.8999
 30
-4.97000e-14
  70
    32
  0
VERTEX
  8
0
  5
1124
 10
209.949
 20
-34.8999
 30
-4.97000e-14
  70
    32
  0
VERTEX
  8
0
  5
1125
 10
209.948
 20
-34.8999
 30
-4.97000e-14
  70
    32
  0
VERTEX
  8
0
  5
1126
 10
209.948
 20
-34.8999
 30
-4.97000e-14
  70
    32
  0
VERTEX
  8
0
  5
1127
 10
209.948
 20
-34.8999
 30
-4.97000e-14
  70
    32
  0
VERTEX
  8
0
  5
1128
 10
209.948
 20
-34.8999
 30
-4.97000e-14
  70
    32
  0
VERTEX
  8
0
  5
1129
 10
209.948
 20
-34.8999
 30
-4.97000e-14
  70
    32
  0
VERTEX
  8
0
  5
112A
 10
209.948
 20
-34.8999
 30
-4.97000e-14
  70
    32
  0
VERTEX
  8
0
  5
112B
 10
209.948
 20
-34.8999
 30
-4.97000e-14
  70
    32
  0
VERTEX
  8
0
  5
112C
 10
209.948
 20
-34.8999
 30
-4.97000e-14
  70
    32
  0
VERTEX
  8
0
  5
112D
 10
209.948
 20
-34.8999
 30
-4.97000e-14
  70
    32
  0
VERTEX
  8
0
  5
112E
 10
209.948
 20
-34.8999
 30
-4.97000e-14
  70
    32
  0
VERTEX
  8
0
  5
112F
 10
209.948
 20
-34.8999
 30
-4.97000e-14
  70
    32
  0
VERTEX
  8
0
  5
1130
 10
209.948
 20
-34.8999
 30
-4.97000e-14
  70
    32
  0
VERTEX
  8
0
  5
1131
 10
209.948
 20
-34.8999
 30
-4.97000e-14
  70
    32
  0
VERTEX
  8
0
  5
1132
 10
209.948
 20
-34.8999
 30
-4.97000e-14
  70
    32
  0
VERTEX
  8
0
  5
1133
 10
209.948
 20
-34.8999
 30
-4.97000e-14
  70
    32
  0
VERTEX
  8
0
  5
1134
 10
209.947
 20
-34.8999
 30
-4.97000e-14
  70
    32
  0
VERTEX
  8
0
  5
1135
 10
209.947
 20
-34.8999
 30
-4.97000e-14
  70
    32
  0
VERTEX
  8
0
  5
1136
 10
209.947
 20
-34.8999
 30
-4.97000e-14
  70
    32
  0
VERTEX
  8
0
  5
1137
 10
209.947
 20
-34.8999
 30
-4.97000e-14
  70
    32
  0
VERTEX
  8
0
  5
1138
 10
209.947
 20
-34.8999
 30
-4.97000e-14
  70
    32
  0
VERTEX
  8
0
  5
1139
 10
209.947
 20
-34.8999
 30
-4.97000e-14
  70
    32
  0
VERTEX
  8
0
  5
113A
 10
209.947
 20
-34.8999
 30
-4.97000e-14
  70
    32
  0
VERTEX
  8
0
  5
113B
 10
209.947
 20
-34.9000
 30
-4.97000e-14
  70
    32
  0
VERTEX
  8
0
  5
113C
 10
209.947
 20
-34.9000
 30
-4.97000e-14
  70
    32
  0
VERTEX
  8
0
  5
113D
 10
209.947
 20
-34.9000
 30
-4.97000e-14
  70
    32
  0
VERTEX
  8
0
  5
113E
 10
209.947
 20
-34.9000
 30
-4.97000e-14
  70
    32
  0
VERTEX
  8
0
  5
113F
 10
209.947
 20
-34.9000
 30
-4.97000e-14
  70
    32
  0
VERTEX
  8
0
  5
1140
 10
209.947
 20
-34.9000
 30
-4.97000e-14
  70
    32
  0
VERTEX
  8
0
  5
1141
 10
209.947
 20
-34.9000
 30
-4.97000e-14
  70
    32
  0
VERTEX
  8
0
  5
1142
 10
209.947
 20
-34.9000
 30
-4.97000e-14
  70
    32
  0
VERTEX
  8
0
  5
1143
 10
209.946
 20
-34.9000
 30
-4.97000e-14
  70
    32
  0
VERTEX
  8
0
  5
1144
 10
209.946
 20
-34.9000
 30
-4.97000e-14
  70
    32
  0
VERTEX
  8
0
  5
1145
 10
209.946
 20
-34.9000
 30
-4.97000e-14
  70
    32
  0
VERTEX
  8
0
  5
1146
 10
209.946
 20
-34.9000
 30
-4.97000e-14
  70
    32
  0
VERTEX
  8
0
  5
1147
 10
209.946
 20
-34.9000
 30
-4.97000e-14
  70
    32
  0
VERTEX
  8
0
  5
1148
 10
209.946
 20
-34.9000
 30
-4.97000e-14
  70
    32
  0
VERTEX
  8
0
  5
1149
 10
209.946
 20
-34.9000
 30
-4.97000e-14
  70
    32
  0
VERTEX
  8
0
  5
114A
 10
209.946
 20
-34.9000
 30
-4.97000e-14
  70
    32
  0
VERTEX
  8
0
  5
114B
 10
209.946
 20
-34.9000
 30
-4.97000e-14
  70
    32
  0
VERTEX
  8
0
  5
114C
 10
209.946
 20
-34.9000
 30
-4.97000e-14
  70
    32
  0
VERTEX
  8
0
  5
114D
 10
209.946
 20
-34.9000
 30
-4.97000e-14
  70
    32
  0
VERTEX
  8
0
  5
114E
 10
209.946
 20
-34.9000
 30
-4.97000e-14
  70
    32
  0
VERTEX
  8
0
  5
114F
 10
209.946
 20
-34.9000
 30
-4.97000e-14
  70
    32
  0
VERTEX
  8
0
  5
1150
 10
209.946
 20
-34.9000
 30
-4.97000e-14
  70
    32
  0
VERTEX
  8
0
  5
1151
 10
209.946
 20
-34.9000
 30
-4.97000e-14
  70
    32
  0
VERTEX
  8
0
  5
1152
 10
209.946
 20
-34.9000
 30
-4.97000e-14
  70
    32
  0
VERTEX
  8
0
  5
1153
 10
209.945
 20
-34.9000
 30
-4.97000e-14
  70
    32
  0
VERTEX
  8
0
  5
1154
 10
209.945
 20
-34.9000
 30
-4.97000e-14
  70
    32
  0
VERTEX
  8
0
  5
1155
 10
209.945
 20
-34.9000
 30
-4.97000e-14
  70
    32
  0
VERTEX
  8
0
  5
1156
 10
209.945
 20
-34.9000
 30
-4.97000e-14
  70
    32
  0
VERTEX
  8
0
  5
1157
 10
209.945
 20
-34.9000
 30
-4.97000e-14
  70
    32
  0
VERTEX
  8
0
  5
1158
 10
209.945
 20
-34.9000
 30
-4.97000e-14
  70
    32
  0
VERTEX
  8
0
  5
1159
 10
209.945
 20
-34.9000
 30
-4.97000e-14
  70
    32
  0
VERTEX
  8
0
  5
115A
 10
209.945
 20
-34.9000
 30
-4.97000e-14
  70
    32
  0
VERTEX
  8
0
  5
115B
 10
209.945
 20
-34.9000
 30
-4.97000e-14
  70
    32
  0
VERTEX
  8
0
  5
115C
 10
209.945
 20
-34.9000
 30
-4.97000e-14
  70
    32
  0
VERTEX
  8
0
  5
115D
 10
209.945
 20
-34.9000
 30
-4.97000e-14
  70
    32
  0
VERTEX
  8
0
  5
115E
 10
209.945
 20
-34.9000
 30
-4.97000e-14
  70
    32
  0
VERTEX
  8
0
  5
115F
 10
209.945
 20
-34.9000
 30
-4.97000e-14
  70
    32
  0
VERTEX
  8
0
  5
1160
 10
209.945
 20
-34.9000
 30
-4.97000e-14
  70
    32
  0
VERTEX
  8
0
  5
1161
 10
209.945
 20
-34.9000
 30
-4.97000e-14
  70
    32
  0
VERTEX
  8
0
  5
1162
 10
209.944
 20
-34.9000
 30
-4.97000e-14
  70
    32
  0
VERTEX
  8
0
  5
1163
 10
209.944
 20
-34.9000
 30
-4.97000e-14
  70
    32
  0
VERTEX
  8
0
  5
1164
 10
209.944
 20
-34.9000
 30
-4.97000e-14
  70
    32
  0
VERTEX
  8
0
  5
1165
 10
209.944
 20
-34.9000
 30
-4.97000e-14
  70
    32
  0
VERTEX
  8
0
  5
1166
 10
209.944
 20
-34.9000
 30
-4.97000e-14
  70
    32
  0
VERTEX
  8
0
  5
1167
 10
209.944
 20
-34.9000
 30
-4.97000e-14
  70
    32
  0
VERTEX
  8
0
  5
1168
 10
209.944
 20
-34.9000
 30
-4.97000e-14
  70
    32
  0
VERTEX
  8
0
  5
1169
 10
209.944
 20
-34.9000
 30
-4.97000e-14
  70
    32
  0
VERTEX
  8
0
  5
116A
 10
209.944
 20
-34.9000
 30
-4.97000e-14
  70
    32
  0
SEQEND
  8
0
  5
116B
  0
POLYLINE
  5
E46
  8
0
  6
VERDECKT
 62
     1
 10
218.2195830195424264
 20
-0.0000000000000541
 30
-0.0000000000000497
 66
     1
 70
     8
  0
VERTEX
  8
0
  5
116C
 10
218.220
 20
-5.40658e-14
 30
-4.97000e-14
  70
    32
  0
VERTEX
  8
0
  5
116D
 10
218.222
 20
-1.66923
 30
-4.97000e-14
  70
    32
  0
VERTEX
  8
0
  5
116E
 10
218.228
 20
-3.33445
 30
-4.97000e-14
  70
    32
  0
VERTEX
  8
0
  5
116F
 10
218.239
 20
-4.99162
 30
-4.97000e-14
  70
    32
  0
VERTEX
  8
0
  5
1170
 10
218.254
 20
-6.63678
 30
-4.97000e-14
  70
    32
  0
VERTEX
  8
0
  5
1171
 10
218.273
 20
-8.26594
 30
-4.97000e-14
  70
    32
  0
VERTEX
  8
0
  5
1172
 10
218.296
 20
-9.87519
 30
-4.97000e-14
  70
    32
  0
VERTEX
  8
0
  5
1173
 10
218.324
 20
-11.4607
 30
-4.97000e-14
  70
    32
  0
VERTEX
  8
0
  5
1174
 10
218.355
 20
-13.0185
 30
-4.97000e-14
  70
    32
  0
VERTEX
  8
0
  5
1175
 10
218.391
 20
-14.5450
 30
-4.97000e-14
  70
    32
  0
VERTEX
  8
0
  5
1176
 10
218.430
 20
-16.0364
 30
-4.97000e-14
  70
    32
  0
VERTEX
  8
0
  5
1177
 10
218.473
 20
-17.4893
 30
-4.97000e-14
  70
    32
  0
VERTEX
  8
0
  5
1178
 10
218.520
 20
-18.8999
 30
-4.97000e-14
  70
    32
  0
VERTEX
  8
0
  5
1179
 10
218.570
 20
-20.2651
 30
-4.97000e-14
  70
    32
  0
VERTEX
  8
0
  5
117A
 10
218.624
 20
-21.5814
 30
-4.97000e-14
  70
    32
  0
VERTEX
  8
0
  5
117B
 10
218.681
 20
-22.8458
 30
-4.97000e-14
  70
    32
  0
VERTEX
  8
0
  5
117C
 10
218.741
 20
-24.0551
 30
-4.97000e-14
  70
    32
  0
VERTEX
  8
0
  5
117D
 10
218.804
 20
-25.2064
 30
-4.97000e-14
  70
    32
  0
VERTEX
  8
0
  5
117E
 10
218.871
 20
-26.2970
 30
-4.97000e-14
  70
    32
  0
VERTEX
  8
0
  5
117F
 10
218.939
 20
-27.3243
 30
-4.97000e-14
  70
    32
  0
VERTEX
  8
0
  5
1180
 10
219.011
 20
-28.2858
 30
-4.97000e-14
  70
    32
  0
VERTEX
  8
0
  5
1181
 10
219.085
 20
-29.1791
 30
-4.97000e-14
  70
    32
  0
VERTEX
  8
0
  5
1182
 10
219.161
 20
-30.0021
 30
-4.97000e-14
  70
    32
  0
VERTEX
  8
0
  5
1183
 10
219.239
 20
-30.7528
 30
-4.97000e-14
  70
    32
  0
VERTEX
  8
0
  5
1184
 10
219.319
 20
-31.4295
 30
-4.97000e-14
  70
    32
  0
VERTEX
  8
0
  5
1185
 10
219.400
 20
-32.0304
 30
-4.97000e-14
  70
    32
  0
VERTEX
  8
0
  5
1186
 10
219.483
 20
-32.5542
 30
-4.97000e-14
  70
    32
  0
VERTEX
  8
0
  5
1187
 10
219.567
 20
-32.9995
 30
-4.97000e-14
  70
    32
  0
VERTEX
  8
0
  5
1188
 10
219.653
 20
-33.3653
 30
-4.97000e-14
  70
    32
  0
VERTEX
  8
0
  5
1189
 10
219.739
 20
-33.6508
 30
-4.97000e-14
  70
    32
  0
VERTEX
  8
0
  5
118A
 10
219.825
 20
-33.8552
 30
-4.97000e-14
  70
    32
  0
VERTEX
  8
0
  5
118B
 10
219.913
 20
-33.9780
 30
-4.97000e-14
  70
    32
  0
VERTEX
  8
0
  5
118C
 10
220.000
 20
-34.0190
 30
-4.97000e-14
  70
    32
  0
VERTEX
  8
0
  5
118D
 10
220.087
 20
-33.9780
 30
-4.97000e-14
  70
    32
  0
VERTEX
  8
0
  5
118E
 10
220.175
 20
-33.8552
 30
-4.97000e-14
  70
    32
  0
VERTEX
  8
0
  5
118F
 10
220.261
 20
-33.6508
 30
-4.97000e-14
  70
    32
  0
VERTEX
  8
0
  5
1190
 10
220.347
 20
-33.3653
 30
-4.97000e-14
  70
    32
  0
VERTEX
  8
0
  5
1191
 10
220.433
 20
-32.9995
 30
-4.97000e-14
  70
    32
  0
VERTEX
  8
0
  5
1192
 10
220.517
 20
-32.5542
 30
-4.97000e-14
  70
    32
  0
VERTEX
  8
0
  5
1193
 10
220.600
 20
-32.0304
 30
-4.97000e-14
  70
    32
  0
VERTEX
  8
0
  5
1194
 10
220.681
 20
-31.4295
 30
-4.97000e-14
  70
    32
  0
VERTEX
  8
0
  5
1195
 10
220.761
 20
-30.7528
 30
-4.97000e-14
  70
    32
  0
VERTEX
  8
0
  5
1196
 10
220.839
 20
-30.0021
 30
-4.97000e-14
  70
    32
  0
VERTEX
  8
0
  5
1197
 10
220.915
 20
-29.1791
 30
-4.97000e-14
  70
    32
  0
VERTEX
  8
0
  5
1198
 10
220.989
 20
-28.2858
 30
-4.97000e-14
  70
    32
  0
VERTEX
  8
0
  5
1199
 10
221.061
 20
-27.3243
 30
-4.97000e-14
  70
    32
  0
VERTEX
  8
0
  5
119A
 10
221.129
 20
-26.2970
 30
-4.97000e-14
  70
    32
  0
VERTEX
  8
0
  5
119B
 10
221.196
 20
-25.2064
 30
-4.97000e-14
  70
    32
  0
VERTEX
  8
0
  5
119C
 10
221.259
 20
-24.0551
 30
-4.97000e-14
  70
    32
  0
VERTEX
  8
0
  5
119D
 10
221.319
 20
-22.8458
 30
-4.97000e-14
  70
    32
  0
VERTEX
  8
0
  5
119E
 10
221.376
 20
-21.5814
 30
-4.97000e-14
  70
    32
  0
VERTEX
  8
0
  5
119F
 10
221.430
 20
-20.2651
 30
-4.97000e-14
  70
    32
  0
VERTEX
  8
0
  5
11A0
 10
221.480
 20
-18.8999
 30
-4.97000e-14
  70
    32
  0
VERTEX
  8
0
  5
11A1
 10
221.527
 20
-17.4893
 30
-4.97000e-14
  70
    32
  0
VERTEX
  8
0
  5
11A2
 10
221.570
 20
-16.0364
 30
-4.97000e-14
  70
    32
  0
VERTEX
  8
0
  5
11A3
 10
221.609
 20
-14.5450
 30
-4.97000e-14
  70
    32
  0
VERTEX
  8
0
  5
11A4
 10
221.645
 20
-13.0185
 30
-4.97000e-14
  70
    32
  0
VERTEX
  8
0
  5
11A5
 10
221.676
 20
-11.4607
 30
-4.97000e-14
  70
    32
  0
VERTEX
  8
0
  5
11A6
 10
221.704
 20
-9.87519
 30
-4.97000e-14
  70
    32
  0
VERTEX
  8
0
  5
11A7
 10
221.727
 20
-8.26594
 30
-4.97000e-14
  70
    32
  0
VERTEX
  8
0
  5
11A8
 10
221.746
 20
-6.63678
 30
-4.97000e-14
  70
    32
  0
VERTEX
  8
0
  5
11A9
 10
221.761
 20
-4.99162
 30
-4.97000e-14
  70
    32
  0
VERTEX
  8
0
  5
11AA
 10
221.772
 20
-3.33445
 30
-4.97000e-14
  70
    32
  0
VERTEX
  8
0
  5
11AB
 10
221.778
 20
-1.66923
 30
-4.97000e-14
  70
    32
  0
VERTEX
  8
0
  5
11AC
 10
221.780
 20
-9.52186e-15
 30
-4.97000e-14
  70
    32
  0
VERTEX
  8
0
  5
11AD
 10
221.778
 20
1.66923
 30
-4.97000e-14
  70
    32
  0
VERTEX
  8
0
  5
11AE
 10
221.772
 20
3.33445
 30
-4.97000e-14
  70
    32
  0
VERTEX
  8
0
  5
11AF
 10
221.761
 20
4.99162
 30
-4.97000e-14
  70
    32
  0
VERTEX
  8
0
  5
11B0
 10
221.746
 20
6.63678
 30
-4.97000e-14
  70
    32
  0
VERTEX
  8
0
  5
11B1
 10
221.727
 20
8.26594
 30
-4.97000e-14
  70
    32
  0
VERTEX
  8
0
  5
11B2
 10
221.704
 20
9.87519
 30
-4.97000e-14
  70
    32
  0
VERTEX
  8
0
  5
11B3
 10
221.676
 20
11.4607
 30
-4.97000e-14
  70
    32
  0
VERTEX
  8
0
  5
11B4
 10
221.645
 20
13.0185
 30
-4.97000e-14
  70
    32
  0
VERTEX
  8
0
  5
11B5
 10
221.609
 20
14.5450
 30
-4.97000e-14
  70
    32
  0
VERTEX
  8
0
  5
11B6
 10
221.570
 20
16.0364
 30
-4.97000e-14
  70
    32
  0
VERTEX
  8
0
  5
11B7
 10
221.527
 20
17.4893
 30
-4.97000e-14
  70
    32
  0
VERTEX
  8
0
  5
11B8
 10
221.480
 20
18.8999
 30
-4.97000e-14
  70
    32
  0
VERTEX
  8
0
  5
11B9
 10
221.430
 20
20.2651
 30
-4.97000e-14
  70
    32
  0
VERTEX
  8
0
  5
11BA
 10
221.376
 20
21.5814
 30
-4.97000e-14
  70
    32
  0
VERTEX
  8
0
  5
11BB
 10
221.319
 20
22.8458
 30
-4.97000e-14
  70
    32
  0
VERTEX
  8
0
  5
11BC
 10
221.259
 20
24.0551
 30
-4.97000e-14
  70
    32
  0
VERTEX
  8
0
  5
11BD
 10
221.196
 20
25.2064
 30
-4.97000e-14
  70
    32
  0
VERTEX
  8
0
  5
11BE
 10
221.129
 20
26.2970
 30
-4.97000e-14
  70
    32
  0
VERTEX
  8
0
  5
11BF
 10
221.061
 20
27.3243
 30
-4.97000e-14
  70
    32
  0
VERTEX
  8
0
  5
11C0
 10
220.989
 20
28.2858
 30
-4.97000e-14
  70
    32
  0
VERTEX
  8
0
  5
11C1
 10
220.915
 20
29.1791
 30
-4.97000e-14
  70
    32
  0
VERTEX
  8
0
  5
11C2
 10
220.839
 20
30.0021
 30
-4.97000e-14
  70
    32
  0
VERTEX
  8
0
  5
11C3
 10
220.761
 20
30.7528
 30
-4.97000e-14
  70
    32
  0
VERTEX
  8
0
  5
11C4
 10
220.681
 20
31.4295
 30
-4.97000e-14
  70
    32
  0
VERTEX
  8
0
  5
11C5
 10
220.600
 20
32.0304
 30
-4.97000e-14
  70
    32
  0
VERTEX
  8
0
  5
11C6
 10
220.517
 20
32.5542
 30
-4.97000e-14
  70
    32
  0
VERTEX
  8
0
  5
11C7
 10
220.433
 20
32.9995
 30
-4.97000e-14
  70
    32
  0
VERTEX
  8
0
  5
11C8
 10
220.347
 20
33.3653
 30
-4.97000e-14
  70
    32
  0
VERTEX
  8
0
  5
11C9
 10
220.261
 20
33.6508
 30
-4.97000e-14
  70
    32
  0
VERTEX
  8
0
  5
11CA
 10
220.175
 20
33.8552
 30
-4.97000e-14
  70
    32
  0
VERTEX
  8
0
  5
11CB
 10
220.087
 20
33.9780
 30
-4.97000e-14
  70
    32
  0
VERTEX
  8
0
  5
11CC
 10
220.000
 20
34.0190
 30
-4.97000e-14
  70
    32
  0
VERTEX
  8
0
  5
11CD
 10
219.913
 20
33.9780
 30
-4.97000e-14
  70
    32
  0
VERTEX
  8
0
  5
11CE
 10
219.825
 20
33.8552
 30
-4.97000e-14
  70
    32
  0
VERTEX
  8
0
  5
11CF
 10
219.739
 20
33.6508
 30
-4.97000e-14
  70
    32
  0
VERTEX
  8
0
  5
11D0
 10
219.653
 20
33.3653
 30
-4.97000e-14
  70
    32
  0
VERTEX
  8
0
  5
11D1
 10
219.567
 20
32.9995
 30
-4.97000e-14
  70
    32
  0
VERTEX
  8
0
  5
11D2
 10
219.483
 20
32.5542
 30
-4.97000e-14
  70
    32
  0
VERTEX
  8
0
  5
11D3
 10
219.400
 20
32.0304
 30
-4.97000e-14
  70
    32
  0
VERTEX
  8
0
  5
11D4
 10
219.319
 20
31.4295
 30
-4.97000e-14
  70
    32
  0
VERTEX
  8
0
  5
11D5
 10
219.239
 20
30.7528
 30
-4.97000e-14
  70
    32
  0
VERTEX
  8
0
  5
11D6
 10
219.161
 20
30.0021
 30
-4.97000e-14
  70
    32
  0
VERTEX
  8
0
  5
11D7
 10
219.085
 20
29.1791
 30
-4.97000e-14
  70
    32
  0
VERTEX
  8
0
  5
11D8
 10
219.011
 20
28.2858
 30
-4.97000e-14
  70
    32
  0
VERTEX
  8
0
  5
11D9
 10
218.939
 20
27.3243
 30
-4.97000e-14
  70
    32
  0
VERTEX
  8
0
  5
11DA
 10
218.871
 20
26.2970
 30
-4.97000e-14
  70
    32
  0
VERTEX
  8
0
  5
11DB
 10
218.804
 20
25.2064
 30
-4.97000e-14
  70
    32
  0
VERTEX
  8
0
  5
11DC
 10
218.741
 20
24.0551
 30
-4.97000e-14
  70
    32
  0
VERTEX
  8
0
  5
11DD
 10
218.681
 20
22.8458
 30
-4.97000e-14
  70
    32
  0
VERTEX
  8
0
  5
11DE
 10
218.624
 20
21.5814
 30
-4.97000e-14
  70
    32
  0
VERTEX
  8
0
  5
11DF
 10
218.570
 20
20.2651
 30
-4.97000e-14
  70
    32
  0
VERTEX
  8
0
  5
11E0
 10
218.520
 20
18.8999
 30
-4.97000e-14
  70
    32
  0
VERTEX
  8
0
  5
11E1
 10
218.473
 20
17.4893
 30
-4.97000e-14
  70
    32
  0
VERTEX
  8
0
  5
11E2
 10
218.430
 20
16.0364
 30
-4.97000e-14
  70
    32
  0
VERTEX
  8
0
  5
11E3
 10
218.391
 20
14.5450
 30
-4.97000e-14
  70
    32
  0
VERTEX
  8
0
  5
11E4
 10
218.355
 20
13.0185
 30
-4.97000e-14
  70
    32
  0
VERTEX
  8
0
  5
11E5
 10
218.324
 20
11.4607
 30
-4.97000e-14
  70
    32
  0
VERTEX
  8
0
  5
11E6
 10
218.296
 20
9.87519
 30
-4.97000e-14
  70
    32
  0
VERTEX
  8
0
  5
11E7
 10
218.273
 20
8.26594
 30
-4.97000e-14
  70
    32
  0
VERTEX
  8
0
  5
11E8
 10
218.254
 20
6.63678
 30
-4.97000e-14
  70
    32
  0
VERTEX
  8
0
  5
11E9
 10
218.239
 20
4.99162
 30
-4.97000e-14
  70
    32
  0
VERTEX
  8
0
  5
11EA
 10
218.228
 20
3.33445
 30
-4.97000e-14
  70
    32
  0
VERTEX
  8
0
  5
11EB
 10
218.222
 20
1.66923
 30
-4.97000e-14
  70
    32
  0
VERTEX
  8
0
  5
11EC
 10
218.220
 20
-5.40658e-14
 30
-4.97000e-14
  70
    32
  0
SEQEND
  8
0
  5
11ED
  0
POLYLINE
  5
E47
  8
0
  6
VERDECKT
 62
     1
 10
218.1355256257930648
 20
-0.000000000000023
 30
-0.0000000000000497
 66
     1
 70
     8
  0
VERTEX
  8
0
  5
11EE
 10
218.136
 20
-2.29545e-14
 30
-4.97000e-14
  70
    32
  0
VERTEX
  8
0
  5
11EF
 10
218.136
 20
0.438451
 30
-4.97000e-14
  70
    32
  0
VERTEX
  8
0
  5
11F0
 10
218.136
 20
0.876836
 30
-4.97000e-14
  70
    32
  0
VERTEX
  8
0
  5
11F1
 10
218.137
 20
1.31509
 30
-4.97000e-14
  70
    32
  0
VERTEX
  8
0
  5
11F2
 10
218.138
 20
1.75314
 30
-4.97000e-14
  70
    32
  0
VERTEX
  8
0
  5
11F3
 10
218.139
 20
2.19093
 30
-4.97000e-14
  70
    32
  0
VERTEX
  8
0
  5
11F4
 10
218.141
 20
2.62838
 30
-4.97000e-14
  70
    32
  0
VERTEX
  8
0
  5
11F5
 10
218.142
 20
3.06544
 30
-4.97000e-14
  70
    32
  0
VERTEX
  8
0
  5
11F6
 10
218.145
 20
3.50203
 30
-4.97000e-14
  70
    32
  0
VERTEX
  8
0
  5
11F7
 10
218.147
 20
3.93809
 30
-4.97000e-14
  70
    32
  0
VERTEX
  8
0
  5
11F8
 10
218.150
 20
4.37356
 30
-4.97000e-14
  70
    32
  0
VERTEX
  8
0
  5
11F9
 10
218.153
 20
4.80836
 30
-4.97000e-14
  70
    32
  0
VERTEX
  8
0
  5
11FA
 10
218.156
 20
5.24244
 30
-4.97000e-14
  70
    32
  0
VERTEX
  8
0
  5
11FB
 10
218.159
 20
5.67572
 30
-4.97000e-14
  70
    32
  0
VERTEX
  8
0
  5
11FC
 10
218.163
 20
6.10814
 30
-4.97000e-14
  70
    32
  0
VERTEX
  8
0
  5
11FD
 10
218.167
 20
6.53963
 30
-4.97000e-14
  70
    32
  0
VERTEX
  8
0
  5
11FE
 10
218.172
 20
6.97014
 30
-4.97000e-14
  70
    32
  0
VERTEX
  8
0
  5
11FF
 10
218.176
 20
7.39959
 30
-4.97000e-14
  70
    32
  0
VERTEX
  8
0
  5
1200
 10
218.181
 20
7.82792
 30
-4.97000e-14
  70
    32
  0
VERTEX
  8
0
  5
1201
 10
218.186
 20
8.25506
 30
-4.97000e-14
  70
    32
  0
VERTEX
  8
0
  5
1202
 10
218.192
 20
8.68095
 30
-4.97000e-14
  70
    32
  0
VERTEX
  8
0
  5
1203
 10
218.197
 20
9.10553
 30
-4.97000e-14
  70
    32
  0
VERTEX
  8
0
  5
1204
 10
218.203
 20
9.52873
 30
-4.97000e-14
  70
    32
  0
VERTEX
  8
0
  5
1205
 10
218.210
 20
9.95048
 30
-4.97000e-14
  70
    32
  0
VERTEX
  8
0
  5
1206
 10
218.216
 20
10.3707
 30
-4.97000e-14
  70
    32
  0
VERTEX
  8
0
  5
1207
 10
218.223
 20
10.7894
 30
-4.97000e-14
  70
    32
  0
VERTEX
  8
0
  5
1208
 10
218.230
 20
11.2064
 30
-4.97000e-14
  70
    32
  0
VERTEX
  8
0
  5
1209
 10
218.238
 20
11.6218
 30
-4.97000e-14
  70
    32
  0
VERTEX
  8
0
  5
120A
 10
218.245
 20
12.0354
 30
-4.97000e-14
  70
    32
  0
VERTEX
  8
0
  5
120B
 10
218.253
 20
12.4471
 30
-4.97000e-14
  70
    32
  0
VERTEX
  8
0
  5
120C
 10
218.261
 20
12.8570
 30
-4.97000e-14
  70
    32
  0
VERTEX
  8
0
  5
120D
 10
218.270
 20
13.2649
 30
-4.97000e-14
  70
    32
  0
VERTEX
  8
0
  5
120E
 10
218.278
 20
13.6709
 30
-4.97000e-14
  70
    32
  0
VERTEX
  8
0
  5
120F
 10
218.287
 20
14.0747
 30
-4.97000e-14
  70
    32
  0
VERTEX
  8
0
  5
1210
 10
218.296
 20
14.4764
 30
-4.97000e-14
  70
    32
  0
VERTEX
  8
0
  5
1211
 10
218.306
 20
14.8759
 30
-4.97000e-14
  70
    32
  0
VERTEX
  8
0
  5
1212
 10
218.316
 20
15.2732
 30
-4.97000e-14
  70
    32
  0
VERTEX
  8
0
  5
1213
 10
218.326
 20
15.6682
 30
-4.97000e-14
  70
    32
  0
VERTEX
  8
0
  5
1214
 10
218.336
 20
16.0608
 30
-4.97000e-14
  70
    32
  0
VERTEX
  8
0
  5
1215
 10
218.346
 20
16.4509
 30
-4.97000e-14
  70
    32
  0
VERTEX
  8
0
  5
1216
 10
218.357
 20
16.8386
 30
-4.97000e-14
  70
    32
  0
VERTEX
  8
0
  5
1217
 10
218.368
 20
17.2237
 30
-4.97000e-14
  70
    32
  0
VERTEX
  8
0
  5
1218
 10
218.379
 20
17.6062
 30
-4.97000e-14
  70
    32
  0
VERTEX
  8
0
  5
1219
 10
218.391
 20
17.9860
 30
-4.97000e-14
  70
    32
  0
VERTEX
  8
0
  5
121A
 10
218.402
 20
18.3631
 30
-4.97000e-14
  70
    32
  0
VERTEX
  8
0
  5
121B
 10
218.414
 20
18.7374
 30
-4.97000e-14
  70
    32
  0
VERTEX
  8
0
  5
121C
 10
218.426
 20
19.1089
 30
-4.97000e-14
  70
    32
  0
VERTEX
  8
0
  5
121D
 10
218.439
 20
19.4775
 30
-4.97000e-14
  70
    32
  0
VERTEX
  8
0
  5
121E
 10
218.452
 20
19.8432
 30
-4.97000e-14
  70
    32
  0
VERTEX
  8
0
  5
121F
 10
218.464
 20
20.2058
 30
-4.97000e-14
  70
    32
  0
VERTEX
  8
0
  5
1220
 10
218.478
 20
20.5654
 30
-4.97000e-14
  70
    32
  0
VERTEX
  8
0
  5
1221
 10
218.491
 20
20.9218
 30
-4.97000e-14
  70
    32
  0
VERTEX
  8
0
  5
1222
 10
218.505
 20
21.2751
 30
-4.97000e-14
  70
    32
  0
VERTEX
  8
0
  5
1223
 10
218.518
 20
21.6252
 30
-4.97000e-14
  70
    32
  0
VERTEX
  8
0
  5
1224
 10
218.532
 20
21.9720
 30
-4.97000e-14
  70
    32
  0
VERTEX
  8
0
  5
1225
 10
218.547
 20
22.3154
 30
-4.97000e-14
  70
    32
  0
VERTEX
  8
0
  5
1226
 10
218.561
 20
22.6555
 30
-4.97000e-14
  70
    32
  0
VERTEX
  8
0
  5
1227
 10
218.576
 20
22.9922
 30
-4.97000e-14
  70
    32
  0
VERTEX
  8
0
  5
1228
 10
218.591
 20
23.3254
 30
-4.97000e-14
  70
    32
  0
VERTEX
  8
0
  5
1229
 10
218.606
 20
23.6550
 30
-4.97000e-14
  70
    32
  0
VERTEX
  8
0
  5
122A
 10
218.621
 20
23.9810
 30
-4.97000e-14
  70
    32
  0
VERTEX
  8
0
  5
122B
 10
218.637
 20
24.3035
 30
-4.97000e-14
  70
    32
  0
VERTEX
  8
0
  5
122C
 10
218.653
 20
24.6222
 30
-4.97000e-14
  70
    32
  0
VERTEX
  8
0
  5
122D
 10
218.668
 20
24.9372
 30
-4.97000e-14
  70
    32
  0
VERTEX
  8
0
  5
122E
 10
218.685
 20
25.2484
 30
-4.97000e-14
  70
    32
  0
VERTEX
  8
0
  5
122F
 10
218.701
 20
25.5559
 30
-4.97000e-14
  70
    32
  0
VERTEX
  8
0
  5
1230
 10
218.718
 20
25.8594
 30
-4.97000e-14
  70
    32
  0
VERTEX
  8
0
  5
1231
 10
218.734
 20
26.1590
 30
-4.97000e-14
  70
    32
  0
VERTEX
  8
0
  5
1232
 10
218.751
 20
26.4547
 30
-4.97000e-14
  70
    32
  0
VERTEX
  8
0
  5
1233
 10
218.768
 20
26.7463
 30
-4.97000e-14
  70
    32
  0
VERTEX
  8
0
  5
1234
 10
218.786
 20
27.0339
 30
-4.97000e-14
  70
    32
  0
VERTEX
  8
0
  5
1235
 10
218.803
 20
27.3174
 30
-4.97000e-14
  70
    32
  0
VERTEX
  8
0
  5
1236
 10
218.821
 20
27.5968
 30
-4.97000e-14
  70
    32
  0
VERTEX
  8
0
  5
1237
 10
218.839
 20
27.8720
 30
-4.97000e-14
  70
    32
  0
VERTEX
  8
0
  5
1238
 10
218.857
 20
28.1429
 30
-4.97000e-14
  70
    32
  0
VERTEX
  8
0
  5
1239
 10
218.875
 20
28.4096
 30
-4.97000e-14
  70
    32
  0
VERTEX
  8
0
  5
123A
 10
218.893
 20
28.6720
 30
-4.97000e-14
  70
    32
  0
VERTEX
  8
0
  5
123B
 10
218.912
 20
28.9301
 30
-4.97000e-14
  70
    32
  0
VERTEX
  8
0
  5
123C
 10
218.931
 20
29.1838
 30
-4.97000e-14
  70
    32
  0
VERTEX
  8
0
  5
123D
 10
218.950
 20
29.4330
 30
-4.97000e-14
  70
    32
  0
VERTEX
  8
0
  5
123E
 10
218.969
 20
29.6778
 30
-4.97000e-14
  70
    32
  0
VERTEX
  8
0
  5
123F
 10
218.988
 20
29.9181
 30
-4.97000e-14
  70
    32
  0
VERTEX
  8
0
  5
1240
 10
219.007
 20
30.1539
 30
-4.97000e-14
  70
    32
  0
VERTEX
  8
0
  5
1241
 10
219.027
 20
30.3851
 30
-4.97000e-14
  70
    32
  0
VERTEX
  8
0
  5
1242
 10
219.046
 20
30.6116
 30
-4.97000e-14
  70
    32
  0
VERTEX
  8
0
  5
1243
 10
219.066
 20
30.8336
 30
-4.97000e-14
  70
    32
  0
VERTEX
  8
0
  5
1244
 10
219.086
 20
31.0509
 30
-4.97000e-14
  70
    32
  0
VERTEX
  8
0
  5
1245
 10
219.106
 20
31.2635
 30
-4.97000e-14
  70
    32
  0
VERTEX
  8
0
  5
1246
 10
219.126
 20
31.4713
 30
-4.97000e-14
  70
    32
  0
VERTEX
  8
0
  5
1247
 10
219.147
 20
31.6744
 30
-4.97000e-14
  70
    32
  0
VERTEX
  8
0
  5
1248
 10
219.167
 20
31.8727
 30
-4.97000e-14
  70
    32
  0
VERTEX
  8
0
  5
1249
 10
219.188
 20
32.0661
 30
-4.97000e-14
  70
    32
  0
VERTEX
  8
0
  5
124A
 10
219.208
 20
32.2547
 30
-4.97000e-14
  70
    32
  0
VERTEX
  8
0
  5
124B
 10
219.229
 20
32.4385
 30
-4.97000e-14
  70
    32
  0
VERTEX
  8
0
  5
124C
 10
219.250
 20
32.6173
 30
-4.97000e-14
  70
    32
  0
VERTEX
  8
0
  5
124D
 10
219.271
 20
32.7911
 30
-4.97000e-14
  70
    32
  0
VERTEX
  8
0
  5
124E
 10
219.292
 20
32.9600
 30
-4.97000e-14
  70
    32
  0
VERTEX
  8
0
  5
124F
 10
219.314
 20
33.1239
 30
-4.97000e-14
  70
    32
  0
VERTEX
  8
0
  5
1250
 10
219.335
 20
33.2828
 30
-4.97000e-14
  70
    32
  0
VERTEX
  8
0
  5
1251
 10
219.357
 20
33.4366
 30
-4.97000e-14
  70
    32
  0
VERTEX
  8
0
  5
1252
 10
219.378
 20
33.5854
 30
-4.97000e-14
  70
    32
  0
VERTEX
  8
0
  5
1253
 10
219.400
 20
33.7291
 30
-4.97000e-14
  70
    32
  0
VERTEX
  8
0
  5
1254
 10
219.422
 20
33.8677
 30
-4.97000e-14
  70
    32
  0
VERTEX
  8
0
  5
1255
 10
219.443
 20
34.0011
 30
-4.97000e-14
  70
    32
  0
VERTEX
  8
0
  5
1256
 10
219.465
 20
34.1294
 30
-4.97000e-14
  70
    32
  0
VERTEX
  8
0
  5
1257
 10
219.487
 20
34.2525
 30
-4.97000e-14
  70
    32
  0
VERTEX
  8
0
  5
1258
 10
219.510
 20
34.3705
 30
-4.97000e-14
  70
    32
  0
VERTEX
  8
0
  5
1259
 10
219.532
 20
34.4832
 30
-4.97000e-14
  70
    32
  0
VERTEX
  8
0
  5
125A
 10
219.554
 20
34.5907
 30
-4.97000e-14
  70
    32
  0
VERTEX
  8
0
  5
125B
 10
219.576
 20
34.6930
 30
-4.97000e-14
  70
    32
  0
VERTEX
  8
0
  5
125C
 10
219.599
 20
34.7900
 30
-4.97000e-14
  70
    32
  0
VERTEX
  8
0
  5
125D
 10
219.621
 20
34.8817
 30
-4.97000e-14
  70
    32
  0
VERTEX
  8
0
  5
125E
 10
219.644
 20
34.9682
 30
-4.97000e-14
  70
    32
  0
VERTEX
  8
0
  5
125F
 10
219.666
 20
35.0494
 30
-4.97000e-14
  70
    32
  0
VERTEX
  8
0
  5
1260
 10
219.689
 20
35.1252
 30
-4.97000e-14
  70
    32
  0
VERTEX
  8
0
  5
1261
 10
219.711
 20
35.1957
 30
-4.97000e-14
  70
    32
  0
VERTEX
  8
0
  5
1262
 10
219.734
 20
35.2609
 30
-4.97000e-14
  70
    32
  0
VERTEX
  8
0
  5
1263
 10
219.757
 20
35.3208
 30
-4.97000e-14
  70
    32
  0
VERTEX
  8
0
  5
1264
 10
219.780
 20
35.3753
 30
-4.97000e-14
  70
    32
  0
VERTEX
  8
0
  5
1265
 10
219.802
 20
35.4245
 30
-4.97000e-14
  70
    32
  0
VERTEX
  8
0
  5
1266
 10
219.825
 20
35.4683
 30
-4.97000e-14
  70
    32
  0
VERTEX
  8
0
  5
1267
 10
219.848
 20
35.5067
 30
-4.97000e-14
  70
    32
  0
VERTEX
  8
0
  5
1268
 10
219.871
 20
35.5397
 30
-4.97000e-14
  70
    32
  0
VERTEX
  8
0
  5
1269
 10
219.894
 20
35.5674
 30
-4.97000e-14
  70
    32
  0
VERTEX
  8
0
  5
126A
 10
219.917
 20
35.5896
 30
-4.97000e-14
  70
    32
  0
VERTEX
  8
0
  5
126B
 10
219.940
 20
35.6065
 30
-4.97000e-14
  70
    32
  0
VERTEX
  8
0
  5
126C
 10
219.963
 20
35.6180
 30
-4.97000e-14
  70
    32
  0
VERTEX
  8
0
  5
126D
 10
219.986
 20
35.6241
 30
-4.97000e-14
  70
    32
  0
VERTEX
  8
0
  5
126E
 10
220.009
 20
35.6247
 30
-4.97000e-14
  70
    32
  0
SEQEND
  8
0
  5
126F
  0
POLYLINE
  5
E48
  8
0
  6
VERDECKT
 62
     1
 10
220.0085487764093841
 20
-35.6247388890579302
 30
-0.0000000000000497
 66
     1
 70
     8
  0
VERTEX
  8
0
  5
1270
 10
220.009
 20
-35.6247
 30
-4.97000e-14
  70
    32
  0
VERTEX
  8
0
  5
1271
 10
219.986
 20
-35.6241
 30
-4.97000e-14
  70
    32
  0
VERTEX
  8
0
  5
1272
 10
219.963
 20
-35.6180
 30
-4.97000e-14
  70
    32
  0
VERTEX
  8
0
  5
1273
 10
219.940
 20
-35.6065
 30
-4.97000e-14
  70
    32
  0
VERTEX
  8
0
  5
1274
 10
219.917
 20
-35.5896
 30
-4.97000e-14
  70
    32
  0
VERTEX
  8
0
  5
1275
 10
219.894
 20
-35.5674
 30
-4.97000e-14
  70
    32
  0
VERTEX
  8
0
  5
1276
 10
219.871
 20
-35.5397
 30
-4.97000e-14
  70
    32
  0
VERTEX
  8
0
  5
1277
 10
219.848
 20
-35.5067
 30
-4.97000e-14
  70
    32
  0
VERTEX
  8
0
  5
1278
 10
219.825
 20
-35.4683
 30
-4.97000e-14
  70
    32
  0
VERTEX
  8
0
  5
1279
 10
219.802
 20
-35.4245
 30
-4.97000e-14
  70
    32
  0
VERTEX
  8
0
  5
127A
 10
219.780
 20
-35.3753
 30
-4.97000e-14
  70
    32
  0
VERTEX
  8
0
  5
127B
 10
219.757
 20
-35.3208
 30
-4.97000e-14
  70
    32
  0
VERTEX
  8
0
  5
127C
 10
219.734
 20
-35.2609
 30
-4.97000e-14
  70
    32
  0
VERTEX
  8
0
  5
127D
 10
219.711
 20
-35.1957
 30
-4.97000e-14
  70
    32
  0
VERTEX
  8
0
  5
127E
 10
219.689
 20
-35.1252
 30
-4.97000e-14
  70
    32
  0
VERTEX
  8
0
  5
127F
 10
219.666
 20
-35.0494
 30
-4.97000e-14
  70
    32
  0
VERTEX
  8
0
  5
1280
 10
219.644
 20
-34.9682
 30
-4.97000e-14
  70
    32
  0
VERTEX
  8
0
  5
1281
 10
219.621
 20
-34.8817
 30
-4.97000e-14
  70
    32
  0
VERTEX
  8
0
  5
1282
 10
219.599
 20
-34.7900
 30
-4.97000e-14
  70
    32
  0
VERTEX
  8
0
  5
1283
 10
219.576
 20
-34.6930
 30
-4.97000e-14
  70
    32
  0
VERTEX
  8
0
  5
1284
 10
219.554
 20
-34.5907
 30
-4.97000e-14
  70
    32
  0
VERTEX
  8
0
  5
1285
 10
219.532
 20
-34.4832
 30
-4.97000e-14
  70
    32
  0
VERTEX
  8
0
  5
1286
 10
219.510
 20
-34.3705
 30
-4.97000e-14
  70
    32
  0
VERTEX
  8
0
  5
1287
 10
219.487
 20
-34.2525
 30
-4.97000e-14
  70
    32
  0
VERTEX
  8
0
  5
1288
 10
219.465
 20
-34.1294
 30
-4.97000e-14
  70
    32
  0
VERTEX
  8
0
  5
1289
 10
219.443
 20
-34.0011
 30
-4.97000e-14
  70
    32
  0
VERTEX
  8
0
  5
128A
 10
219.422
 20
-33.8677
 30
-4.97000e-14
  70
    32
  0
VERTEX
  8
0
  5
128B
 10
219.400
 20
-33.7291
 30
-4.97000e-14
  70
    32
  0
VERTEX
  8
0
  5
128C
 10
219.378
 20
-33.5854
 30
-4.97000e-14
  70
    32
  0
VERTEX
  8
0
  5
128D
 10
219.357
 20
-33.4366
 30
-4.97000e-14
  70
    32
  0
VERTEX
  8
0
  5
128E
 10
219.335
 20
-33.2828
 30
-4.97000e-14
  70
    32
  0
VERTEX
  8
0
  5
128F
 10
219.314
 20
-33.1239
 30
-4.97000e-14
  70
    32
  0
VERTEX
  8
0
  5
1290
 10
219.292
 20
-32.9600
 30
-4.97000e-14
  70
    32
  0
VERTEX
  8
0
  5
1291
 10
219.271
 20
-32.7911
 30
-4.97000e-14
  70
    32
  0
VERTEX
  8
0
  5
1292
 10
219.250
 20
-32.6173
 30
-4.97000e-14
  70
    32
  0
VERTEX
  8
0
  5
1293
 10
219.229
 20
-32.4385
 30
-4.97000e-14
  70
    32
  0
VERTEX
  8
0
  5
1294
 10
219.208
 20
-32.2547
 30
-4.97000e-14
  70
    32
  0
VERTEX
  8
0
  5
1295
 10
219.188
 20
-32.0661
 30
-4.97000e-14
  70
    32
  0
VERTEX
  8
0
  5
1296
 10
219.167
 20
-31.8727
 30
-4.97000e-14
  70
    32
  0
VERTEX
  8
0
  5
1297
 10
219.147
 20
-31.6744
 30
-4.97000e-14
  70
    32
  0
VERTEX
  8
0
  5
1298
 10
219.126
 20
-31.4713
 30
-4.97000e-14
  70
    32
  0
VERTEX
  8
0
  5
1299
 10
219.106
 20
-31.2635
 30
-4.97000e-14
  70
    32
  0
VERTEX
  8
0
  5
129A
 10
219.086
 20
-31.0509
 30
-4.97000e-14
  70
    32
  0
VERTEX
  8
0
  5
129B
 10
219.066
 20
-30.8336
 30
-4.97000e-14
  70
    32
  0
VERTEX
  8
0
  5
129C
 10
219.046
 20
-30.6116
 30
-4.97000e-14
  70
    32
  0
VERTEX
  8
0
  5
129D
 10
219.027
 20
-30.3851
 30
-4.97000e-14
  70
    32
  0
VERTEX
  8
0
  5
129E
 10
219.007
 20
-30.1539
 30
-4.97000e-14
  70
    32
  0
VERTEX
  8
0
  5
129F
 10
218.988
 20
-29.9181
 30
-4.97000e-14
  70
    32
  0
VERTEX
  8
0
  5
12A0
 10
218.969
 20
-29.6778
 30
-4.97000e-14
  70
    32
  0
VERTEX
  8
0
  5
12A1
 10
218.950
 20
-29.4330
 30
-4.97000e-14
  70
    32
  0
VERTEX
  8
0
  5
12A2
 10
218.931
 20
-29.1838
 30
-4.97000e-14
  70
    32
  0
VERTEX
  8
0
  5
12A3
 10
218.912
 20
-28.9301
 30
-4.97000e-14
  70
    32
  0
VERTEX
  8
0
  5
12A4
 10
218.893
 20
-28.6720
 30
-4.97000e-14
  70
    32
  0
VERTEX
  8
0
  5
12A5
 10
218.875
 20
-28.4096
 30
-4.97000e-14
  70
    32
  0
VERTEX
  8
0
  5
12A6
 10
218.857
 20
-28.1429
 30
-4.97000e-14
  70
    32
  0
VERTEX
  8
0
  5
12A7
 10
218.839
 20
-27.8720
 30
-4.97000e-14
  70
    32
  0
VERTEX
  8
0
  5
12A8
 10
218.821
 20
-27.5968
 30
-4.97000e-14
  70
    32
  0
VERTEX
  8
0
  5
12A9
 10
218.803
 20
-27.3174
 30
-4.97000e-14
  70
    32
  0
VERTEX
  8
0
  5
12AA
 10
218.786
 20
-27.0339
 30
-4.97000e-14
  70
    32
  0
VERTEX
  8
0
  5
12AB
 10
218.768
 20
-26.7463
 30
-4.97000e-14
  70
    32
  0
VERTEX
  8
0
  5
12AC
 10
218.751
 20
-26.4547
 30
-4.97000e-14
  70
    32
  0
VERTEX
  8
0
  5
12AD
 10
218.734
 20
-26.1590
 30
-4.97000e-14
  70
    32
  0
VERTEX
  8
0
  5
12AE
 10
218.718
 20
-25.8594
 30
-4.97000e-14
  70
    32
  0
VERTEX
  8
0
  5
12AF
 10
218.701
 20
-25.5559
 30
-4.97000e-14
  70
    32
  0
VERTEX
  8
0
  5
12B0
 10
218.685
 20
-25.2484
 30
-4.97000e-14
  70
    32
  0
VERTEX
  8
0
  5
12B1
 10
218.668
 20
-24.9372
 30
-4.97000e-14
  70
    32
  0
VERTEX
  8
0
  5
12B2
 10
218.653
 20
-24.6222
 30
-4.97000e-14
  70
    32
  0
VERTEX
  8
0
  5
12B3
 10
218.637
 20
-24.3035
 30
-4.97000e-14
  70
    32
  0
VERTEX
  8
0
  5
12B4
 10
218.621
 20
-23.9810
 30
-4.97000e-14
  70
    32
  0
VERTEX
  8
0
  5
12B5
 10
218.606
 20
-23.6550
 30
-4.97000e-14
  70
    32
  0
VERTEX
  8
0
  5
12B6
 10
218.591
 20
-23.3254
 30
-4.97000e-14
  70
    32
  0
VERTEX
  8
0
  5
12B7
 10
218.576
 20
-22.9922
 30
-4.97000e-14
  70
    32
  0
VERTEX
  8
0
  5
12B8
 10
218.561
 20
-22.6555
 30
-4.97000e-14
  70
    32
  0
VERTEX
  8
0
  5
12B9
 10
218.547
 20
-22.3154
 30
-4.97000e-14
  70
    32
  0
VERTEX
  8
0
  5
12BA
 10
218.532
 20
-21.9720
 30
-4.97000e-14
  70
    32
  0
VERTEX
  8
0
  5
12BB
 10
218.518
 20
-21.6252
 30
-4.97000e-14
  70
    32
  0
VERTEX
  8
0
  5
12BC
 10
218.505
 20
-21.2751
 30
-4.97000e-14
  70
    32
  0
VERTEX
  8
0
  5
12BD
 10
218.491
 20
-20.9218
 30
-4.97000e-14
  70
    32
  0
VERTEX
  8
0
  5
12BE
 10
218.478
 20
-20.5654
 30
-4.97000e-14
  70
    32
  0
VERTEX
  8
0
  5
12BF
 10
218.464
 20
-20.2058
 30
-4.97000e-14
  70
    32
  0
VERTEX
  8
0
  5
12C0
 10
218.452
 20
-19.8432
 30
-4.97000e-14
  70
    32
  0
VERTEX
  8
0
  5
12C1
 10
218.439
 20
-19.4775
 30
-4.97000e-14
  70
    32
  0
VERTEX
  8
0
  5
12C2
 10
218.426
 20
-19.1089
 30
-4.97000e-14
  70
    32
  0
VERTEX
  8
0
  5
12C3
 10
218.414
 20
-18.7374
 30
-4.97000e-14
  70
    32
  0
VERTEX
  8
0
  5
12C4
 10
218.402
 20
-18.3631
 30
-4.97000e-14
  70
    32
  0
VERTEX
  8
0
  5
12C5
 10
218.391
 20
-17.9860
 30
-4.97000e-14
  70
    32
  0
VERTEX
  8
0
  5
12C6
 10
218.379
 20
-17.6062
 30
-4.97000e-14
  70
    32
  0
VERTEX
  8
0
  5
12C7
 10
218.368
 20
-17.2237
 30
-4.97000e-14
  70
    32
  0
VERTEX
  8
0
  5
12C8
 10
218.357
 20
-16.8386
 30
-4.97000e-14
  70
    32
  0
VERTEX
  8
0
  5
12C9
 10
218.346
 20
-16.4509
 30
-4.97000e-14
  70
    32
  0
VERTEX
  8
0
  5
12CA
 10
218.336
 20
-16.0608
 30
-4.97000e-14
  70
    32
  0
VERTEX
  8
0
  5
12CB
 10
218.326
 20
-15.6682
 30
-4.97000e-14
  70
    32
  0
VERTEX
  8
0
  5
12CC
 10
218.316
 20
-15.2732
 30
-4.97000e-14
  70
    32
  0
VERTEX
  8
0
  5
12CD
 10
218.306
 20
-14.8759
 30
-4.97000e-14
  70
    32
  0
VERTEX
  8
0
  5
12CE
 10
218.296
 20
-14.4764
 30
-4.97000e-14
  70
    32
  0
VERTEX
  8
0
  5
12CF
 10
218.287
 20
-14.0747
 30
-4.97000e-14
  70
    32
  0
VERTEX
  8
0
  5
12D0
 10
218.278
 20
-13.6709
 30
-4.97000e-14
  70
    32
  0
VERTEX
  8
0
  5
12D1
 10
218.270
 20
-13.2649
 30
-4.97000e-14
  70
    32
  0
VERTEX
  8
0
  5
12D2
 10
218.261
 20
-12.8570
 30
-4.97000e-14
  70
    32
  0
VERTEX
  8
0
  5
12D3
 10
218.253
 20
-12.4471
 30
-4.97000e-14
  70
    32
  0
VERTEX
  8
0
  5
12D4
 10
218.245
 20
-12.0354
 30
-4.97000e-14
  70
    32
  0
VERTEX
  8
0
  5
12D5
 10
218.238
 20
-11.6218
 30
-4.97000e-14
  70
    32
  0
VERTEX
  8
0
  5
12D6
 10
218.230
 20
-11.2064
 30
-4.97000e-14
  70
    32
  0
VERTEX
  8
0
  5
12D7
 10
218.223
 20
-10.7894
 30
-4.97000e-14
  70
    32
  0
VERTEX
  8
0
  5
12D8
 10
218.216
 20
-10.3707
 30
-4.97000e-14
  70
    32
  0
VERTEX
  8
0
  5
12D9
 10
218.210
 20
-9.95048
 30
-4.97000e-14
  70
    32
  0
VERTEX
  8
0
  5
12DA
 10
218.203
 20
-9.52873
 30
-4.97000e-14
  70
    32
  0
VERTEX
  8
0
  5
12DB
 10
218.197
 20
-9.10553
 30
-4.97000e-14
  70
    32
  0
VERTEX
  8
0
  5
12DC
 10
218.192
 20
-8.68095
 30
-4.97000e-14
  70
    32
  0
VERTEX
  8
0
  5
12DD
 10
218.186
 20
-8.25506
 30
-4.97000e-14
  70
    32
  0
VERTEX
  8
0
  5
12DE
 10
218.181
 20
-7.82792
 30
-4.97000e-14
  70
    32
  0
VERTEX
  8
0
  5
12DF
 10
218.176
 20
-7.39959
 30
-4.97000e-14
  70
    32
  0
VERTEX
  8
0
  5
12E0
 10
218.172
 20
-6.97014
 30
-4.97000e-14
  70
    32
  0
VERTEX
  8
0
  5
12E1
 10
218.167
 20
-6.53963
 30
-4.97000e-14
  70
    32
  0
VERTEX
  8
0
  5
12E2
 10
218.163
 20
-6.10814
 30
-4.97000e-14
  70
    32
  0
VERTEX
  8
0
  5
12E3
 10
218.159
 20
-5.67572
 30
-4.97000e-14
  70
    32
  0
VERTEX
  8
0
  5
12E4
 10
218.156
 20
-5.24244
 30
-4.97000e-14
  70
    32
  0
VERTEX
  8
0
  5
12E5
 10
218.153
 20
-4.80836
 30
-4.97000e-14
  70
    32
  0
VERTEX
  8
0
  5
12E6
 10
218.150
 20
-4.37356
 30
-4.97000e-14
  70
    32
  0
VERTEX
  8
0
  5
12E7
 10
218.147
 20
-3.93809
 30
-4.97000e-14
  70
    32
  0
VERTEX
  8
0
  5
12E8
 10
218.145
 20
-3.50203
 30
-4.97000e-14
  70
    32
  0
VERTEX
  8
0
  5
12E9
 10
218.142
 20
-3.06544
 30
-4.97000e-14
  70
    32
  0
VERTEX
  8
0
  5
12EA
 10
218.141
 20
-2.62838
 30
-4.97000e-14
  70
    32
  0
VERTEX
  8
0
  5
12EB
 10
218.139
 20
-2.19093
 30
-4.97000e-14
  70
    32
  0
VERTEX
  8
0
  5
12EC
 10
218.138
 20
-1.75314
 30
-4.97000e-14
  70
    32
  0
VERTEX
  8
0
  5
12ED
 10
218.137
 20
-1.31509
 30
-4.97000e-14
  70
    32
  0
VERTEX
  8
0
  5
12EE
 10
218.136
 20
-0.876836
 30
-4.97000e-14
  70
    32
  0
VERTEX
  8
0
  5
12EF
 10
218.136
 20
-0.438451
 30
-4.97000e-14
  70
    32
  0
VERTEX
  8
0
  5
12F0
 10
218.136
 20
1.40916e-13
 30
-4.97000e-14
  70
    32
  0
SEQEND
  8
0
  5
12F1
  0
LINE
  5
E49
  8
0
  6
VERDECKT
 62
     1
 10
156.4119455861950883
 20
34.8999999999999702
 30
-0.0000000000000355
 11
103.8636710363189053
 21
34.8999999999999702
 31
-0.0000000000000284
  0
LINE
  5
E4A
  8
0
  6
VERDECKT
 62
     1
 10
103.8636710363189053
 20
-34.9000000000000412
 30
-0.0000000000000284
 11
156.4119455861950883
 21
-34.9000000000000412
 31
-0.0000000000000355
  0
LINE
  5
E4B
  8
0
  6
VERDECKT
 62
     1
 10
99.931476737728417
 20
34.8999999999999702
 30
-0.0000000000000284
 11
103.8636710363189053
 21
34.8999999999999773
 31
-0.0000000000000284
  0
LINE
  5
E4C
  8
0
  6
VERDECKT
 62
     1
 10
99.9314767377285165
 20
-34.9000000000000412
 30
-0.0000000000000284
 11
103.8636710363190048
 21
-34.9000000000000412
 31
-0.0000000000000284
  0
LINE
  5
E4D
  8
0
  6
VERDECKT
 62
     1
 10
-0.0000000000001811
 20
-34.9000000000000412
 30
0.0
 11
99.931476737728957
 21
-34.9000000000000412
 31
-0.0000000000000284
  0
LINE
  5
E4E
  8
0
  6
VERDECKT
 62
     1
 10
99.9314767377289712
 20
34.8999999999999702
 30
-0.0000000000000284
 11
-0.0000000000001847
 21
34.8999999999999702
 31
0.0
  0
LINE
  5
E4F
  8
0
  6
VERDECKT
 62
     1
 10
-0.0000000000000745
 20
-36.5000000000000426
 30
0.0
 11
20.97999046710963
 21
-36.5000000000000426
 31
0.0
  0
LINE
  5
E50
  8
0
  6
VERDECKT
 62
     1
 10
20.9799904671096087
 20
36.4999999999999716
 30
0.0
 11
-0.0000000000000746
 21
36.4999999999999716
 31
0.0
  0
LINE
  5
E51
  8
0
  6
VERDECKT
 62
     1
 10
156.4119455861952019
 20
34.9000000000000981
 30
-0.0000000000000355
 11
209.9439428810875086
 21
34.9000000000000981
 31
-0.0000000000000475
  0
LINE
  5
E52
  8
0
  6
VERDECKT
 62
     1
 10
156.4119455861952019
 20
-34.900000000000162
 30
-0.0000000000000355
 11
209.9439428810875086
 21
-34.900000000000162
 31
-0.0000000000000475
  0
LINE
  5
E53
  8
0
  6
VERDECKT
 62
     1
 10
220.0081633659823126
 20
-34.018644031736109
 30
-0.0000000000000497
 11
209.9523176557480042
 21
-34.8996331463933913
 31
-0.0000000000000474
  0
LINE
  5
E54
  8
0
  6
VERDECKT
 62
     1
 10
220.0081633659823126
 20
34.0186440317360521
 30
-0.0000000000000497
 11
209.9523176557480042
 21
34.8996331463933416
 31
-0.0000000000000474
  0
ENDBLK
  5
E56
  8
0
  0
BLOCK
  8
0
  2
A$C73835CC4
 70
     0
 10
0.0
 20
0.0
 30
0.0
  3
A$C73835CC4
  1

  0
LINE
  5
E5A
  8
0
  6
AUSGEZOGEN
 62
     3
 10
-39.7653973282765492
 20
0.0000000000000568
 30
0.0
 11
39.7653973282765492
 21
-0.0000000000000568
 31
0.0
210
0.0
220
1.0
230
-0.0000000000000002
  0
LINE
  5
E5B
  8
0
  6
AUSGEZOGEN
 62
     3
 10
218.1355256257930932
 20
-91.1801810982185259
 30
0.0000000000000202
 11
221.8644743742071057
 21
-20.0276003281986199
 31
0.0000000000000044
210
0.0
220
1.0
230
-0.0000000000000002
  0
ARC
  5
E5C
  8
0
  6
AUSGEZOGEN
 62
     3
 10
17.099999999998559
 20
-10.5489224071166099
 30
0.0
 40
25.000000000001549
210
0.0
220
-0.0000000000000002
230
-1.0
 50
0.0000000000008015
 51
24.9581963123086794
  0
ARC
  5
E5D
  8
0
  6
AUSGEZOGEN
 62
     3
 10
-17.0999999999987402
 20
-10.5489224071166596
 30
0.0
 40
25.0000000000013713
210
0.0
220
-0.0000000000000002
230
-1.0
 50
155.0418036876912993
 51
179.9999999999996021
  0
LINE
  5
E5E
  8
0
  6
AUSGEZOGEN
 62
     3
 10
42.1000000000001435
 20
-10.5489224071164696
 30
0.0000000000000023
 11
42.1000000000001293
 21
-19.6982800481967786
 31
0.0000000000000044
210
0.0
220
1.0
230
-0.0000000000000002
  0
LINE
  5
E5F
  8
0
  6
AUSGEZOGEN
 62
     3
 10
-42.1000000000001293
 20
-10.5489224071162706
 30
0.0000000000000023
 11
-42.1000000000001435
 21
-19.6982800481965796
 31
0.0000000000000044
210
0.0
220
1.0
230
-0.0000000000000002
  0
ARC
  5
E60
  8
0
  6
AUSGEZOGEN
 62
     3
 10
17.0999999999935213
 20
-19.6299999999961301
 30
0.0
 40
25.0000932431323299
210
0.0
220
-0.0000000000000002
230
-1.0
 50
338.8168456069668082
 51
359.8435140456261934
  0
ARC
  5
E61
  8
0
  6
AUSGEZOGEN
 62
     3
 10
-17.0999999999936207
 20
-19.6299999999962402
 30
0.0
 40
25.0000932431322092
210
0.0
220
-0.0000000000000002
230
-1.0
 50
180.1564859543738919
 51
201.1831543930335897
  0
ARC
  5
E62
  8
0
  6
AUSGEZOGEN
 62
     3
 10
51.599999999998559
 20
-32.9999999999970512
 30
0.0
 40
11.99999999999838
210
0.0
220
-0.0000000000000002
230
-1.0
 50
158.8168456069639944
 51
180.0000000000023022
  0
ARC
  5
E63
  8
0
  6
AUSGEZOGEN
 62
     3
 10
-51.5999999999983103
 20
-32.9999999999972715
 30
0.0
 40
11.9999999999983604
210
0.0
220
-0.0000000000000002
230
-1.0
 50
0.0
 51
21.1831543930381798
  0
LINE
  5
E64
  8
0
  6
AUSGEZOGEN
 62
     3
 10
39.5999999999999233
 20
-32.9999999999977121
 30
0.0000000000000073
 11
39.5999999999999019
 21
-49.6112735825807789
 31
0.000000000000011
210
0.0
220
1.0
230
-0.0000000000000002
  0
LINE
  5
E65
  8
0
  6
AUSGEZOGEN
 62
     3
 10
-39.6000000000001222
 20
-32.9999999999975628
 30
0.0000000000000073
 11
-39.6000000000001506
 21
-49.61127358258058
 31
0.000000000000011
210
0.0
220
1.0
230
-0.0000000000000002
  0
ARC
  5
E66
  8
0
  6
AUSGEZOGEN
 62
     3
 10
26.5181501981140784
 20
-49.2977034903610019
 30
0.0
 40
13.0856073776436101
210
0.0
220
-0.0000000000000002
230
-1.0
 50
329.0450446861306091
 51
358.6268911917080118
  0
ARC
  5
E67
  8
0
  6
AUSGEZOGEN
 62
     3
 10
-26.5181501981138297
 20
-49.2977034903611084
 30
0.0
 40
13.0856073776436297
210
0.0
220
-0.0000000000000002
230
-1.0
 50
181.3731088082923009
 51
210.9549553138695046
  0
ARC
  5
E68
  8
0
  6
AUSGEZOGEN
 62
     3
 10
45.2061500698031082
 20
-60.5065996645657265
 30
0.0
 40
8.7061500698031455
210
0.0
220
-0.0000000000000002
230
-1.0
 50
149.04504468612609
 51
180.0000000000030127
  0
ARC
  5
E69
  8
0
  6
AUSGEZOGEN
 62
     3
 10
-45.206150069802959
 20
-60.5065996645659609
 30
0.0
 40
8.7061500698032201
210
0.0
220
-0.0000000000000002
230
-1.0
 50
0.0
 51
30.9549553138765212
  0
ARC
  5
E6A
  8
0
  6
AUSGEZOGEN
 62
     3
 10
-153.7951477740477912
 20
-102.2028587301804947
 30
0.0
 40
86.4999999999998437
210
0.0
220
-0.0000000000000002
230
-1.0
 50
2.9999999999998779
 51
92.9999999999991047
  0
ARC
  5
E6B
  8
0
  6
AUSGEZOGEN
 62
     3
 10
153.795147774047706
 20
-102.2028587301803952
 30
0.0000000000000227
 40
13.4999999999998295
 50
86.9999999999996732
 51
177.0000000000009095
  0
LINE
  5
E6C
  8
0
  6
AUSGEZOGEN
 62
     3
 10
63.4814987191869307
 20
-172.706535409277393
 30
0.0000000000000383
 11
67.4136930177774332
 21
-97.6757985151659938
 31
0.0000000000000217
210
0.0
220
1.0
230
-0.0000000000000002
  0
LINE
  5
E6D
  8
0
  6
AUSGEZOGEN
 62
     3
 10
136.3814547562708128
 20
-176.5270602150123125
 30
0.0000000000000392
 11
140.3136490548612869
 21
-101.496323320900899
 31
0.0000000000000225
210
0.0
220
1.0
230
-0.0000000000000002
  0
ARC
  5
E6E
  8
0
  6
AUSGEZOGEN
 62
     3
 10
-50.0000000000001208
 20
-171.9999999999976978
 30
0.0
 40
86.5000000000002274
210
0.0
220
-0.0000000000000002
230
-1.0
 50
183.0
 51
0.0
  0
ARC
  5
E6F
  8
0
  6
AUSGEZOGEN
 62
     3
 10
50.0000000000000995
 20
-171.9999999999976978
 30
0.0000000000000382
 40
13.5000000000002096
 50
180.0
 51
357.0
  0
LINE
  5
E70
  8
0
  6
AUSGEZOGEN
 62
     3
 10
36.4999999999998934
 20
-60.5065996645663304
 30
0.0000000000000134
 11
36.4999999999998934
 21
-171.9999999999976978
 31
0.0000000000000382
210
0.0
220
1.0
230
-0.0000000000000002
  0
LINE
  5
E71
  8
0
  6
AUSGEZOGEN
 62
     3
 10
-36.5000000000001066
 20
-60.5065996645662025
 30
0.0000000000000134
 11
-36.5000000000001066
 21
-171.9999999999976978
 31
0.0000000000000382
210
0.0
220
1.0
230
-0.0000000000000002
  0
LINE
  5
E72
  8
0
  6
AUSGEZOGEN
 62
     3
 10
158.3222079890610985
 20
-15.8214039739097103
 30
0.0000000000000035
 11
211.9239670553210999
 21
-18.6305531322371216
 31
0.0000000000000041
210
0.0
220
1.0
230
-0.0000000000000002
  0
LINE
  5
E73
  8
0
  6
AUSGEZOGEN
 62
     3
 10
154.5016831833274864
 20
-88.7213600109937346
 30
0.0000000000000197
 11
208.1034422495860952
 21
-91.5305091693210642
 31
0.0000000000000203
210
0.0
220
1.0
230
-0.0000000000000002
  0
LINE
  5
E74
  8
0
  6
AUSGEZOGEN
 62
     3
 10
218.1355256257930932
 20
-91.1801810982185401
 30
0.0000000000000202
 11
208.1034422495860952
 21
-91.5305091693210642
 31
0.0000000000000203
210
0.0
220
1.0
230
-0.0000000000000002
  0
LINE
  5
E75
  8
0
  6
AUSGEZOGEN
 62
     3
 10
221.864474374207191
 20
-20.0276003281985702
 30
0.0000000000000044
 11
211.9239670553210999
 21
-18.6305531322370506
 31
0.0000000000000041
210
0.0
220
1.0
230
-0.0000000000000002
  0
ARC
  5
E76
  8
0
  6
VERDECKT
 62
     1
 10
17.0999999999989214
 20
-10.5489224071165797
 30
0.0
 40
23.400000000001171
210
0.0
220
-0.0000000000000002
230
-1.0
 50
0.0000000000009033
 51
26.7955779312305502
  0
ARC
  5
E77
  8
0
  6
VERDECKT
 62
     1
 10
-17.0999999999984702
 20
-10.5489224071167396
 30
0.0
 40
23.4000000000016186
210
0.0
220
-0.0000000000000002
230
-1.0
 50
153.2044220687751022
 51
179.9999999999990052
  0
LINE
  5
E78
  8
0
  6
VERDECKT
 62
     1
 10
40.5000000000001208
 20
-10.5489224071163505
 30
0.0000000000000023
 11
40.5000000000000995
 21
-19.698280048191549
 31
0.0000000000000044
210
0.0
220
1.0
230
-0.0000000000000002
  0
LINE
  5
E79
  8
0
  6
VERDECKT
 62
     1
 10
-40.5000000000000995
 20
-10.5489224071162102
 30
0.0000000000000023
 11
-40.5000000000001208
 21
-19.69828004819135
 31
0.0000000000000044
210
0.0
220
1.0
230
-0.0000000000000002
  0
ARC
  5
E7A
  8
0
  6
VERDECKT
 62
     1
 10
17.099910630714259
 20
-19.6299653661627111
 30
0.0
 40
23.4001890886877817
210
0.0
220
-0.0000000000000002
230
-1.0
 50
338.8168456069670924
 51
359.832730047428015
  0
ARC
  5
E7B
  8
0
  6
VERDECKT
 62
     1
 10
-17.0999106307140707
 20
-19.6299653661627609
 30
0.0
 40
23.40018908868797
210
0.0
220
-0.0000000000000002
230
-1.0
 50
180.1672699525722976
 51
201.1831543930331918
  0
ARC
  5
E7C
  8
0
  6
VERDECKT
 62
     1
 10
51.6000000000012378
 20
-32.9999999999977334
 30
0.0
 40
13.6000000000010903
210
0.0
220
-0.0000000000000002
230
-1.0
 50
158.8168456069666092
 51
179.9999999999992895
  0
ARC
  5
E7D
  8
0
  6
VERDECKT
 62
     1
 10
-51.6000000000013515
 20
-32.9999999999980034
 30
0.0
 40
13.6000000000014207
210
0.0
220
-0.0000000000000002
230
-1.0
 50
0.0000000000012595
 51
21.1831543930332415
  0
LINE
  5
E7E
  8
0
  6
VERDECKT
 62
     1
 10
37.9999999999999005
 20
-32.9999999999976978
 30
0.0000000000000073
 11
37.9999999999998721
 21
-49.6112735825807079
 31
0.000000000000011
210
0.0
220
1.0
230
-0.0000000000000002
  0
LINE
  5
E7F
  8
0
  6
VERDECKT
 62
     1
 10
-38.0000000000000995
 20
-32.9999999999975628
 30
0.0000000000000073
 11
-38.0000000000001279
 21
-49.61127358258058
 31
0.000000000000011
210
0.0
220
1.0
230
-0.0000000000000002
  0
ARC
  5
E80
  8
0
  6
VERDECKT
 62
     1
 10
26.5173553269232301
 20
-49.2963971621463486
 30
0.0
 40
11.4869611233035194
210
0.0
220
-0.0000000000000002
230
-1.0
 50
329.0450449045592904
 51
358.4292320772051994
  0
ARC
  5
E81
  8
0
  6
VERDECKT
 62
     1
 10
-26.5173553269229814
 20
-49.2963971621464623
 30
0.0
 40
11.4869611233035407
210
0.0
220
-0.0000000000000002
230
-1.0
 50
181.5707679227948006
 51
210.9549550954407948
  0
ARC
  5
E82
  8
0
  6
VERDECKT
 62
     1
 10
45.2087195790597889
 20
-60.5073111649397575
 30
0.0
 40
10.3087194208795001
210
0.0
220
-0.0000000000000002
230
-1.0
 50
149.0450449045573009
 51
179.9999997815741892
  0
ARC
  5
E83
  8
0
  6
VERDECKT
 62
     1
 10
-45.2087195790595473
 20
-60.5073111649399635
 30
0.0
 40
10.3087194208795001
210
0.0
220
-0.0000000000000002
230
-1.0
 50
0.0000002184261957
 51
30.95495509544293
  0
ARC
  5
E84
  8
0
  6
VERDECKT
 62
     1
 10
-153.7951477740473081
 20
-102.2028587301804947
 30
0.0
 40
84.8999999999997073
210
0.0
220
-0.0000000000000002
230
-1.0
 50
2.9999999999998899
 51
93.0000000000004547
  0
ARC
  5
E85
  8
0
  6
VERDECKT
 62
     1
 10
153.7951477740473081
 20
-102.2028587301805942
 30
0.0000000000000227
 40
15.0999999999997208
 50
86.9999999999977973
 51
177.0000000000003126
  0
LINE
  5
E86
  8
0
  6
VERDECKT
 62
     1
 10
65.0793059747937832
 20
-172.7902729392662025
 30
0.0000000000000384
 11
69.0115002733842857
 21
-97.7595360451547748
 31
0.0000000000000217
210
0.0
220
1.0
230
-0.0000000000000002
  0
LINE
  5
E87
  8
0
  6
VERDECKT
 62
     1
 10
134.7836475006629939
 20
-176.4433226850235883
 30
0.0000000000000392
 11
138.7158417992534964
 21
-101.4125857909122033
 31
0.0000000000000225
210
0.0
220
1.0
230
-0.0000000000000002
  0
ARC
  5
E88
  8
0
  6
VERDECKT
 62
     1
 10
-50.0
 20
-171.9999999999978115
 30
0.0
 40
84.9000000000002331
210
0.0
220
-0.0000000000000002
230
-1.0
 50
182.999999999999801
 51
0.0
  0
ARC
  5
E89
  8
0
  6
VERDECKT
 62
     1
 10
50.0
 20
-171.9999999999978115
 30
0.0000000000000382
 40
15.1000000000002306
 50
179.999999999999801
 51
357.0000000000001137
  0
LINE
  5
E8A
  8
0
  6
VERDECKT
 62
     1
 10
34.8999999999997712
 20
-60.5073111256404772
 30
0.0000000000000134
 11
34.8999999999997712
 21
-171.9999999999976978
 31
0.0000000000000382
210
0.0
220
1.0
230
-0.0000000000000002
  0
LINE
  5
E8B
  8
0
  6
VERDECKT
 62
     1
 10
-34.9000000000002331
 20
-60.5073111256403635
 30
0.0000000000000134
 11
-34.9000000000002331
 21
-171.9999999999976978
 31
0.0000000000000382
210
0.0
220
1.0
230
-0.0000000000000002
  0
LINE
  5
E8C
  8
0
  6
VERDECKT
 62
     1
 10
158.2384704590739943
 20
-17.4192112295168293
 30
0.0000000000000039
 11
211.7704677539663862
 21
-20.224704328328091
 31
0.0000000000000045
210
0.0
220
1.0
230
-0.0000000000000002
  0
LINE
  5
E8D
  8
0
  6
VERDECKT
 62
     1
 10
154.5854207133164095
 20
-87.1235527553863562
 30
0.0000000000000193
 11
208.1174180082086878
 21
-89.9290458541975966
 31
0.00000000000002
210
0.0
220
1.0
230
-0.0000000000000002
  0
LINE
  5
E8E
  8
0
  6
VERDECKT
 62
     1
 10
218.219583019542597
 20
-89.5762704784692261
 30
0.0000000000000199
 11
208.1174180082086878
 21
-89.9290458541975823
 31
0.00000000000002
210
0.0
220
1.0
230
-0.0000000000000002
  0
LINE
  5
E8F
  8
0
  6
VERDECKT
 62
     1
 10
221.7804169804574883
 20
-21.6315109479477385
 30
0.0000000000000048
 11
211.7704677539663862
 21
-20.224704328328091
 31
0.0000000000000045
210
0.0
220
1.0
230
-0.0000000000000002
  0
ENDBLK
  5
E91
  8
0
  0
ENDSEC
  0
SECTION
  2
ENTITIES
  0
TEXT
  5
2B7
  8
VOLL
 10
419.7821283953400098
 20
360.5846686547645277
 30
0.0
 40
1.8
  1

  7
GREEKS
  0
TEXT
  5
2B8
  8
VOLL
 10
509.4483023210131023
 20
365.8767853704839013
 30
0.0
 40
1.8
  1

  7
GREEKS
  0
TEXT
  5
2B9
  8
TEXT
 10
841.2805705246061052
 20
371.4350209037094146
 30
0.0
 40
2.5
  1
  
  7
GREEKS
 72
     1
 11
843.5424752865110349
 21
371.4350209037094146
 31
0.0
  0
TEXT
  5
2BA
  8
BEM
 10
1085.4002878370879444
 20
506.9939029341115884
 30
0.0
 40
2.5
  1
 
 72
     4
 11
1086.5312402180400113
 21
506.9939029341115884
 31
0.0
  0
TEXT
  5
2BC
  8
BEM
 10
651.0896319669376453
 20
389.5134995616452898
 30
0.0
 40
2.5
  1

  7
GREEKS
  0
TEXT
  5
2BD
  8
VOLL
 10
637.0234389472161638
 20
369.3302389046102121
 30
0.0
 40
1.8
  1

  7
GREEKS
  0
TEXT
  5
2BE
  8
BEM
 10
671.5115037865008389
 20
374.0559632278308868
 30
0.0
 40
2.5
  1

 41
0.8
  7
GREEKS
  0
TEXT
  5
2BF
  8
BEM
 10
671.5115037865008389
 20
369.3621946737786175
 30
0.0
 40
2.5
  1

 41
0.8
  7
GREEKS
  0
TEXT
  5
2C0
  8
BEM
 10
671.5115037865008389
 20
364.1243508551152104
 30
0.0
 40
2.5
  1

 41
0.8
  7
GREEKS
  0
TEXT
  5
2C1
  8
BEM
 10
671.4385593091265036
 20
359.6191619050175063
 30
0.0
 40
1.8
  1

 41
0.8
  7
GREEKS
  0
TEXT
  5
2C2
  8
BEM
 10
658.7549884295151514
 20
385.2107510012427838
 30
0.0
 40
2.0
  1

 41
0.8
  7
GREEKS
 72
     1
 11
658.7549884295151514
 21
385.2107510012427838
 31
0.0
  0
TEXT
  5
2C3
  8
TEXT
 10
968.855707150809053
 20
374.8884744378357254
 30
0.0
 40
2.5
  1
  
  7
GREEKS
 72
     1
 11
971.1176119127137554
 21
374.8884744378357254
 31
0.0
  0
TEXT
  5
2C4
  8
BEM
 10
1212.9754244632908922
 20
510.4473564682378992
 30
0.0
 40
2.5
  1
 
 72
     4
 11
1214.1063768442429591
 21
510.4473564682378992
 31
0.0
  0
TEXT
  5
2C5
  8
VOLL
 10
561.7402033425014451
 20
376.781752966599413
 30
0.0
 40
1.8
  1

  7
GREEKS
  0
TEXT
  5
2C6
  8
TEXT
 10
893.5724715460944481
 20
382.3399884998249263
 30
0.0
 40
2.5
  1
  
  7
GREEKS
 72
     1
 11
895.8343763079991504
 21
382.3399884998249263
 31
0.0
  0
TEXT
  5
2C7
  8
BEM
 10
1137.6921888585759461
 20
517.8988705302271001
 30
0.0
 40
2.5
  1
 
 72
     4
 11
1138.8231412395280131
 21
517.8988705302271001
 31
0.0
  0
TEXT
  5
2C8
  8
BEM
 10
716.8798054992973903
 20
397.115163856275899
 30
0.0
 40
2.5
  1

  7
GREEKS
  0
TEXT
  5
2C9
  8
VOLL
 10
702.8136124795759088
 20
376.9319031992408213
 30
0.0
 40
1.8
  1

  7
GREEKS
  0
TEXT
  5
2CA
  8
BEM
 10
737.3016773188603565
 20
381.6576275224613823
 30
0.0
 40
2.5
  1

 41
0.8
  7
GREEKS
  0
TEXT
  5
2CB
  8
BEM
 10
737.3016773188603565
 20
376.9638589684092267
 30
0.0
 40
2.5
  1

 41
0.8
  7
GREEKS
  0
TEXT
  5
2CC
  8
BEM
 10
737.3016773188603565
 20
371.7260151497457059
 30
0.0
 40
2.5
  1

 41
0.8
  7
GREEKS
  0
TEXT
  5
2CD
  8
BEM
 10
737.2287328414861349
 20
367.2208261996481156
 30
0.0
 40
1.8
  1

 41
0.8
  7
GREEKS
  0
TEXT
  5
2CE
  8
BEM
 10
724.5451619618748964
 20
392.812415295873393
 30
0.0
 40
2.0
  1

 41
0.8
  7
GREEKS
 72
     1
 11
724.5451619618748964
 21
392.812415295873393
 31
0.0
  0
TEXT
  5
2CF
  8
TEXT
 10
1034.6458806831690254
 20
382.4901387324662778
 30
0.0
 40
2.5
  1
  
  7
GREEKS
 72
     1
 11
1036.9077854450729319
 21
382.4901387324662778
 31
0.0
  0
TEXT
  5
2D0
  8
BEM
 10
1278.7655979956509782
 20
518.0490207628686221
 30
0.0
 40
2.5
  1
 
 72
     4
 11
1279.8965503766030452
 21
518.0490207628686221
 31
0.0
  0
TEXT
  5
2D1
  8
VOLL
 10
497.7179919157449035
 20
364.9660434408509104
 30
0.0
 40
1.8
  1

  7
GREEKS
  0
TEXT
  5
2D2
  8
TEXT
 10
829.5502601193378496
 20
370.5242789740764238
 30
0.0
 40
2.5
  1
  
  7
GREEKS
 72
     1
 11
831.8121648812426656
 21
370.5242789740764238
 31
0.0
  0
TEXT
  5
2D3
  8
BEM
 10
1073.6699774318199161
 20
506.0831610044784838
 30
0.0
 40
2.5
  1
 
 72
     4
 11
1074.8009298127719831
 21
506.0831610044784838
 31
0.0
  0
TEXT
  5
2D4
  8
BEM
 10
663.0636049953949396
 20
405.1192741394364134
 30
0.0
 40
2.5
  1

  7
GREEKS
  0
TEXT
  5
2D5
  8
VOLL
 10
648.9974119756733444
 20
384.9360134824013926
 30
0.0
 40
1.8
  1

  7
GREEKS
  0
TEXT
  5
2D6
  8
BEM
 10
683.4854768149581332
 20
389.6617378056220105
 30
0.0
 40
2.5
  1

 41
0.8
  7
GREEKS
  0
TEXT
  5
2D7
  8
BEM
 10
683.4854768149581332
 20
384.967969251569798
 30
0.0
 40
2.5
  1

 41
0.8
  7
GREEKS
  0
TEXT
  5
2D8
  8
BEM
 10
683.4854768149581332
 20
379.7301254329063909
 30
0.0
 40
2.5
  1

 41
0.8
  7
GREEKS
  0
TEXT
  5
2D9
  8
BEM
 10
683.4125323375835706
 20
375.2249364828088005
 30
0.0
 40
1.8
  1

 41
0.8
  7
GREEKS
  0
TEXT
  5
2DA
  8
BEM
 10
670.7289614579724457
 20
400.8165255790339074
 30
0.0
 40
2.0
  1

 41
0.8
  7
GREEKS
 72
     1
 11
670.7289614579724457
 21
400.8165255790339074
 31
0.0
  0
TEXT
  5
2DB
  8
TEXT
 10
980.8296801792662336
 20
390.4942490156269059
 30
0.0
 40
2.5
  1
  
  7
GREEKS
 72
     1
 11
983.0915849411710496
 21
390.4942490156269059
 31
0.0
  0
TEXT
  5
2DC
  8
BEM
 10
1224.9493974917479591
 20
526.0531310460291934
 30
0.0
 40
2.5
  1
 
 72
     4
 11
1226.0803498727009355
 21
526.0531310460291934
 31
0.0
  0
TEXT
  5
2DD
  8
VOLL
 10
825.2995681688561262
 20
370.0844868183532981
 30
0.0
 40
1.8
  1

  7
GREEKS
  0
TEXT
  5
2DE
  8
VOLL
 10
914.9657420945294461
 20
375.3766035340726717
 30
0.0
 40
1.8
  1

  7
GREEKS
  0
TEXT
  5
2DF
  8
TEXT
 10
1246.798010298122108
 20
380.934839067298185
 30
0.0
 40
2.5
  1
  
  7
GREEKS
 72
     1
 11
1249.059915060026924
 21
380.934839067298185
 31
0.0
  0
TEXT
  5
2E0
  8
BEM
 10
1490.9177276106040608
 20
516.4937210977003588
 30
0.0
 40
2.5
  1
 
 72
     4
 11
1492.0486799915559004
 21
516.4937210977003588
 31
0.0
  0
TEXT
  5
2E1
  8
BEM
 10
1056.6070717404541028
 20
399.0133177252340033
 30
0.0
 40
2.5
  1

  7
GREEKS
  0
TEXT
  5
2E2
  8
VOLL
 10
1042.5408787207320529
 20
378.8300570681989825
 30
0.0
 40
1.8
  1

  7
GREEKS
  0
TEXT
  5
2E3
  8
BEM
 10
1077.0289435600170691
 20
383.5557813914196004
 30
0.0
 40
2.5
  1

 41
0.8
  7
GREEKS
  0
TEXT
  5
2E4
  8
BEM
 10
1077.0289435600170691
 20
378.8620128373673879
 30
0.0
 40
2.5
  1

 41
0.8
  7
GREEKS
  0
TEXT
  5
2E5
  8
BEM
 10
1077.0289435600170691
 20
373.6241690187039239
 30
0.0
 40
2.5
  1

 41
0.8
  7
GREEKS
  0
TEXT
  5
2E6
  8
BEM
 10
1076.9559990826430749
 20
369.1189800686062767
 30
0.0
 40
1.8
  1

 41
0.8
  7
GREEKS
  0
TEXT
  5
2E7
  8
BEM
 10
1064.2724282030310405
 20
394.710569164831611
 30
0.0
 40
2.0
  1

 41
0.8
  7
GREEKS
 72
     1
 11
1064.2724282030310405
 21
394.710569164831611
 31
0.0
  0
TEXT
  5
2E8
  8
TEXT
 10
1374.3731469243250558
 20
384.3882926014244958
 30
0.0
 40
2.5
  1
  
  7
GREEKS
 72
     1
 11
1376.6350516862300992
 21
384.3882926014244958
 31
0.0
  0
TEXT
  5
2E9
  8
BEM
 10
1618.4928642368079181
 20
519.9471746318266696
 30
0.0
 40
2.5
  1
 
 72
     4
 11
1619.6238166177599851
 21
519.9471746318266696
 31
0.0
  0
TEXT
  5
2EA
  8
VOLL
 10
833.2128828606396382
 20
347.135413925852788
 30
0.0
 40
1.8
  1

  7
GREEKS
  0
TEXT
  5
2EB
  8
VOLL
 10
922.8790567863127308
 20
352.4275306415721047
 30
0.0
 40
1.8
  1

  7
GREEKS
  0
TEXT
  5
2EC
  8
TEXT
 10
1254.7113249899050516
 20
357.9857661747976749
 30
0.0
 40
2.5
  1
  
  7
GREEKS
 72
     1
 11
1256.973229751810095
 21
357.9857661747976749
 31
0.0
  0
TEXT
  5
2ED
  8
BEM
 10
1498.8310423023879139
 20
493.5446482051997918
 30
0.0
 40
2.5
  1
 
 72
     4
 11
1499.9619946833399808
 21
493.5446482051997918
 31
0.0
  0
TEXT
  5
2EE
  8
BEM
 10
1064.5203864322370464
 20
376.0642448327334932
 30
0.0
 40
2.5
  1

  7
GREEKS
  0
TEXT
  5
2EF
  8
VOLL
 10
1050.4541934125159059
 20
355.8809841756984724
 30
0.0
 40
1.8
  1

  7
GREEKS
  0
TEXT
  5
2F0
  8
BEM
 10
1084.9422582518000127
 20
360.6067084989189766
 30
0.0
 40
2.5
  1

 41
0.8
  7
GREEKS
  0
TEXT
  5
2F1
  8
BEM
 10
1084.9422582518000127
 20
355.9129399448668778
 30
0.0
 40
2.5
  1

 41
0.8
  7
GREEKS
  0
TEXT
  5
2F2
  8
BEM
 10
1084.9422582518000127
 20
350.6750961262034139
 30
0.0
 40
2.5
  1

 41
0.8
  7
GREEKS
  0
TEXT
  5
2F3
  8
BEM
 10
1084.8693137744260184
 20
346.1699071761058235
 30
0.0
 40
1.8
  1

 41
0.8
  7
GREEKS
  0
TEXT
  5
2F4
  8
BEM
 10
1072.1857428948139841
 20
371.761496272331101
 30
0.0
 40
2.0
  1

 41
0.8
  7
GREEKS
 72
     1
 11
1072.1857428948139841
 21
371.761496272331101
 31
0.0
  0
TEXT
  5
2F5
  8
TEXT
 10
1382.2864616161079994
 20
361.4392197089239858
 30
0.0
 40
2.5
  1
  
  7
GREEKS
 72
     1
 11
1384.5483663780130428
 21
361.4392197089239858
 31
0.0
  0
TEXT
  5
2F6
  8
BEM
 10
1626.4061789285910891
 20
496.9981017393262164
 30
0.0
 40
2.5
  1
 
 72
     4
 11
1627.5371313095429286
 21
496.9981017393262164
 31
0.0
  0
TEXT
  5
2F7
  8
VOLL
 10
975.1709578078009599
 20
363.3324982376876164
 30
0.0
 40
1.8
  1

  7
GREEKS
  0
TEXT
  5
2F8
  8
TEXT
 10
1307.0032260113930533
 20
368.8907337709130729
 30
0.0
 40
2.5
  1
  
  7
GREEKS
 72
     1
 11
1309.2651307732980968
 21
368.8907337709130729
 31
0.0
  0
TEXT
  5
2F9
  8
BEM
 10
1551.1229433238759157
 20
504.4496158013153035
 30
0.0
 40
2.5
  1
 
 72
     4
 11
1552.2538957048279826
 21
504.4496158013153035
 31
0.0
  0
TEXT
  5
2FA
  8
BEM
 10
1130.310559964596905
 20
383.6659091273641025
 30
0.0
 40
2.5
  1

  7
GREEKS
  0
TEXT
  5
2FB
  8
VOLL
 10
1116.2443669448750825
 20
363.4826484703290248
 30
0.0
 40
1.8
  1

  7
GREEKS
  0
TEXT
  5
2FC
  8
BEM
 10
1150.7324317841600987
 20
368.2083727935495858
 30
0.0
 40
2.5
  1

 41
0.8
  7
GREEKS
  0
TEXT
  5
2FD
  8
BEM
 10
1150.7324317841600987
 20
363.5146042394973733
 30
0.0
 40
2.5
  1

 41
0.8
  7
GREEKS
  0
TEXT
  5
2FE
  8
BEM
 10
1150.7324317841600987
 20
358.2767604208340231
 30
0.0
 40
2.5
  1

 41
0.8
  7
GREEKS
  0
TEXT
  5
2FF
  8
BEM
 10
1150.6594873067849676
 20
353.7715714707363759
 30
0.0
 40
1.8
  1

 41
0.8
  7
GREEKS
  0
TEXT
  5
300
  8
BEM
 10
1137.9759164271740701
 20
379.3631605669615965
 30
0.0
 40
2.0
  1

 41
0.8
  7
GREEKS
 72
     1
 11
1137.9759164271740701
 21
379.3631605669615965
 31
0.0
  0
TEXT
  5
301
  8
TEXT
 10
1448.0766351484680854
 20
369.0408840035544813
 30
0.0
 40
2.5
  1
  
  7
GREEKS
 72
     1
 11
1450.3385399103729014
 21
369.0408840035544813
 31
0.0
  0
TEXT
  5
302
  8
BEM
 10
1692.1963524609500382
 20
504.5997660339567119
 30
0.0
 40
2.5
  1
 
 72
     4
 11
1693.3273048419030147
 21
504.5997660339567119
 31
0.0
  0
TEXT
  5
303
  8
VOLL
 10
605.788098120916743
 20
557.9947277174935607
 30
0.0
 40
1.8
  1

  7
GREEKS
  0
TEXT
  5
304
  8
VOLL
 10
695.4542720465899492
 20
563.2868444332126501
 30
0.0
 40
1.8
  1

  7
GREEKS
  0
TEXT
  5
305
  8
TEXT
 10
1027.2865402501820427
 20
568.8450799664383339
 30
0.0
 40
2.5
  1
  
  7
GREEKS
 72
     1
 11
1029.5484450120870861
 21
568.8450799664383339
 31
0.0
  0
TEXT
  5
306
  8
BEM
 10
1271.406257562664905
 20
704.4039619968405077
 30
0.0
 40
2.5
  1
 
 72
     4
 11
1272.5372099436169719
 21
704.4039619968405077
 31
0.0
  0
TEXT
  5
307
  8
BEM
 10
837.0956016925142649
 20
586.9235586243742091
 30
0.0
 40
2.5
  1

  7
GREEKS
  0
TEXT
  5
308
  8
VOLL
 10
823.0294086727930107
 20
566.7402979673389609
 30
0.0
 40
1.8
  1

  7
GREEKS
  0
TEXT
  5
309
  8
BEM
 10
857.5174735120774585
 20
571.4660222905597493
 30
0.0
 40
2.5
  1

 41
0.8
  7
GREEKS
  0
TEXT
  5
30A
  8
BEM
 10
857.5174735120774585
 20
566.7722537365075368
 30
0.0
 40
2.5
  1

 41
0.8
  7
GREEKS
  0
TEXT
  5
30B
  8
BEM
 10
857.5174735120774585
 20
561.5344099178439592
 30
0.0
 40
2.5
  1

 41
0.8
  7
GREEKS
  0
TEXT
  5
30C
  8
BEM
 10
857.4445290347030095
 20
557.0292209677463688
 30
0.0
 40
1.8
  1

 41
0.8
  7
GREEKS
  0
TEXT
  5
30D
  8
BEM
 10
844.7609581550918847
 20
582.6208100639717031
 30
0.0
 40
2.0
  1

 41
0.8
  7
GREEKS
 72
     1
 11
844.7609581550918847
 21
582.6208100639717031
 31
0.0
  0
TEXT
  5
30E
  8
TEXT
 10
1154.8616768763849905
 20
572.2985335005646448
 30
0.0
 40
2.5
  1
  
  7
GREEKS
 72
     1
 11
1157.1235816382900339
 21
572.2985335005646448
 31
0.0
  0
TEXT
  5
30F
  8
BEM
 10
1398.9813941888680802
 20
707.8574155309667049
 30
0.0
 40
2.5
  1
 
 72
     4
 11
1400.1123465698199198
 21
707.8574155309667049
 31
0.0
  0
TEXT
  5
310
  8
VOLL
 10
747.7461730680780647
 20
574.1918120293281618
 30
0.0
 40
1.8
  1

  7
GREEKS
  0
TEXT
  5
311
  8
TEXT
 10
1079.5784412716709539
 20
579.7500475625538456
 30
0.0
 40
2.5
  1
  
  7
GREEKS
 72
     1
 11
1081.8403460335750879
 21
579.7500475625538456
 31
0.0
  0
TEXT
  5
312
  8
BEM
 10
1323.6981585841529068
 20
715.3089295929560194
 30
0.0
 40
2.5
  1
 
 72
     4
 11
1324.8291109651049737
 21
715.3089295929560194
 31
0.0
  0
TEXT
  5
313
  8
BEM
 10
902.8857752248740098
 20
594.5252229190048183
 30
0.0
 40
2.5
  1

  7
GREEKS
  0
TEXT
  5
314
  8
VOLL
 10
888.819582205152642
 20
574.3419622619695701
 30
0.0
 40
1.8
  1

  7
GREEKS
  0
TEXT
  5
315
  8
BEM
 10
923.3076470444370898
 20
579.0676865851902448
 30
0.0
 40
2.5
  1

 41
0.8
  7
GREEKS
  0
TEXT
  5
316
  8
BEM
 10
923.3076470444370898
 20
574.373918031138146
 30
0.0
 40
2.5
  1

 41
0.8
  7
GREEKS
  0
TEXT
  5
317
  8
BEM
 10
923.3076470444370898
 20
569.1360742124745684
 30
0.0
 40
2.5
  1

 41
0.8
  7
GREEKS
  0
TEXT
  5
318
  8
BEM
 10
923.2347025670627545
 20
564.6308852623769781
 30
0.0
 40
1.8
  1

 41
0.8
  7
GREEKS
  0
TEXT
  5
319
  8
BEM
 10
910.551131687451516
 20
590.2224743586023123
 30
0.0
 40
2.0
  1

 41
0.8
  7
GREEKS
 72
     1
 11
910.551131687451516
 21
590.2224743586023123
 31
0.0
  0
TEXT
  5
31A
  8
TEXT
 10
1220.6518504087450765
 20
579.900197795195254
 30
0.0
 40
2.5
  1
  
  7
GREEKS
 72
     1
 11
1222.9137551706498925
 21
579.900197795195254
 31
0.0
  0
TEXT
  5
31B
  8
BEM
 10
1464.7715677212279388
 20
715.4590798255973141
 30
0.0
 40
2.5
  1
 
 72
     4
 11
1465.9025201021800058
 21
715.4590798255973141
 31
0.0
  0
TEXT
  5
31C
  8
VOLL
 10
683.7239616413215799
 20
562.3761025035795456
 30
0.0
 40
1.8
  1

  7
GREEKS
  0
TEXT
  5
31D
  8
TEXT
 10
1015.5562298449140144
 20
567.9343380368051157
 30
0.0
 40
2.5
  1
  
  7
GREEKS
 72
     1
 11
1017.8181346068189441
 21
567.9343380368051157
 31
0.0
  0
TEXT
  5
31E
  8
BEM
 10
1259.6759471573971041
 20
703.4932200672074032
 30
0.0
 40
2.5
  1
 
 72
     4
 11
1260.8068995383489437
 21
703.4932200672074032
 31
0.0
  0
TEXT
  5
31F
  8
BEM
 10
849.0695747209715591
 20
602.5293332021653896
 30
0.0
 40
2.5
  1

  7
GREEKS
  0
TEXT
  5
320
  8
VOLL
 10
835.0033817012500776
 20
582.3460725451302551
 30
0.0
 40
1.8
  1

  7
GREEKS
  0
TEXT
  5
321
  8
BEM
 10
869.4914465405347528
 20
587.0717968683509298
 30
0.0
 40
2.5
  1

 41
0.8
  7
GREEKS
  0
TEXT
  5
322
  8
BEM
 10
869.4914465405347528
 20
582.3780283142987173
 30
0.0
 40
2.5
  1

 41
0.8
  7
GREEKS
  0
TEXT
  5
323
  8
BEM
 10
869.4914465405347528
 20
577.1401844956352534
 30
0.0
 40
2.5
  1

 41
0.8
  7
GREEKS
  0
TEXT
  5
324
  8
BEM
 10
869.4185020631604175
 20
572.6349955455375493
 30
0.0
 40
1.8
  1

 41
0.8
  7
GREEKS
  0
TEXT
  5
325
  8
BEM
 10
856.734931183549179
 20
598.2265846417628836
 30
0.0
 40
2.0
  1

 41
0.8
  7
GREEKS
 72
     1
 11
856.734931183549179
 21
598.2265846417628836
 31
0.0
  0
TEXT
  5
326
  8
TEXT
 10
1166.8356499048429669
 20
587.9043080783558253
 30
0.0
 40
2.5
  1
  
  7
GREEKS
 72
     1
 11
1169.0975546667471008
 21
587.9043080783558253
 31
0.0
  0
TEXT
  5
327
  8
BEM
 10
1410.9553672173249197
 20
723.4631901087578854
 30
0.0
 40
2.5
  1
 
 72
     4
 11
1412.0863195982769867
 21
723.4631901087578854
 31
0.0
  0
TEXT
  5
328
  8
VOLL
 10
612.1894510534573328
 20
536.3386307089293723
 30
0.0
 40
1.8
  1

  7
GREEKS
  0
TEXT
  5
329
  8
VOLL
 10
701.855624979130539
 20
541.6307474246488027
 30
0.0
 40
1.8
  1

  7
GREEKS
  0
TEXT
  5
32A
  8
TEXT
 10
1033.6878931827229735
 20
547.1889829578744866
 30
0.0
 40
2.5
  1
  
  7
GREEKS
 72
     1
 11
1035.9497979446280169
 21
547.1889829578744866
 31
0.0
  0
TEXT
  5
32B
  8
BEM
 10
1277.8076104952049263
 20
682.7478649882765467
 30
0.0
 40
2.5
  1
 
 72
     4
 11
1278.9385628761579028
 21
682.7478649882765467
 31
0.0
  0
TEXT
  5
32C
  8
BEM
 10
843.496954625055082
 20
565.2674616158102481
 30
0.0
 40
2.5
  1

  7
GREEKS
  0
TEXT
  5
32D
  8
VOLL
 10
829.4307616053336005
 20
545.0842009587752273
 30
0.0
 40
1.8
  1

  7
GREEKS
  0
TEXT
  5
32E
  8
BEM
 10
863.9188264446182757
 20
549.8099252819955609
 30
0.0
 40
2.5
  1

 41
0.8
  7
GREEKS
  0
TEXT
  5
32F
  8
BEM
 10
863.9188264446182757
 20
545.1161567279435758
 30
0.0
 40
2.5
  1

 41
0.8
  7
GREEKS
  0
TEXT
  5
330
  8
BEM
 10
863.9188264446182757
 20
539.8783129092801119
 30
0.0
 40
2.5
  1

 41
0.8
  7
GREEKS
  0
TEXT
  5
331
  8
BEM
 10
863.8458819672438267
 20
535.3731239591825215
 30
0.0
 40
1.8
  1

 41
0.8
  7
GREEKS
  0
TEXT
  5
332
  8
BEM
 10
851.1623110876324745
 20
560.9647130554077421
 30
0.0
 40
2.0
  1

 41
0.8
  7
GREEKS
 72
     1
 11
851.1623110876324745
 21
560.9647130554077421
 31
0.0
  0
TEXT
  5
333
  8
TEXT
 10
1161.2630298089259213
 20
550.6424364920006838
 30
0.0
 40
2.5
  1
  
  7
GREEKS
 72
     1
 11
1163.5249345708309647
 21
550.6424364920006838
 31
0.0
  0
TEXT
  5
334
  8
BEM
 10
1405.3827471214081015
 20
686.2013185224029712
 30
0.0
 40
2.5
  1
 
 72
     4
 11
1406.513699502361078
 21
686.2013185224029712
 31
0.0
  0
TEXT
  5
335
  8
VOLL
 10
754.1475260006186545
 20
552.5357150207642007
 30
0.0
 40
1.8
  1

  7
GREEKS
  0
TEXT
  5
336
  8
TEXT
 10
1085.9797942042109753
 20
558.0939505539896572
 30
0.0
 40
2.5
  1
  
  7
GREEKS
 72
     1
 11
1088.2416989661160187
 21
558.0939505539896572
 31
0.0
  0
TEXT
  5
337
  8
BEM
 10
1330.099511516694065
 20
693.6528325843919447
 30
0.0
 40
2.5
  1
 
 72
     4
 11
1331.2304638976459046
 21
693.6528325843919447
 31
0.0
  0
TEXT
  5
338
  8
BEM
 10
909.2871281574147133
 20
572.8691259104407436
 30
0.0
 40
2.5
  1

  7
GREEKS
  0
TEXT
  5
339
  8
VOLL
 10
895.2209351376933455
 20
552.6858652534057228
 30
0.0
 40
1.8
  1

  7
GREEKS
  0
TEXT
  5
33A
  8
BEM
 10
929.708999976977907
 20
557.4115895766261701
 30
0.0
 40
2.5
  1

 41
0.8
  7
GREEKS
  0
TEXT
  5
33B
  8
BEM
 10
929.708999976977907
 20
552.7178210225740713
 30
0.0
 40
2.5
  1

 41
0.8
  7
GREEKS
  0
TEXT
  5
33C
  8
BEM
 10
929.708999976977907
 20
547.4799772039107211
 30
0.0
 40
2.5
  1

 41
0.8
  7
GREEKS
  0
TEXT
  5
33D
  8
BEM
 10
929.6360554996033443
 20
542.9747882538131307
 30
0.0
 40
1.8
  1

 41
0.8
  7
GREEKS
  0
TEXT
  5
33E
  8
BEM
 10
916.9524846199923331
 20
568.5663773500383513
 30
0.0
 40
2.0
  1

 41
0.8
  7
GREEKS
 72
     1
 11
916.9524846199923331
 21
568.5663773500383513
 31
0.0
  0
TEXT
  5
33F
  8
TEXT
 10
1227.0532033412860073
 20
558.244100786631293
 30
0.0
 40
2.5
  1
  
  7
GREEKS
 72
     1
 11
1229.3151081031910508
 21
558.244100786631293
 31
0.0
  0
TEXT
  5
340
  8
BEM
 10
1471.1729206537679602
 20
693.8029828170335804
 30
0.0
 40
2.5
  1
 
 72
     4
 11
1472.3038730347209366
 21
693.8029828170335804
 31
0.0
  0
TEXT
  5
341
  8
VOLL
 10
690.1253145738623971
 20
540.7200054950158119
 30
0.0
 40
1.8
  1

  7
GREEKS
  0
TEXT
  5
342
  8
TEXT
 10
1021.9575827774549452
 20
546.2782410282413821
 30
0.0
 40
2.5
  1
  
  7
GREEKS
 72
     1
 11
1024.2194875393599887
 21
546.2782410282413821
 31
0.0
  0
TEXT
  5
343
  8
BEM
 10
1266.0773000899368981
 20
681.8371230586435559
 30
0.0
 40
2.5
  1
 
 72
     4
 11
1267.2082524708901019
 21
681.8371230586435559
 31
0.0
  0
TEXT
  5
344
  8
BEM
 10
855.4709276535123763
 20
580.8732361936015423
 30
0.0
 40
2.5
  1

  7
GREEKS
  0
TEXT
  5
345
  8
VOLL
 10
841.4047346337906674
 20
560.6899755365664078
 30
0.0
 40
1.8
  1

  7
GREEKS
  0
TEXT
  5
346
  8
BEM
 10
875.8927994730755699
 20
565.4156998597868551
 30
0.0
 40
2.5
  1

 41
0.8
  7
GREEKS
  0
TEXT
  5
347
  8
BEM
 10
875.8927994730755699
 20
560.7219313057347563
 30
0.0
 40
2.5
  1

 41
0.8
  7
GREEKS
  0
TEXT
  5
348
  8
BEM
 10
875.8927994730755699
 20
555.4840874870712923
 30
0.0
 40
2.5
  1

 41
0.8
  7
GREEKS
  0
TEXT
  5
349
  8
BEM
 10
875.819854995701121
 20
550.978898536973702
 30
0.0
 40
1.8
  1

 41
0.8
  7
GREEKS
  0
TEXT
  5
34A
  8
BEM
 10
863.1362841160897688
 20
576.5704876331990363
 30
0.0
 40
2.0
  1

 41
0.8
  7
GREEKS
 72
     1
 11
863.1362841160897688
 21
576.5704876331990363
 31
0.0
  0
TEXT
  5
34B
  8
TEXT
 10
1173.2370028373829882
 20
566.2482110697918642
 30
0.0
 40
2.5
  1
  
  7
GREEKS
 72
     1
 11
1175.4989075992880316
 21
566.2482110697918642
 31
0.0
  0
TEXT
  5
34C
  8
BEM
 10
1417.356720149864941
 20
701.8070931001941517
 30
0.0
 40
2.5
  1
 
 72
     4
 11
1418.4876725308179175
 21
701.8070931001941517
 31
0.0
  0
TEXT
  5
34D
  8
VOLL
 10
968.5264534296087504
 20
521.1294157619773841
 30
0.0
 40
1.8
  1

  7
GREEKS
  0
TEXT
  5
34E
  8
TEXT
 10
1300.3587216332020944
 20
526.6876512952029543
 30
0.0
 40
2.5
  1
  
  7
GREEKS
 72
     1
 11
1302.6206263951069104
 21
526.6876512952029543
 31
0.0
  0
TEXT
  5
34F
  8
BEM
 10
1544.4784389456840472
 20
662.2465333256052418
 30
0.0
 40
2.5
  1
 
 72
     4
 11
1545.6093913266358868
 21
662.2465333256052418
 31
0.0
  0
TEXT
  5
350
  8
VOLL
 10
1126.0611705067699404
 20
526.6849713970485709
 30
0.0
 40
1.8
  1

  7
GREEKS
  0
TEXT
  5
351
  8
BEM
 10
1160.5492353460549566
 20
531.4106957202692456
 30
0.0
 40
2.5
  1

 41
0.8
  7
GREEKS
  0
TEXT
  5
352
  8
BEM
 10
1160.5492353460549566
 20
526.7169271662171468
 30
0.0
 40
2.5
  1

 41
0.8
  7
GREEKS
  0
TEXT
  5
353
  8
BEM
 10
1160.5492353460549566
 20
521.4790833475534555
 30
0.0
 40
2.5
  1

 41
0.8
  7
GREEKS
  0
TEXT
  5
354
  8
BEM
 10
1160.4762908686800529
 20
516.9738943974558651
 30
0.0
 40
1.8
  1

 41
0.8
  7
GREEKS
  0
TEXT
  5
355
  8
TEXT
 10
1457.8934387103629433
 20
532.2432069302742548
 30
0.0
 40
2.5
  1
  
  7
GREEKS
 72
     1
 11
1460.1553434722679867
 21
532.2432069302742548
 31
0.0
  0
TEXT
  5
356
  8
BEM
 10
1702.013156022846033
 20
667.8020889606764285
 30
0.0
 40
2.5
  1
 
 72
     4
 11
1703.1441084037981
 21
667.8020889606764285
 31
0.0
  0
TEXT
  5
357
  8
VOLL
 10
573.5344568642386776
 20
540.3095377584340895
 30
0.0
 40
1.8
  1

  7
GREEKS
  0
TEXT
  5
358
  8
TEXT
 10
905.3667250678315668
 20
545.867773291659546
 30
0.0
 40
2.5
  1
  
  7
GREEKS
 72
     1
 11
907.6286298297364965
 21
545.867773291659546
 31
0.0
  0
TEXT
  5
359
  8
BEM
 10
1149.4864423803139744
 20
681.4266553220618334
 30
0.0
 40
2.5
  1
 
 72
     4
 11
1150.6173947612660413
 21
681.4266553220618334
 31
0.0
  0
TEXT
  5
35A
  8
VOLL
 10
731.069173941400436
 20
545.8650933935052763
 30
0.0
 40
1.8
  1

  7
GREEKS
  0
TEXT
  5
35B
  8
BEM
 10
765.5572387806849974
 20
550.5908177167258373
 30
0.0
 40
2.5
  1

 41
0.8
  7
GREEKS
  0
TEXT
  5
35C
  8
BEM
 10
765.5572387806849974
 20
545.8970491626737385
 30
0.0
 40
2.5
  1

 41
0.8
  7
GREEKS
  0
TEXT
  5
35D
  8
BEM
 10
765.5572387806849974
 20
540.6592053440100472
 30
0.0
 40
2.5
  1

 41
0.8
  7
GREEKS
  0
TEXT
  5
35E
  8
BEM
 10
765.4842943033106621
 20
536.1540163939125705
 30
0.0
 40
1.8
  1

 41
0.8
  7
GREEKS
  0
TEXT
  5
35F
  8
TEXT
 10
1062.9014421449930978
 20
551.4233289267308464
 30
0.0
 40
2.5
  1
  
  7
GREEKS
 72
     1
 11
1065.1633469068979139
 21
551.4233289267308464
 31
0.0
  0
TEXT
  5
360
  8
BEM
 10
1307.0211594574750507
 20
686.9822109571330202
 30
0.0
 40
2.5
  1
 
 72
     4
 11
1308.1521118384268902
 21
686.9822109571330202
 31
0.0
  0
TEXT
  5
361
  8
BEM
 10
587.6006498839601591
 20
560.4927984154691103
 30
0.0
 40
2.5
  1

  7
GREEKS
  0
TEXT
  5
362
  8
VOLL
 10
573.5344568642386776
 20
540.3095377584340895
 30
0.0
 40
1.8
  1

  7
GREEKS
  0
TEXT
  5
363
  8
BEM
 10
608.0225217035233527
 20
545.0352620816546505
 30
0.0
 40
2.5
  1

 41
0.8
  7
GREEKS
  0
TEXT
  5
364
  8
BEM
 10
608.0225217035233527
 20
540.3414935276025517
 30
0.0
 40
2.5
  1

 41
0.8
  7
GREEKS
  0
TEXT
  5
365
  8
BEM
 10
608.0225217035233527
 20
535.1036497089388604
 30
0.0
 40
2.5
  1

 41
0.8
  7
GREEKS
  0
TEXT
  5
366
  8
BEM
 10
595.2660063465376652
 20
556.190049855066718
 30
0.0
 40
2.0
  1

 41
0.8
  7
GREEKS
 72
     1
 11
595.2660063465376652
 21
556.190049855066718
 31
0.0
  0
TEXT
  5
367
  8
TEXT
 10
905.3667250678315668
 20
545.867773291659546
 30
0.0
 40
2.5
  1
  
  7
GREEKS
 72
     1
 11
907.6286298297364965
 21
545.867773291659546
 31
0.0
  0
TEXT
  5
368
  8
BEM
 10
1149.4864423803139744
 20
681.4266553220618334
 30
0.0
 40
2.5
  1
 
 72
     4
 11
1150.6173947612660413
 21
681.4266553220618334
 31
0.0
  0
TEXT
  5
36D
  8
VOLL
 10
332.2969463869673064
 20
352.0515208031861789
 30
0.0
 40
1.8
  1

  7
GREEKS
  0
TEXT
  5
36E
  8
VOLL
 10
421.9631203126403989
 20
357.3436375189056093
 30
0.0
 40
1.8
  1

  7
GREEKS
  0
TEXT
  5
36F
  8
TEXT
 10
753.7953885162334018
 20
362.9018730521311227
 30
0.0
 40
2.5
  1
  
  7
GREEKS
 72
     1
 11
756.0572932781382178
 21
362.9018730521311227
 31
0.0
  0
TEXT
  5
370
  8
BEM
 10
997.9151058287153546
 20
498.4607550825332964
 30
0.0
 40
2.5
  1
 
 72
     4
 11
999.046058209667649
 21
498.4607550825332964
 31
0.0
  0
TEXT
  5
371
  8
BEM
 10
563.6044499585649419
 20
380.9803517100669978
 30
0.0
 40
2.5
  1

  7
GREEKS
  0
TEXT
  5
372
  8
VOLL
 10
549.5382569388433467
 20
360.7970910530319202
 30
0.0
 40
1.8
  1

  7
GREEKS
  0
TEXT
  5
373
  8
BEM
 10
584.0263217781281355
 20
365.5228153762524812
 30
0.0
 40
2.5
  1

 41
0.8
  7
GREEKS
  0
TEXT
  5
374
  8
BEM
 10
584.0263217781281355
 20
360.8290468222003256
 30
0.0
 40
2.5
  1

 41
0.8
  7
GREEKS
  0
TEXT
  5
375
  8
BEM
 10
584.0263217781281355
 20
355.5912030035369185
 30
0.0
 40
2.5
  1

 41
0.8
  7
GREEKS
  0
TEXT
  5
376
  8
BEM
 10
583.9533773007538002
 20
351.0860140534392144
 30
0.0
 40
1.8
  1

 41
0.8
  7
GREEKS
  0
TEXT
  5
377
  8
BEM
 10
571.269806421142448
 20
376.6776031496644919
 30
0.0
 40
2.0
  1

 41
0.8
  7
GREEKS
 72
     1
 11
571.269806421142448
 21
376.6776031496644919
 31
0.0
  0
TEXT
  5
378
  8
TEXT
 10
881.3705251424363496
 20
366.3553265862573767
 30
0.0
 40
2.5
  1
  
  7
GREEKS
 72
     1
 11
883.632429904341052
 21
366.3553265862573767
 31
0.0
  0
TEXT
  5
379
  8
BEM
 10
1125.4902424549179614
 20
501.9142086166596073
 30
0.0
 40
2.5
  1
 
 72
     4
 11
1126.6211948358709378
 21
501.9142086166596073
 31
0.0
  0
TEXT
  5
37A
  8
VOLL
 10
474.2550213341286849
 20
368.248605115021121
 30
0.0
 40
1.8
  1

  7
GREEKS
  0
TEXT
  5
37B
  8
TEXT
 10
806.0872895377215173
 20
373.8068406482465775
 30
0.0
 40
2.5
  1
  
  7
GREEKS
 72
     1
 11
808.349194299626447
 21
373.8068406482465775
 31
0.0
  0
TEXT
  5
37C
  8
BEM
 10
1050.2070068502039248
 20
509.3657226786488081
 30
0.0
 40
2.5
  1
 
 72
     4
 11
1051.3379592311559918
 21
509.3657226786488081
 31
0.0
  0
TEXT
  5
37D
  8
BEM
 10
629.3946234909245732
 20
388.5820160046976071
 30
0.0
 40
2.5
  1

  7
GREEKS
  0
TEXT
  5
37E
  8
VOLL
 10
615.3284304712030917
 20
368.3987553476624726
 30
0.0
 40
1.8
  1

  7
GREEKS
  0
TEXT
  5
37F
  8
BEM
 10
649.8164953104876531
 20
373.1244796708830904
 30
0.0
 40
2.5
  1

 41
0.8
  7
GREEKS
  0
TEXT
  5
380
  8
BEM
 10
649.8164953104876531
 20
368.4307111168308779
 30
0.0
 40
2.5
  1

 41
0.8
  7
GREEKS
  0
TEXT
  5
381
  8
BEM
 10
649.8164953104876531
 20
363.192867298167414
 30
0.0
 40
2.5
  1

 41
0.8
  7
GREEKS
  0
TEXT
  5
382
  8
BEM
 10
649.7435508331134315
 20
358.6876783480698236
 30
0.0
 40
1.8
  1

 41
0.8
  7
GREEKS
  0
TEXT
  5
383
  8
BEM
 10
637.0599799535020793
 20
384.2792674442951011
 30
0.0
 40
2.0
  1

 41
0.8
  7
GREEKS
 72
     1
 11
637.0599799535020793
 21
384.2792674442951011
 31
0.0
  0
TEXT
  5
384
  8
TEXT
 10
947.1606986747960946
 20
373.9569908808879859
 30
0.0
 40
2.5
  1
  
  7
GREEKS
 72
     1
 11
949.4226034367009106
 21
373.9569908808879859
 31
0.0
  0
TEXT
  5
385
  8
BEM
 10
1191.2804159872780474
 20
509.5158729112902734
 30
0.0
 40
2.5
  1
 
 72
     4
 11
1192.411368368229887
 21
509.5158729112902734
 31
0.0
  0
TEXT
  5
386
  8
VOLL
 10
410.2328099073722001
 20
356.4328955892726185
 30
0.0
 40
1.8
  1

  7
GREEKS
  0
TEXT
  5
387
  8
TEXT
 10
742.0650781109651462
 20
361.991131122498075
 30
0.0
 40
2.5
  1
  
  7
GREEKS
 72
     1
 11
744.3269828728698485
 21
361.991131122498075
 31
0.0
  0
TEXT
  5
388
  8
BEM
 10
986.184795423447099
 20
497.5500131529003056
 30
0.0
 40
2.5
  1
 
 72
     4
 11
987.3157478043996207
 21
497.5500131529003056
 31
0.0
  0
TEXT
  5
389
  8
BEM
 10
575.5784229870222362
 20
396.5861262878581783
 30
0.0
 40
2.5
  1

  7
GREEKS
  0
TEXT
  5
38A
  8
VOLL
 10
561.5122299673007547
 20
376.4028656308231007
 30
0.0
 40
1.8
  1

  7
GREEKS
  0
TEXT
  5
38B
  8
BEM
 10
596.0002948065854298
 20
381.1285899540437185
 30
0.0
 40
2.5
  1

 41
0.8
  7
GREEKS
  0
TEXT
  5
38C
  8
BEM
 10
596.0002948065854298
 20
376.434821399991506
 30
0.0
 40
2.5
  1

 41
0.8
  7
GREEKS
  0
TEXT
  5
38D
  8
BEM
 10
596.0002948065854298
 20
371.1969775813280989
 30
0.0
 40
2.5
  1

 41
0.8
  7
GREEKS
  0
TEXT
  5
38E
  8
BEM
 10
595.9273503292108671
 20
366.6917886312305086
 30
0.0
 40
1.8
  1

 41
0.8
  7
GREEKS
  0
TEXT
  5
38F
  8
BEM
 10
583.2437794495997423
 20
392.2833777274556724
 30
0.0
 40
2.0
  1

 41
0.8
  7
GREEKS
 72
     1
 11
583.2437794495997423
 21
392.2833777274556724
 31
0.0
  0
TEXT
  5
390
  8
TEXT
 10
893.3444981708936439
 20
381.961101164048614
 30
0.0
 40
2.5
  1
  
  7
GREEKS
 72
     1
 11
895.6064029327983462
 21
381.961101164048614
 31
0.0
  0
TEXT
  5
391
  8
BEM
 10
1137.4642154833759378
 20
517.5199831944507878
 30
0.0
 40
2.5
  1
 
 72
     4
 11
1138.5951678643280047
 21
517.5199831944507878
 31
0.0
  0
TEXT
  5
392
  8
VOLL
 10
737.8143861604835365
 20
361.5513389667750062
 30
0.0
 40
1.8
  1

  7
GREEKS
  0
TEXT
  5
393
  8
VOLL
 10
827.4805600861567427
 20
366.8434556824943797
 30
0.0
 40
1.8
  1

  7
GREEKS
  0
TEXT
  5
394
  8
TEXT
 10
1159.3128282897489498
 20
372.4016912157200068
 30
0.0
 40
2.5
  1
  
  7
GREEKS
 72
     1
 11
1161.5747330516539932
 21
372.4016912157200068
 31
0.0
  0
TEXT
  5
395
  8
BEM
 10
1403.4325456022309027
 20
507.9605732461221237
 30
0.0
 40
2.5
  1
 
 72
     4
 11
1404.5634979831841065
 21
507.9605732461221237
 31
0.0
  0
TEXT
  5
396
  8
BEM
 10
969.121889732081172
 20
390.4801698736558251
 30
0.0
 40
2.5
  1

  7
GREEKS
  0
TEXT
  5
397
  8
VOLL
 10
955.0556967123596905
 20
370.2969092166206906
 30
0.0
 40
1.8
  1

  7
GREEKS
  0
TEXT
  5
398
  8
BEM
 10
989.5437615516443657
 20
375.0226335398413084
 30
0.0
 40
2.5
  1

 41
0.8
  7
GREEKS
  0
TEXT
  5
399
  8
BEM
 10
989.5437615516443657
 20
370.328864985789096
 30
0.0
 40
2.5
  1

 41
0.8
  7
GREEKS
  0
TEXT
  5
39A
  8
BEM
 10
989.5437615516443657
 20
365.0910211671255752
 30
0.0
 40
2.5
  1

 41
0.8
  7
GREEKS
  0
TEXT
  5
39B
  8
BEM
 10
989.4708170742701441
 20
360.5858322170280985
 30
0.0
 40
1.8
  1

 41
0.8
  7
GREEKS
  0
TEXT
  5
39C
  8
BEM
 10
976.7872461946585645
 20
386.1774213132532054
 30
0.0
 40
2.0
  1

 41
0.8
  7
GREEKS
 72
     1
 11
976.7872461946585645
 21
386.1774213132532054
 31
0.0
  0
TEXT
  5
39D
  8
TEXT
 10
1286.8879649159530345
 20
375.8551447498462039
 30
0.0
 40
2.5
  1
  
  7
GREEKS
 72
     1
 11
1289.1498696778580779
 21
375.8551447498462039
 31
0.0
  0
TEXT
  5
39E
  8
BEM
 10
1531.0076822284349873
 20
511.4140267802483777
 30
0.0
 40
2.5
  1
 
 72
     4
 11
1532.1386346093870543
 21
511.4140267802483777
 31
0.0
  0
TEXT
  5
39F
  8
VOLL
 10
745.7277008522669348
 20
338.6022660742744961
 30
0.0
 40
1.8
  1

  7
GREEKS
  0
TEXT
  5
3A0
  8
VOLL
 10
835.3938747779400273
 20
343.8943827899939265
 30
0.0
 40
1.8
  1

  7
GREEKS
  0
TEXT
  5
3A1
  8
TEXT
 10
1167.2261429815330303
 20
349.452618323219383
 30
0.0
 40
2.5
  1
  
  7
GREEKS
 72
     1
 11
1169.4880477434369368
 21
349.452618323219383
 31
0.0
  0
TEXT
  5
3A2
  8
BEM
 10
1411.3458602940149831
 20
485.0115003536216136
 30
0.0
 40
2.5
  1
 
 72
     4
 11
1412.47681267496705
 21
485.0115003536216136
 31
0.0
  0
TEXT
  5
3A3
  8
BEM
 10
977.0352044238644567
 20
367.5310969811552013
 30
0.0
 40
2.5
  1

  7
GREEKS
  0
TEXT
  5
3A4
  8
VOLL
 10
962.9690114041429752
 20
347.3478363241201805
 30
0.0
 40
1.8
  1

  7
GREEKS
  0
TEXT
  5
3A5
  8
BEM
 10
997.4570762434276503
 20
352.0735606473407984
 30
0.0
 40
2.5
  1

 41
0.8
  7
GREEKS
  0
TEXT
  5
3A6
  8
BEM
 10
997.4570762434276503
 20
347.3797920932885859
 30
0.0
 40
2.5
  1

 41
0.8
  7
GREEKS
  0
TEXT
  5
3A7
  8
BEM
 10
997.4570762434276503
 20
342.1419482746251219
 30
0.0
 40
2.5
  1

 41
0.8
  7
GREEKS
  0
TEXT
  5
3A8
  8
BEM
 10
997.3841317660532013
 20
337.6367593245274747
 30
0.0
 40
1.8
  1

 41
0.8
  7
GREEKS
  0
TEXT
  5
3A9
  8
BEM
 10
984.7005608864420765
 20
363.228348420752809
 30
0.0
 40
2.0
  1

 41
0.8
  7
GREEKS
 72
     1
 11
984.7005608864420765
 21
363.228348420752809
 31
0.0
  0
TEXT
  5
3AA
  8
TEXT
 10
1294.8012796077350686
 20
352.9060718573456938
 30
0.0
 40
2.5
  1
  
  7
GREEKS
 72
     1
 11
1297.063184369640112
 21
352.9060718573456938
 31
0.0
  0
TEXT
  5
3AB
  8
BEM
 10
1538.9209969202179309
 20
488.4649538877479245
 30
0.0
 40
2.5
  1
 
 72
     4
 11
1540.0519493011699979
 21
488.4649538877479245
 31
0.0
  0
TEXT
  5
3AC
  8
VOLL
 10
887.6857757994282565
 20
354.7993503861093245
 30
0.0
 40
1.8
  1

  7
GREEKS
  0
TEXT
  5
3AD
  8
TEXT
 10
1219.518044003021032
 20
360.3575859193348947
 30
0.0
 40
2.5
  1
  
  7
GREEKS
 72
     1
 11
1221.7799487649260755
 21
360.3575859193348947
 31
0.0
  0
TEXT
  5
3AE
  8
BEM
 10
1463.6377613155029849
 20
495.9164679497370116
 30
0.0
 40
2.5
  1
 
 72
     4
 11
1464.7687136964550518
 21
495.9164679497370116
 31
0.0
  0
TEXT
  5
3AF
  8
BEM
 10
1042.8253779562239743
 20
375.1327612757858105
 30
0.0
 40
2.5
  1

  7
GREEKS
  0
TEXT
  5
3B0
  8
VOLL
 10
1028.7591849365019243
 20
354.949500618750676
 30
0.0
 40
1.8
  1

  7
GREEKS
  0
TEXT
  5
3B1
  8
BEM
 10
1063.2472497757869405
 20
359.6752249419714076
 30
0.0
 40
2.5
  1

 41
0.8
  7
GREEKS
  0
TEXT
  5
3B2
  8
BEM
 10
1063.2472497757869405
 20
354.9814563879190814
 30
0.0
 40
2.5
  1

 41
0.8
  7
GREEKS
  0
TEXT
  5
3B3
  8
BEM
 10
1063.2472497757869405
 20
349.7436125692556743
 30
0.0
 40
2.5
  1

 41
0.8
  7
GREEKS
  0
TEXT
  5
3B4
  8
BEM
 10
1063.1743052984129463
 20
345.238423619158084
 30
0.0
 40
1.8
  1

 41
0.8
  7
GREEKS
  0
TEXT
  5
3B5
  8
BEM
 10
1050.4907344188020488
 20
370.8300127153833046
 30
0.0
 40
2.0
  1

 41
0.8
  7
GREEKS
 72
     1
 11
1050.4907344188020488
 21
370.8300127153833046
 31
0.0
  0
TEXT
  5
3B6
  8
TEXT
 10
1360.5914531400949272
 20
360.5077361519763031
 30
0.0
 40
2.5
  1
  
  7
GREEKS
 72
     1
 11
1362.8533579019999706
 21
360.5077361519763031
 31
0.0
  0
TEXT
  5
3B7
  8
BEM
 10
1604.7111704525780169
 20
496.0666181823784768
 30
0.0
 40
2.5
  1
 
 72
     4
 11
1605.8421228335300839
 21
496.0666181823784768
 31
0.0
  0
TEXT
  5
3B8
  8
VOLL
 10
518.3029161125440396
 20
549.4615798659151551
 30
0.0
 40
1.8
  1

  7
GREEKS
  0
TEXT
  5
3B9
  8
VOLL
 10
607.9690900382172458
 20
554.7536965816345855
 30
0.0
 40
1.8
  1

  7
GREEKS
  0
TEXT
  5
3BA
  8
TEXT
 10
939.801358241810135
 20
560.3119321148601557
 30
0.0
 40
2.5
  1
  
  7
GREEKS
 72
     1
 11
942.0632630037149511
 21
560.3119321148601557
 31
0.0
  0
TEXT
  5
3BB
  8
BEM
 10
1183.9210755542919742
 20
695.8708141452623295
 30
0.0
 40
2.5
  1
 
 72
     4
 11
1185.0520279352440411
 21
695.8708141452623295
 31
0.0
  0
TEXT
  5
3BC
  8
BEM
 10
749.6104196841415614
 20
578.3904107727959172
 30
0.0
 40
2.5
  1

  7
GREEKS
  0
TEXT
  5
3BD
  8
VOLL
 10
735.5442266644203073
 20
558.2071501157607827
 30
0.0
 40
1.8
  1

  7
GREEKS
  0
TEXT
  5
3BE
  8
BEM
 10
770.0322915037047551
 20
562.9328744389813437
 30
0.0
 40
2.5
  1

 41
0.8
  7
GREEKS
  0
TEXT
  5
3BF
  8
BEM
 10
770.0322915037047551
 20
558.2391058849292449
 30
0.0
 40
2.5
  1

 41
0.8
  7
GREEKS
  0
TEXT
  5
3C0
  8
BEM
 10
770.0322915037047551
 20
553.001262066265781
 30
0.0
 40
2.5
  1

 41
0.8
  7
GREEKS
  0
TEXT
  5
3C1
  8
BEM
 10
769.9593470263303061
 20
548.4960731161681906
 30
0.0
 40
1.8
  1

 41
0.8
  7
GREEKS
  0
TEXT
  5
3C2
  8
BEM
 10
757.275776146719295
 20
574.0876622123932975
 30
0.0
 40
2.0
  1

 41
0.8
  7
GREEKS
 72
     1
 11
757.275776146719295
 21
574.0876622123932975
 31
0.0
  0
TEXT
  5
3C3
  8
TEXT
 10
1067.3764948680129692
 20
563.7653856489863529
 30
0.0
 40
2.5
  1
  
  7
GREEKS
 72
     1
 11
1069.6383996299171031
 21
563.7653856489863529
 31
0.0
  0
TEXT
  5
3C4
  8
BEM
 10
1311.496212180494922
 20
699.3242676793886403
 30
0.0
 40
2.5
  1
 
 72
     4
 11
1312.627164561446989
 21
699.3242676793886403
 31
0.0
  0
TEXT
  5
3C5
  8
VOLL
 10
660.2609910597053613
 20
565.6586641777497562
 30
0.0
 40
1.8
  1

  7
GREEKS
  0
TEXT
  5
3C6
  8
TEXT
 10
992.0932592632982505
 20
571.21689971097544
 30
0.0
 40
2.5
  1
  
  7
GREEKS
 72
     1
 11
994.3551640252031802
 21
571.21689971097544
 31
0.0
  0
TEXT
  5
3C7
  8
BEM
 10
1236.212976575779976
 20
706.7757817413777275
 30
0.0
 40
2.5
  1
 
 72
     4
 11
1237.3439289567329524
 21
706.7757817413777275
 31
0.0
  0
TEXT
  5
3C8
  8
BEM
 10
815.4005932165013064
 20
585.9920750674265264
 30
0.0
 40
2.5
  1

  7
GREEKS
  0
TEXT
  5
3C9
  8
VOLL
 10
801.3344001967800523
 20
565.8088144103912782
 30
0.0
 40
1.8
  1

  7
GREEKS
  0
TEXT
  5
3CA
  8
BEM
 10
835.8224650360645001
 20
570.5345387336119529
 30
0.0
 40
2.5
  1

 41
0.8
  7
GREEKS
  0
TEXT
  5
3CB
  8
BEM
 10
835.8224650360645001
 20
565.8407701795598541
 30
0.0
 40
2.5
  1

 41
0.8
  7
GREEKS
  0
TEXT
  5
3CC
  8
BEM
 10
835.8224650360645001
 20
560.6029263608963902
 30
0.0
 40
2.5
  1

 41
0.8
  7
GREEKS
  0
TEXT
  5
3CD
  8
BEM
 10
835.7495205586900511
 20
556.0977374107987998
 30
0.0
 40
1.8
  1

 41
0.8
  7
GREEKS
  0
TEXT
  5
3CE
  8
BEM
 10
823.0659496790789262
 20
581.6893265070240204
 30
0.0
 40
2.0
  1

 41
0.8
  7
GREEKS
 72
     1
 11
823.0659496790789262
 21
581.6893265070240204
 31
0.0
  0
TEXT
  5
3CF
  8
TEXT
 10
1133.1666684003730552
 20
571.3670499436168484
 30
0.0
 40
2.5
  1
  
  7
GREEKS
 72
     1
 11
1135.4285731622769617
 21
571.3670499436168484
 31
0.0
  0
TEXT
  5
3D0
  8
BEM
 10
1377.286385712855008
 20
706.9259319740192495
 30
0.0
 40
2.5
  1
 
 72
     4
 11
1378.417338093807075
 21
706.9259319740192495
 31
0.0
  0
TEXT
  5
3D1
  8
VOLL
 10
596.2387796329489902
 20
553.8429546520013673
 30
0.0
 40
1.8
  1

  7
GREEKS
  0
TEXT
  5
3D2
  8
TEXT
 10
928.0710478365418794
 20
559.4011901852270512
 30
0.0
 40
2.5
  1
  
  7
GREEKS
 72
     1
 11
930.3329525984465818
 21
559.4011901852270512
 31
0.0
  0
TEXT
  5
3D3
  8
BEM
 10
1172.1907651490239459
 20
694.960072215629225
 30
0.0
 40
2.5
  1
 
 72
     4
 11
1173.3217175299760129
 21
694.960072215629225
 31
0.0
  0
TEXT
  5
3D4
  8
BEM
 10
761.5843927125989694
 20
593.9961853505872114
 30
0.0
 40
2.5
  1

  7
GREEKS
  0
TEXT
  5
3D5
  8
VOLL
 10
747.5181996928774879
 20
573.8129246935519632
 30
0.0
 40
1.8
  1

  7
GREEKS
  0
TEXT
  5
3D6
  8
BEM
 10
782.0062645321620494
 20
578.5386490167724105
 30
0.0
 40
2.5
  1

 41
0.8
  7
GREEKS
  0
TEXT
  5
3D7
  8
BEM
 10
782.0062645321620494
 20
573.8448804627205391
 30
0.0
 40
2.5
  1

 41
0.8
  7
GREEKS
  0
TEXT
  5
3D8
  8
BEM
 10
782.0062645321620494
 20
568.6070366440568478
 30
0.0
 40
2.5
  1

 41
0.8
  7
GREEKS
  0
TEXT
  5
3D9
  8
BEM
 10
781.9333200547877141
 20
564.1018476939592574
 30
0.0
 40
1.8
  1

 41
0.8
  7
GREEKS
  0
TEXT
  5
3DA
  8
BEM
 10
769.2497491751764755
 20
589.6934367901847054
 30
0.0
 40
2.0
  1

 41
0.8
  7
GREEKS
 72
     1
 11
769.2497491751764755
 21
589.6934367901847054
 31
0.0
  0
TEXT
  5
3DB
  8
TEXT
 10
1079.3504678964700361
 20
579.371160226777647
 30
0.0
 40
2.5
  1
  
  7
GREEKS
 72
     1
 11
1081.6123726583750795
 21
579.371160226777647
 31
0.0
  0
TEXT
  5
3DC
  8
BEM
 10
1323.4701852089519889
 20
714.9300422571798208
 30
0.0
 40
2.5
  1
 
 72
     4
 11
1324.6011375899049654
 21
714.9300422571798208
 31
0.0
  0
TEXT
  5
3DD
  8
VOLL
 10
379.5958448969822143
 20
537.6474897322292463
 30
0.0
 40
1.8
  1

  7
GREEKS
  0
TEXT
  5
3DE
  8
TEXT
 10
711.4281131005751604
 20
543.2057252654549302
 30
0.0
 40
2.5
  1
  
  7
GREEKS
 72
     1
 11
713.6900178624799764
 21
543.2057252654549302
 31
0.0
  0
TEXT
  5
3DF
  8
BEM
 10
955.5478304130572269
 20
678.764607295857104
 30
0.0
 40
2.5
  1
 
 72
     4
 11
956.6787827940094076
 21
678.764607295857104
 31
0.0
  0
TEXT
  5
3F2
  8
VOLL
 10
537.1305619741438022
 20
543.2030453673005468
 30
0.0
 40
1.8
  1

  7
GREEKS
  0
TEXT
  5
3F3
  8
BEM
 10
571.6186268134283637
 20
547.9287696905212215
 30
0.0
 40
2.5
  1

 41
0.8
  7
GREEKS
  0
TEXT
  5
3F4
  8
BEM
 10
571.6186268134283637
 20
543.235001136469009
 30
0.0
 40
2.5
  1

 41
0.8
  7
GREEKS
  0
TEXT
  5
3F5
  8
BEM
 10
571.6186268134283637
 20
537.9971573178054314
 30
0.0
 40
2.5
  1

 41
0.8
  7
GREEKS
  0
TEXT
  5
3F6
  8
BEM
 10
571.5456823360540284
 20
533.491968367707841
 30
0.0
 40
1.8
  1

 41
0.8
  7
GREEKS
  0
TEXT
  5
3F7
  8
TEXT
 10
868.9628301777365778
 20
548.761280900526117
 30
0.0
 40
2.5
  1
  
  7
GREEKS
 72
     1
 11
871.2247349396415075
 21
548.761280900526117
 31
0.0
  0
TEXT
  5
3F8
  8
BEM
 10
1113.0825474902189853
 20
684.3201629309282907
 30
0.0
 40
2.5
  1
 
 72
     4
 11
1114.2134998711710523
 21
684.3201629309282907
 31
0.0
  0
INSERT
  5
E57
  8
0
  2
A$C65823C2D
 10
0.0
 20
-401.0875920290200725
 30
-19.6299653661627111
  0
INSERT
  5
E92
  8
0
  2
A$C73835CC4
 10
-0.0000000000001811
 20
-34.9000000000000625
 30
-19.6299653661627111
  0
VIEWPORT
  5
C84
 67
     1
  8
0
 10
3.688910290063983
 20
4.2182376201149161
 30
0.0
 40
16.6302762433072395
 41
8.8334557499264612
 68
     1
 69
     1
1001
ACAD
1000
MVIEW
1002
{
1070
    16
1010
0.0
1020
0.0
1030
0.0
1010
0.0
1020
0.0
1030
1.0
1040
0.0
1040
8.8334557499264612
1040
3.688910290063983
1040
4.2182376201149161
1040
50.0
1040
0.0
1040
0.0
1070
     0
1070
   500
1070
     1
1070
     1
1070
     0
1070
     0
1070
     0
1070
     0
1040
0.0
1040
0.0
1040
0.0
1040
10.0
1040
10.0
1040
10.0
1040
10.0
1070
     0
1002
{
1002
}
1002
}
  0
ENDSEC
  0
EOF
