  0
SECTION
  2
HEADER
  9
$ACADVER
  1
AC1009
  9
$INSBASE
 10
0.0
 20
0.0
 30
0.0
  9
$EXTMIN
 10
-245.6202307670432958
 20
-42.1423045800233922
 30
-0.0074623776988005
  9
$EXTMAX
 10
36.5203597987738178
 20
327.3817494795347898
 30
2.753827755886618
  9
$LIMMIN
 10
0.0
 20
0.0
  9
$LIMMAX
 10
420.0
 20
594.0
  9
$ORTHOMODE
 70
     1
  9
$REGENMODE
 70
     1
  9
$FILLMODE
 70
     1
  9
$QTEXTMODE
 70
     0
  9
$MIRRTEXT
 70
     1
  9
$DRAGMODE
 70
     2
  9
$LTSCALE
 40
20.0
  9
$OSMODE
 70
  1327
  9
$ATTMODE
 70
     1
  9
$TEXTSIZE
 40
3.5
  9
$TRACEWID
 40
1.0
  9
$TEXTSTYLE
  7
STANDARD
  9
$CLAYER
  8
0
  9
$CELTYPE
  6
BYLAYER
  9
$CECOLOR
 62
   256
  9
$DIMSCALE
 40
2.0
  9
$DIMASZ
 40
3.5
  9
$DIMEXO
 40
1.0
  9
$DIMDLI
 40
7.0
  9
$DIMRND
 40
0.0
  9
$DIMDLE
 40
0.0
  9
$DIMEXE
 40
1.0
  9
$DIMTP
 40
5.0
  9
$DIMTM
 40
5.0
  9
$DIMTXT
 40
3.5
  9
$DIMCEN
 40
1.5
  9
$DIMTSZ
 40
0.0
  9
$DIMTOL
 70
     0
  9
$DIMLIM
 70
     0
  9
$DIMTIH
 70
     0
  9
$DIMTOH
 70
     0
  9
$DIMSE1
 70
     0
  9
$DIMSE2
 70
     0
  9
$DIMTAD
 70
     1
  9
$DIMZIN
 70
     8
  9
$DIMBLK
  1

  9
$DIMASO
 70
     1
  9
$DIMSHO
 70
     0
  9
$DIMPOST
  1

  9
$DIMAPOST
  1

  9
$DIMALT
 70
     0
  9
$DIMALTD
 70
     2
  9
$DIMALTF
 40
25.3999999999999986
  9
$DIMLFAC
 40
1.0
  9
$DIMTOFL
 70
     1
  9
$DIMTVP
 40
0.0
  9
$DIMTIX
 70
     0
  9
$DIMSOXD
 70
     0
  9
$DIMSAH
 70
     0
  9
$DIMBLK1
  1

  9
$DIMBLK2
  1

  9
$DIMSTYLE
  2
STANDARD
  9
$DIMCLRD
 70
     0
  9
$DIMCLRE
 70
     0
  9
$DIMCLRT
 70
     1
  9
$DIMTFAC
 40
0.5
  9
$DIMGAP
 40
1.5
  9
$LUNITS
 70
     2
  9
$LUPREC
 70
     1
  9
$SKETCHINC
 40
1.0
  9
$FILLETRAD
 40
0.0
  9
$AUNITS
 70
     0
  9
$AUPREC
 70
     0
  9
$MENU
  1
ACAD
  9
$ELEVATION
 40
0.0
  9
$PELEVATION
 40
0.0
  9
$THICKNESS
 40
0.0
  9
$LIMCHECK
 70
     0
  9
$BLIPMODE
 70
     0
  9
$CHAMFERA
 40
0.0
  9
$CHAMFERB
 40
0.0
  9
$SKPOLY
 70
     0
  9
$TDCREATE
 40
2450058.5193865741603076
  9
$TDUPDATE
 40
2458388.4448379632085562
  9
$TDINDWG
 40
0.1793560417
  9
$TDUSRTIMER
 40
0.1793560417
  9
$USRTIMER
 70
     1
  9
$ANGBASE
 50
0.0
  9
$ANGDIR
 70
     0
  9
$PDMODE
 70
     0
  9
$PDSIZE
 40
0.0
  9
$PLINEWID
 40
0.0
  9
$COORDS
 70
     1
  9
$SPLFRAME
 70
     0
  9
$SPLINETYPE
 70
     6
  9
$SPLINESEGS
 70
     8
  9
$ATTDIA
 70
     0
  9
$ATTREQ
 70
     0
  9
$HANDLING
 70
     1
  9
$HANDSEED
  5
14FE
  9
$SURFTAB1
 70
     6
  9
$SURFTAB2
 70
     6
  9
$SURFTYPE
 70
     6
  9
$SURFU
 70
     6
  9
$SURFV
 70
     6
  9
$UCSNAME
  2

  9
$UCSORG
 10
0.0
 20
0.0
 30
0.0
  9
$UCSXDIR
 10
1.0
 20
0.0
 30
0.0
  9
$UCSYDIR
 10
0.0
 20
1.0
 30
0.0
  9
$PUCSNAME
  2

  9
$PUCSORG
 10
0.0
 20
0.0
 30
0.0
  9
$PUCSXDIR
 10
1.0
 20
0.0
 30
0.0
  9
$PUCSYDIR
 10
0.0
 20
1.0
 30
0.0
  9
$USERI1
 70
     0
  9
$USERI2
 70
     0
  9
$USERI3
 70
     0
  9
$USERI4
 70
     0
  9
$USERI5
 70
     0
  9
$USERR1
 40
0.0
  9
$USERR2
 40
0.0
  9
$USERR3
 40
0.0
  9
$USERR4
 40
0.0
  9
$USERR5
 40
0.0
  9
$WORLDVIEW
 70
     1
  9
$SHADEDGE
 70
     3
  9
$SHADEDIF
 70
    70
  9
$TILEMODE
 70
     1
  9
$MAXACTVP
 70
    16
  9
$PLIMCHECK
 70
     0
  9
$PEXTMIN
 10
-0.1278078343990714
 20
-0.1354751382504844
 30
-0.000000000000013
  9
$PEXTMAX
 10
5.9020839958649196
 20
8.1341779480098921
 30
0.0000000000000023
  9
$PLIMMIN
 10
-0.2500002402958907
 20
-0.2499999962453767
  9
$PLIMMAX
 10
10.7499995194082203
 20
8.2499997634587334
  9
$UNITMODE
 70
     0
  9
$VISRETAIN
 70
     0
  9
$PLINEGEN
 70
     0
  9
$PSLTSCALE
 70
     0
  0
ENDSEC
  0
SECTION
  2
TABLES
  0
TABLE
  2
VPORT
 70
     1
  0
VPORT
  2
*ACTIVE
 70
     0
 10
0.0
 20
0.0
 11
1.0
 21
1.0
 12
-0.7792705258665364
 22
41.9134922861815298
 13
0.0
 23
0.0
 14
1.0
 24
1.0
 15
10.0
 25
10.0
 16
-0.0000000000002274
 26
0.0
 36
1035.4653998169369515
 17
-103.770664958268199
 27
100.7062301635742045
 37
1.3733507076633511
 40
372.288573167235711
 41
1.8826466916354549
 42
50.0
 43
0.0
 44
0.0
 50
0.0
 51
0.0
 71
     0
 72
  1500
 73
     1
 74
     0
 75
     0
 76
     0
 77
     0
 78
     0
  0
ENDTAB
  0
TABLE
  2
LTYPE
 70
     4
  0
LTYPE
  2
AUSGEZOGEN
 70
     0
  3
Ausgezogene Linie
 72
    65
 73
     0
 40
0.0
  0
LTYPE
  2
CONTINUOUS
 70
     0
  3
Solid Line
 72
    65
 73
     0
 40
0.0
  0
LTYPE
  2
VERDECKT
 70
     0
  3
Verdeckt __ __ __ __ __ __ __ __ __ __ __ __ __
 72
    65
 73
     2
 40
0.375
 49
0.25
 49
-0.125
  0
ENDTAB
  0
TABLE
  2
LAYER
 70
    10
  0
LAYER
  2
0
 70
     0
 62
     7
  6
AUSGEZOGEN
  0
LAYER
  2
VOLL
 70
     0
 62
     1
  6
AUSGEZOGEN
  0
LAYER
  2
BEM
 70
     0
 62
     7
  6
AUSGEZOGEN
  0
LAYER
  2
DEFPOINTS
 70
     0
 62
     7
  6
AUSGEZOGEN
  0
LAYER
  2
TEXT
 70
     0
 62
     7
  6
AUSGEZOGEN
  0
ENDTAB
  0
TABLE
  2
STYLE
 70
     5
  0
STYLE
  2
STANDARD
 70
     0
 40
0.0
 41
0.8
 50
0.0
 71
     0
 42
3.5
  3
simplex.shx
  4

  0
STYLE
  2
GREEKS
 70
     0
 40
0.0
 41
0.8
 50
0.0
 71
     0
 42
2.5
  3
simplex
  4

  0
ENDTAB
  0
TABLE
  2
VIEW
 70
     2
  0
ENDTAB
  0
TABLE
  2
UCS
 70
     0
  0
ENDTAB
  0
TABLE
  2
APPID
 70
    10
  0
APPID
  2
ACAD
 70
     0
  0
APPID
  2
ACAECLAYERSTANDARD
 70
     0
  0
APPID
  2
ACCMTRANSPARENCY
 70
     0
  0
APPID
  2
ACAD_NAV_VCDISPLAY
 70
     0
  0
APPID
  2
ACAD_STEPID
 70
     0
  0
APPID
  2
ACAD_ASSOCPERSSUBENTMANAGER
 70
     0
  0
APPID
  2
ACAD_PSEXT
 70
     0
  0
APPID
  2
ACAD_MLEADERVER
 70
     0
  0
APPID
  2
ACAD_OBJECT_CHANGE_GUID
 70
     0
  0
APPID
  2
ACAD_EXEMPT_FROM_CAD_STANDARDS
 70
     0
  0
ENDTAB
  0
TABLE
  2
DIMSTYLE
 70
     3
  0
DIMSTYLE
  2
STANDARD
 70
     0
  3

  4

  5

  6

  7

 40
1.0
 41
0.18
 42
0.0625
 43
0.38
 44
0.18
 45
0.0
 46
0.0
 47
0.0
 48
0.0
140
0.18
141
0.09
142
0.0
143
25.3999999999999986
144
1.0
145
0.0
146
1.0
147
0.09
 71
     0
 72
     0
 73
     1
 74
     1
 75
     0
 76
     0
 77
     0
 78
     0
170
     0
171
     2
172
     0
173
     0
174
     0
175
     0
176
     0
177
     0
178
     0
  0
ENDTAB
  0
ENDSEC
  0
SECTION
  2
BLOCKS
  0
BLOCK
  8
0
  2
$MODEL_SPACE
 70
     0
 10
0.0
 20
0.0
 30
0.0
  3
$MODEL_SPACE
  1

  0
ENDBLK
  5
6D
  8
0
  0
BLOCK
 67
     1
  8
0
  2
$PAPER_SPACE
 70
     0
 10
0.0
 20
0.0
 30
0.0
  3
$PAPER_SPACE
  1

  0
ENDBLK
  5
6B
 67
     1
  8
0
  0
BLOCK
  8
0
  2
A$C53E40033
 70
     0
 10
0.0
 20
0.0
 30
0.0
  3
A$C53E40033
  1

  0
CIRCLE
  5
E88
  8
0
  6
AUSGEZOGEN
 62
     3
 10
-199.9935995903475998
 20
0.0000000000000288
 30
0.0000000000000568
 40
37.9873223762319512
  0
CIRCLE
  5
E89
  8
0
  6
AUSGEZOGEN
 62
     3
 10
-199.9935995903475998
 20
0.0000000000000251
 30
0.0000000000000568
 40
34.8999999999999773
  0
CIRCLE
  5
E8A
  8
0
  6
AUSGEZOGEN
 62
     3
 10
-199.9935995903475998
 20
0.0000000000000288
 30
0.0000000000000568
 40
39.7653973282764426
  0
CIRCLE
  5
E8B
  8
0
  6
AUSGEZOGEN
 62
     3
 10
-199.9935995903475998
 20
0.0000000000000281
 30
0.0000000000000568
 40
42.1000000000000227
  0
ARC
  5
E8C
  8
0
  6
AUSGEZOGEN
 62
     3
 10
-99.993599590347614
 20
-0.0000000000000323
 30
0.0000000000000284
 40
36.5000000000000071
 50
90.0
 51
270.0
  0
LINE
  5
E8D
  8
0
  6
AUSGEZOGEN
 62
     3
 10
-99.9935995903475856
 20
36.4999999999999716
 30
0.0000000000000284
 11
-179.0136091232380124
 21
36.4999999999999716
 31
0.0000000000000426
  0
LINE
  5
E8E
  8
0
  6
AUSGEZOGEN
 62
     3
 10
-179.0136091232382114
 20
-36.5000000000000426
 30
0.0000000000000426
 11
-99.993599590347543
 21
-36.5000000000000426
 31
0.0000000000000284
  0
ARC
  5
E8F
  8
0
  6
AUSGEZOGEN
 62
     3
 10
0.0064004096526203
 20
-0.0000000000000355
 30
0.0
 40
36.5
 50
270.0
 51
90.0
  0
LINE
  5
E90
  8
0
  6
AUSGEZOGEN
 62
     3
 10
-99.9935995903473867
 20
-36.5000000000000426
 30
0.0000000000000284
 11
0.0064004096526133
 21
-36.5000000000000426
 31
0.0
  0
LINE
  5
E91
  8
0
  6
AUSGEZOGEN
 62
     3
 10
0.0064004096526203
 20
36.4999999999999716
 30
0.0
 11
-99.9935995903473867
 21
36.4999999999999716
 31
0.0000000000000284
  0
CIRCLE
  5
E92
  8
0
  6
VERDECKT
 62
     1
 10
-199.9935995903475998
 20
0.0000000000000281
 30
0.0000000000000568
 40
40.4999999999999929
  0
CIRCLE
  5
E93
  8
0
  6
VERDECKT
 62
     1
 10
-199.9935995903475998
 20
0.0000000000000268
 30
0.0000000000000568
 40
37.9999999999998934
  0
CIRCLE
  5
E94
  8
0
  6
VERDECKT
 62
     1
 10
-199.9935995903475998
 20
0.0000000000000268
 30
0.0000000000000568
 40
39.5999999999999091
  0
CIRCLE
  5
E95
  8
0
  6
VERDECKT
 62
     1
 10
-199.9935995903475998
 20
0.0000000000000251
 30
0.0000000000000568
 40
36.5
  0
ARC
  5
E96
  8
0
  6
VERDECKT
 62
     1
 10
-0.0000000000003766
 20
0.0000000000000245
 30
0.0
 40
34.9000000000000128
 50
89.9999999999760973
 51
270.0000000000238742
  0
POLYLINE
  8
0
  5
F38
  62
1
  66
     1
 10
0.000000
 20
0.000000
 30
0.000000
  70
     8
  0
VERTEX
  8
0
  5
F39
 10
34.9000
 20
2.72000e-14
 30
-7.90000e-15
  70
    32
  0
VERTEX
  8
0
  5
F3A
 10
34.8997
 20
0.143550
 30
-7.89993e-15
  70
    32
  0
VERTEX
  8
0
  5
F3B
 10
34.8988
 20
0.287070
 30
-7.89973e-15
  70
    32
  0
VERTEX
  8
0
  5
F3C
 10
34.8973
 20
0.430557
 30
-7.89940e-15
  70
    32
  0
VERTEX
  8
0
  5
F3D
 10
34.8953
 20
0.574010
 30
-7.89894e-15
  70
    32
  0
VERTEX
  8
0
  5
F3E
 10
34.8926
 20
0.717426
 30
-7.89834e-15
  70
    32
  0
VERTEX
  8
0
  5
F3F
 10
34.8894
 20
0.860806
 30
-7.89761e-15
  70
    32
  0
VERTEX
  8
0
  5
F40
 10
34.8856
 20
1.00415
 30
-7.89675e-15
  70
    32
  0
VERTEX
  8
0
  5
F41
 10
34.8811
 20
1.14744
 30
-7.89576e-15
  70
    32
  0
VERTEX
  8
0
  5
F42
 10
34.8761
 20
1.29070
 30
-7.89464e-15
  70
    32
  0
VERTEX
  8
0
  5
F43
 10
34.8705
 20
1.43391
 30
-7.89339e-15
  70
    32
  0
VERTEX
  8
0
  5
F44
 10
34.8643
 20
1.57707
 30
-7.89201e-15
  70
    32
  0
VERTEX
  8
0
  5
F45
 10
34.8576
 20
1.72019
 30
-7.89050e-15
  70
    32
  0
VERTEX
  8
0
  5
F46
 10
34.8502
 20
1.86325
 30
-7.88887e-15
  70
    32
  0
VERTEX
  8
0
  5
F47
 10
34.8423
 20
2.00627
 30
-7.88710e-15
  70
    32
  0
VERTEX
  8
0
  5
F48
 10
34.8338
 20
2.14923
 30
-7.88520e-15
  70
    32
  0
VERTEX
  8
0
  5
F49
 10
34.8246
 20
2.29213
 30
-7.88318e-15
  70
    32
  0
VERTEX
  8
0
  5
F4A
 10
34.8149
 20
2.43498
 30
-7.88103e-15
  70
    32
  0
VERTEX
  8
0
  5
F4B
 10
34.8047
 20
2.57776
 30
-7.87875e-15
  70
    32
  0
VERTEX
  8
0
  5
F4C
 10
34.7938
 20
2.72049
 30
-7.87634e-15
  70
    32
  0
VERTEX
  8
0
  5
F4D
 10
34.7824
 20
2.86315
 30
-7.87381e-15
  70
    32
  0
VERTEX
  8
0
  5
F4E
 10
34.7703
 20
3.00575
 30
-7.87115e-15
  70
    32
  0
VERTEX
  8
0
  5
F4F
 10
34.7577
 20
3.14829
 30
-7.86836e-15
  70
    32
  0
VERTEX
  8
0
  5
F50
 10
34.7445
 20
3.29075
 30
-7.86545e-15
  70
    32
  0
VERTEX
  8
0
  5
F51
 10
34.7307
 20
3.43315
 30
-7.86242e-15
  70
    32
  0
VERTEX
  8
0
  5
F52
 10
34.7164
 20
3.57547
 30
-7.85925e-15
  70
    32
  0
VERTEX
  8
0
  5
F53
 10
34.7014
 20
3.71772
 30
-7.85597e-15
  70
    32
  0
VERTEX
  8
0
  5
F54
 10
34.6859
 20
3.85990
 30
-7.85256e-15
  70
    32
  0
VERTEX
  8
0
  5
F55
 10
34.6698
 20
4.00200
 30
-7.84902e-15
  70
    32
  0
VERTEX
  8
0
  5
F56
 10
34.6531
 20
4.14402
 30
-7.84537e-15
  70
    32
  0
VERTEX
  8
0
  5
F57
 10
34.6358
 20
4.28596
 30
-7.84159e-15
  70
    32
  0
VERTEX
  8
0
  5
F58
 10
34.6180
 20
4.42782
 30
-7.83768e-15
  70
    32
  0
VERTEX
  8
0
  5
F59
 10
34.5995
 20
4.56959
 30
-7.83366e-15
  70
    32
  0
VERTEX
  8
0
  5
F5A
 10
34.5805
 20
4.71128
 30
-7.82951e-15
  70
    32
  0
VERTEX
  8
0
  5
F5B
 10
34.5609
 20
4.85288
 30
-7.82524e-15
  70
    32
  0
VERTEX
  8
0
  5
F5C
 10
34.5408
 20
4.99439
 30
-7.82085e-15
  70
    32
  0
VERTEX
  8
0
  5
F5D
 10
34.5200
 20
5.13581
 30
-7.81633e-15
  70
    32
  0
VERTEX
  8
0
  5
F5E
 10
34.4987
 20
5.27714
 30
-7.81170e-15
  70
    32
  0
VERTEX
  8
0
  5
F5F
 10
34.4768
 20
5.41838
 30
-7.80695e-15
  70
    32
  0
VERTEX
  8
0
  5
F60
 10
34.4543
 20
5.55951
 30
-7.80207e-15
  70
    32
  0
VERTEX
  8
0
  5
F61
 10
34.4313
 20
5.70055
 30
-7.79708e-15
  70
    32
  0
VERTEX
  8
0
  5
F62
 10
34.4076
 20
5.84149
 30
-7.79196e-15
  70
    32
  0
VERTEX
  8
0
  5
F63
 10
34.3834
 20
5.98233
 30
-7.78673e-15
  70
    32
  0
VERTEX
  8
0
  5
F64
 10
34.3587
 20
6.12306
 30
-7.78138e-15
  70
    32
  0
VERTEX
  8
0
  5
F65
 10
34.3333
 20
6.26369
 30
-7.77591e-15
  70
    32
  0
VERTEX
  8
0
  5
F66
 10
34.3074
 20
6.40421
 30
-7.77032e-15
  70
    32
  0
VERTEX
  8
0
  5
F67
 10
34.2809
 20
6.54463
 30
-7.76462e-15
  70
    32
  0
VERTEX
  8
0
  5
F68
 10
34.2538
 20
6.68493
 30
-7.75880e-15
  70
    32
  0
VERTEX
  8
0
  5
F69
 10
34.2261
 20
6.82512
 30
-7.75286e-15
  70
    32
  0
VERTEX
  8
0
  5
F6A
 10
34.1979
 20
6.96519
 30
-7.74680e-15
  70
    32
  0
VERTEX
  8
0
  5
F6B
 10
34.1691
 20
7.10516
 30
-7.74063e-15
  70
    32
  0
VERTEX
  8
0
  5
F6C
 10
34.1397
 20
7.24500
 30
-7.73434e-15
  70
    32
  0
VERTEX
  8
0
  5
F6D
 10
34.1097
 20
7.38472
 30
-7.72794e-15
  70
    32
  0
VERTEX
  8
0
  5
F6E
 10
34.0792
 20
7.52432
 30
-7.72142e-15
  70
    32
  0
VERTEX
  8
0
  5
F6F
 10
34.0481
 20
7.66380
 30
-7.71478e-15
  70
    32
  0
VERTEX
  8
0
  5
F70
 10
34.0165
 20
7.80316
 30
-7.70804e-15
  70
    32
  0
VERTEX
  8
0
  5
F71
 10
33.9842
 20
7.94238
 30
-7.70117e-15
  70
    32
  0
VERTEX
  8
0
  5
F72
 10
33.9514
 20
8.08148
 30
-7.69420e-15
  70
    32
  0
VERTEX
  8
0
  5
F73
 10
33.9180
 20
8.22045
 30
-7.68711e-15
  70
    32
  0
VERTEX
  8
0
  5
F74
 10
33.8841
 20
8.35929
 30
-7.67990e-15
  70
    32
  0
VERTEX
  8
0
  5
F75
 10
33.8496
 20
8.49799
 30
-7.67259e-15
  70
    32
  0
VERTEX
  8
0
  5
F76
 10
33.8145
 20
8.63656
 30
-7.66516e-15
  70
    32
  0
VERTEX
  8
0
  5
F77
 10
33.7788
 20
8.77499
 30
-7.65762e-15
  70
    32
  0
VERTEX
  8
0
  5
F78
 10
33.7426
 20
8.91329
 30
-7.64997e-15
  70
    32
  0
VERTEX
  8
0
  5
F79
 10
33.7058
 20
9.05144
 30
-7.64220e-15
  70
    32
  0
VERTEX
  8
0
  5
F7A
 10
33.6684
 20
9.18945
 30
-7.63433e-15
  70
    32
  0
VERTEX
  8
0
  5
F7B
 10
33.6305
 20
9.32731
 30
-7.62634e-15
  70
    32
  0
VERTEX
  8
0
  5
F7C
 10
33.5920
 20
9.46503
 30
-7.61824e-15
  70
    32
  0
VERTEX
  8
0
  5
F7D
 10
33.5529
 20
9.60260
 30
-7.61004e-15
  70
    32
  0
VERTEX
  8
0
  5
F7E
 10
33.5133
 20
9.74002
 30
-7.60172e-15
  70
    32
  0
VERTEX
  8
0
  5
F7F
 10
33.4731
 20
9.87729
 30
-7.59330e-15
  70
    32
  0
VERTEX
  8
0
  5
F80
 10
33.4323
 20
10.0144
 30
-7.58476e-15
  70
    32
  0
VERTEX
  8
0
  5
F81
 10
33.3910
 20
10.1514
 30
-7.57612e-15
  70
    32
  0
VERTEX
  8
0
  5
F82
 10
33.3491
 20
10.2882
 30
-7.56737e-15
  70
    32
  0
VERTEX
  8
0
  5
F83
 10
33.3066
 20
10.4248
 30
-7.55851e-15
  70
    32
  0
VERTEX
  8
0
  5
F84
 10
33.2636
 20
10.5613
 30
-7.54954e-15
  70
    32
  0
VERTEX
  8
0
  5
F85
 10
33.2200
 20
10.6976
 30
-7.54047e-15
  70
    32
  0
VERTEX
  8
0
  5
F86
 10
33.1759
 20
10.8338
 30
-7.53129e-15
  70
    32
  0
VERTEX
  8
0
  5
F87
 10
33.1312
 20
10.9698
 30
-7.52200e-15
  70
    32
  0
VERTEX
  8
0
  5
F88
 10
33.0859
 20
11.1056
 30
-7.51261e-15
  70
    32
  0
VERTEX
  8
0
  5
F89
 10
33.0400
 20
11.2413
 30
-7.50311e-15
  70
    32
  0
VERTEX
  8
0
  5
F8A
 10
32.9936
 20
11.3768
 30
-7.49350e-15
  70
    32
  0
VERTEX
  8
0
  5
F8B
 10
32.9467
 20
11.5121
 30
-7.48379e-15
  70
    32
  0
VERTEX
  8
0
  5
F8C
 10
32.8991
 20
11.6472
 30
-7.47398e-15
  70
    32
  0
VERTEX
  8
0
  5
F8D
 10
32.8510
 20
11.7822
 30
-7.46406e-15
  70
    32
  0
VERTEX
  8
0
  5
F8E
 10
32.8024
 20
11.9170
 30
-7.45403e-15
  70
    32
  0
VERTEX
  8
0
  5
F8F
 10
32.7532
 20
12.0516
 30
-7.44390e-15
  70
    32
  0
VERTEX
  8
0
  5
F90
 10
32.7034
 20
12.1860
 30
-7.43367e-15
  70
    32
  0
VERTEX
  8
0
  5
F91
 10
32.6530
 20
12.3202
 30
-7.42334e-15
  70
    32
  0
VERTEX
  8
0
  5
F92
 10
32.6022
 20
12.4543
 30
-7.41290e-15
  70
    32
  0
VERTEX
  8
0
  5
F93
 10
32.5507
 20
12.5882
 30
-7.40236e-15
  70
    32
  0
VERTEX
  8
0
  5
F94
 10
32.4987
 20
12.7219
 30
-7.39172e-15
  70
    32
  0
VERTEX
  8
0
  5
F95
 10
32.4461
 20
12.8553
 30
-7.38098e-15
  70
    32
  0
VERTEX
  8
0
  5
F96
 10
32.3930
 20
12.9886
 30
-7.37013e-15
  70
    32
  0
VERTEX
  8
0
  5
F97
 10
32.3393
 20
13.1218
 30
-7.35919e-15
  70
    32
  0
VERTEX
  8
0
  5
F98
 10
32.2850
 20
13.2547
 30
-7.34814e-15
  70
    32
  0
VERTEX
  8
0
  5
F99
 10
32.2303
 20
13.3873
 30
-7.33695e-15
  70
    32
  0
VERTEX
  8
0
  5
F9A
 10
32.1749
 20
13.5198
 30
-7.32560e-15
  70
    32
  0
VERTEX
  8
0
  5
F9B
 10
32.1191
 20
13.6519
 30
-7.31408e-15
  70
    32
  0
VERTEX
  8
0
  5
F9C
 10
32.0627
 20
13.7839
 30
-7.30239e-15
  70
    32
  0
VERTEX
  8
0
  5
F9D
 10
32.0058
 20
13.9155
 30
-7.29053e-15
  70
    32
  0
VERTEX
  8
0
  5
F9E
 10
31.9483
 20
14.0469
 30
-7.27852e-15
  70
    32
  0
VERTEX
  8
0
  5
F9F
 10
31.8903
 20
14.1781
 30
-7.26633e-15
  70
    32
  0
VERTEX
  8
0
  5
FA0
 10
31.8318
 20
14.3089
 30
-7.25399e-15
  70
    32
  0
VERTEX
  8
0
  5
FA1
 10
31.7728
 20
14.4396
 30
-7.24148e-15
  70
    32
  0
VERTEX
  8
0
  5
FA2
 10
31.7132
 20
14.5699
 30
-7.22881e-15
  70
    32
  0
VERTEX
  8
0
  5
FA3
 10
31.6531
 20
14.7000
 30
-7.21598e-15
  70
    32
  0
VERTEX
  8
0
  5
FA4
 10
31.5925
 20
14.8298
 30
-7.20299e-15
  70
    32
  0
VERTEX
  8
0
  5
FA5
 10
31.5314
 20
14.9594
 30
-7.18984e-15
  70
    32
  0
VERTEX
  8
0
  5
FA6
 10
31.4697
 20
15.0887
 30
-7.17653e-15
  70
    32
  0
VERTEX
  8
0
  5
FA7
 10
31.4075
 20
15.2177
 30
-7.16306e-15
  70
    32
  0
VERTEX
  8
0
  5
FA8
 10
31.3448
 20
15.3464
 30
-7.14943e-15
  70
    32
  0
VERTEX
  8
0
  5
FA9
 10
31.2816
 20
15.4749
 30
-7.13565e-15
  70
    32
  0
VERTEX
  8
0
  5
FAA
 10
31.2179
 20
15.6030
 30
-7.12171e-15
  70
    32
  0
VERTEX
  8
0
  5
FAB
 10
31.1536
 20
15.7309
 30
-7.10762e-15
  70
    32
  0
VERTEX
  8
0
  5
FAC
 10
31.0888
 20
15.8586
 30
-7.09337e-15
  70
    32
  0
VERTEX
  8
0
  5
FAD
 10
31.0235
 20
15.9859
 30
-7.07896e-15
  70
    32
  0
VERTEX
  8
0
  5
FAE
 10
30.9577
 20
16.1130
 30
-7.06441e-15
  70
    32
  0
VERTEX
  8
0
  5
FAF
 10
30.8914
 20
16.2398
 30
-7.04970e-15
  70
    32
  0
VERTEX
  8
0
  5
FB0
 10
30.8246
 20
16.3662
 30
-7.03483e-15
  70
    32
  0
VERTEX
  8
0
  5
FB1
 10
30.7573
 20
16.4925
 30
-7.01982e-15
  70
    32
  0
VERTEX
  8
0
  5
FB2
 10
30.6894
 20
16.6184
 30
-7.00466e-15
  70
    32
  0
VERTEX
  8
0
  5
FB3
 10
30.6210
 20
16.7440
 30
-6.98934e-15
  70
    32
  0
VERTEX
  8
0
  5
FB4
 10
30.5522
 20
16.8693
 30
-6.97388e-15
  70
    32
  0
VERTEX
  8
0
  5
FB5
 10
30.4828
 20
16.9944
 30
-6.95827e-15
  70
    32
  0
VERTEX
  8
0
  5
FB6
 10
30.4129
 20
17.1191
 30
-6.94251e-15
  70
    32
  0
VERTEX
  8
0
  5
FB7
 10
30.3425
 20
17.2436
 30
-6.92660e-15
  70
    32
  0
VERTEX
  8
0
  5
FB8
 10
30.2716
 20
17.3677
 30
-6.91055e-15
  70
    32
  0
VERTEX
  8
0
  5
FB9
 10
30.2002
 20
17.4916
 30
-6.89435e-15
  70
    32
  0
VERTEX
  8
0
  5
FBA
 10
30.1283
 20
17.6151
 30
-6.87800e-15
  70
    32
  0
VERTEX
  8
0
  5
FBB
 10
30.0559
 20
17.7384
 30
-6.86151e-15
  70
    32
  0
VERTEX
  8
0
  5
FBC
 10
29.9830
 20
17.8613
 30
-6.84488e-15
  70
    32
  0
VERTEX
  8
0
  5
FBD
 10
29.9096
 20
17.9840
 30
-6.82811e-15
  70
    32
  0
VERTEX
  8
0
  5
FBE
 10
29.8357
 20
18.1063
 30
-6.81119e-15
  70
    32
  0
VERTEX
  8
0
  5
FBF
 10
29.7613
 20
18.2283
 30
-6.79413e-15
  70
    32
  0
VERTEX
  8
0
  5
FC0
 10
29.6864
 20
18.3501
 30
-6.77693e-15
  70
    32
  0
VERTEX
  8
0
  5
FC1
 10
29.6110
 20
18.4715
 30
-6.75959e-15
  70
    32
  0
VERTEX
  8
0
  5
FC2
 10
29.5352
 20
18.5926
 30
-6.74211e-15
  70
    32
  0
VERTEX
  8
0
  5
FC3
 10
29.4588
 20
18.7133
 30
-6.72449e-15
  70
    32
  0
VERTEX
  8
0
  5
FC4
 10
29.3819
 20
18.8338
 30
-6.70674e-15
  70
    32
  0
VERTEX
  8
0
  5
FC5
 10
29.3046
 20
18.9539
 30
-6.68884e-15
  70
    32
  0
VERTEX
  8
0
  5
FC6
 10
29.2267
 20
19.0738
 30
-6.67081e-15
  70
    32
  0
VERTEX
  8
0
  5
FC7
 10
29.1484
 20
19.1933
 30
-6.65265e-15
  70
    32
  0
VERTEX
  8
0
  5
FC8
 10
29.0695
 20
19.3125
 30
-6.63435e-15
  70
    32
  0
VERTEX
  8
0
  5
FC9
 10
28.9902
 20
19.4313
 30
-6.61591e-15
  70
    32
  0
VERTEX
  8
0
  5
FCA
 10
28.9104
 20
19.5499
 30
-6.59734e-15
  70
    32
  0
VERTEX
  8
0
  5
FCB
 10
28.8301
 20
19.6681
 30
-6.57864e-15
  70
    32
  0
VERTEX
  8
0
  5
FCC
 10
28.7493
 20
19.7860
 30
-6.55980e-15
  70
    32
  0
VERTEX
  8
0
  5
FCD
 10
28.6681
 20
19.9035
 30
-6.54083e-15
  70
    32
  0
VERTEX
  8
0
  5
FCE
 10
28.5863
 20
20.0207
 30
-6.52173e-15
  70
    32
  0
VERTEX
  8
0
  5
FCF
 10
28.5041
 20
20.1376
 30
-6.50250e-15
  70
    32
  0
VERTEX
  8
0
  5
FD0
 10
28.4214
 20
20.2542
 30
-6.48315e-15
  70
    32
  0
VERTEX
  8
0
  5
FD1
 10
28.3382
 20
20.3704
 30
-6.46366e-15
  70
    32
  0
VERTEX
  8
0
  5
FD2
 10
28.2546
 20
20.4863
 30
-6.44404e-15
  70
    32
  0
VERTEX
  8
0
  5
FD3
 10
28.1704
 20
20.6018
 30
-6.42430e-15
  70
    32
  0
VERTEX
  8
0
  5
FD4
 10
28.0858
 20
20.7170
 30
-6.40443e-15
  70
    32
  0
VERTEX
  8
0
  5
FD5
 10
28.0007
 20
20.8319
 30
-6.38443e-15
  70
    32
  0
VERTEX
  8
0
  5
FD6
 10
27.9152
 20
20.9464
 30
-6.36431e-15
  70
    32
  0
VERTEX
  8
0
  5
FD7
 10
27.8291
 20
21.0606
 30
-6.34406e-15
  70
    32
  0
VERTEX
  8
0
  5
FD8
 10
27.7426
 20
21.1744
 30
-6.32369e-15
  70
    32
  0
VERTEX
  8
0
  5
FD9
 10
27.6556
 20
21.2879
 30
-6.30320e-15
  70
    32
  0
VERTEX
  8
0
  5
FDA
 10
27.5682
 20
21.4011
 30
-6.28258e-15
  70
    32
  0
VERTEX
  8
0
  5
FDB
 10
27.4803
 20
21.5138
 30
-6.26184e-15
  70
    32
  0
VERTEX
  8
0
  5
FDC
 10
27.3919
 20
21.6263
 30
-6.24098e-15
  70
    32
  0
VERTEX
  8
0
  5
FDD
 10
27.3030
 20
21.7383
 30
-6.22000e-15
  70
    32
  0
VERTEX
  8
0
  5
FDE
 10
27.2137
 20
21.8501
 30
-6.19890e-15
  70
    32
  0
VERTEX
  8
0
  5
FDF
 10
27.1239
 20
21.9614
 30
-6.17768e-15
  70
    32
  0
VERTEX
  8
0
  5
FE0
 10
27.0336
 20
22.0724
 30
-6.15634e-15
  70
    32
  0
VERTEX
  8
0
  5
FE1
 10
26.9429
 20
22.1831
 30
-6.13488e-15
  70
    32
  0
VERTEX
  8
0
  5
FE2
 10
26.8517
 20
22.2934
 30
-6.11331e-15
  70
    32
  0
VERTEX
  8
0
  5
FE3
 10
26.7601
 20
22.4033
 30
-6.09162e-15
  70
    32
  0
VERTEX
  8
0
  5
FE4
 10
26.6680
 20
22.5129
 30
-6.06982e-15
  70
    32
  0
VERTEX
  8
0
  5
FE5
 10
26.5754
 20
22.6221
 30
-6.04790e-15
  70
    32
  0
VERTEX
  8
0
  5
FE6
 10
26.4824
 20
22.7309
 30
-6.02586e-15
  70
    32
  0
VERTEX
  8
0
  5
FE7
 10
26.3889
 20
22.8393
 30
-6.00371e-15
  70
    32
  0
VERTEX
  8
0
  5
FE8
 10
26.2950
 20
22.9474
 30
-5.98145e-15
  70
    32
  0
VERTEX
  8
0
  5
FE9
 10
26.2006
 20
23.0552
 30
-5.95908e-15
  70
    32
  0
VERTEX
  8
0
  5
FEA
 10
26.1057
 20
23.1625
 30
-5.93659e-15
  70
    32
  0
VERTEX
  8
0
  5
FEB
 10
26.0104
 20
23.2695
 30
-5.91400e-15
  70
    32
  0
VERTEX
  8
0
  5
FEC
 10
25.9147
 20
23.3761
 30
-5.89129e-15
  70
    32
  0
VERTEX
  8
0
  5
FED
 10
25.8185
 20
23.4823
 30
-5.86848e-15
  70
    32
  0
VERTEX
  8
0
  5
FEE
 10
25.7218
 20
23.5881
 30
-5.84555e-15
  70
    32
  0
VERTEX
  8
0
  5
FEF
 10
25.6247
 20
23.6936
 30
-5.82252e-15
  70
    32
  0
VERTEX
  8
0
  5
FF0
 10
25.5271
 20
23.7986
 30
-5.79938e-15
  70
    32
  0
VERTEX
  8
0
  5
FF1
 10
25.4291
 20
23.9033
 30
-5.77613e-15
  70
    32
  0
VERTEX
  8
0
  5
FF2
 10
25.3307
 20
24.0076
 30
-5.75278e-15
  70
    32
  0
VERTEX
  8
0
  5
FF3
 10
25.2318
 20
24.1116
 30
-5.72932e-15
  70
    32
  0
VERTEX
  8
0
  5
FF4
 10
25.1324
 20
24.2151
 30
-5.70576e-15
  70
    32
  0
VERTEX
  8
0
  5
FF5
 10
25.0327
 20
24.3182
 30
-5.68210e-15
  70
    32
  0
VERTEX
  8
0
  5
FF6
 10
24.9324
 20
24.4210
 30
-5.65833e-15
  70
    32
  0
VERTEX
  8
0
  5
FF7
 10
24.8318
 20
24.5233
 30
-5.63447e-15
  70
    32
  0
VERTEX
  8
0
  5
FF8
 10
24.7307
 20
24.6252
 30
-5.61057e-15
  70
    32
  0
VERTEX
  8
0
  5
FF9
 10
24.6292
 20
24.7267
 30
-5.58663e-15
  70
    32
  0
VERTEX
  8
0
  5
FFA
 10
24.5274
 20
24.8278
 30
-5.56265e-15
  70
    32
  0
VERTEX
  8
0
  5
FFB
 10
24.4251
 20
24.9284
 30
-5.53864e-15
  70
    32
  0
VERTEX
  8
0
  5
FFC
 10
24.3225
 20
25.0285
 30
-5.51458e-15
  70
    32
  0
VERTEX
  8
0
  5
FFD
 10
24.2194
 20
25.1283
 30
-5.49049e-15
  70
    32
  0
VERTEX
  8
0
  5
FFE
 10
24.1160
 20
25.2276
 30
-5.46636e-15
  70
    32
  0
VERTEX
  8
0
  5
FFF
 10
24.0121
 20
25.3264
 30
-5.44219e-15
  70
    32
  0
VERTEX
  8
0
  5
1000
 10
23.9079
 20
25.4248
 30
-5.41798e-15
  70
    32
  0
VERTEX
  8
0
  5
1001
 10
23.8033
 20
25.5228
 30
-5.39373e-15
  70
    32
  0
VERTEX
  8
0
  5
1002
 10
23.6983
 20
25.6203
 30
-5.36943e-15
  70
    32
  0
VERTEX
  8
0
  5
1003
 10
23.5930
 20
25.7173
 30
-5.34509e-15
  70
    32
  0
VERTEX
  8
0
  5
1004
 10
23.4872
 20
25.8140
 30
-5.32071e-15
  70
    32
  0
VERTEX
  8
0
  5
1005
 10
23.3811
 20
25.9101
 30
-5.29628e-15
  70
    32
  0
VERTEX
  8
0
  5
1006
 10
23.2746
 20
26.0058
 30
-5.27181e-15
  70
    32
  0
VERTEX
  8
0
  5
1007
 10
23.1677
 20
26.1011
 30
-5.24730e-15
  70
    32
  0
VERTEX
  8
0
  5
1008
 10
23.0604
 20
26.1959
 30
-5.22273e-15
  70
    32
  0
VERTEX
  8
0
  5
1009
 10
22.9528
 20
26.2903
 30
-5.19812e-15
  70
    32
  0
VERTEX
  8
0
  5
100A
 10
22.8448
 20
26.3842
 30
-5.17347e-15
  70
    32
  0
VERTEX
  8
0
  5
100B
 10
22.7364
 20
26.4777
 30
-5.14876e-15
  70
    32
  0
VERTEX
  8
0
  5
100C
 10
22.6276
 20
26.5707
 30
-5.12401e-15
  70
    32
  0
VERTEX
  8
0
  5
100D
 10
22.5185
 20
26.6632
 30
-5.09921e-15
  70
    32
  0
VERTEX
  8
0
  5
100E
 10
22.4090
 20
26.7553
 30
-5.07436e-15
  70
    32
  0
VERTEX
  8
0
  5
100F
 10
22.2991
 20
26.8469
 30
-5.04945e-15
  70
    32
  0
VERTEX
  8
0
  5
1010
 10
22.1889
 20
26.9381
 30
-5.02450e-15
  70
    32
  0
VERTEX
  8
0
  5
1011
 10
22.0783
 20
27.0288
 30
-4.99949e-15
  70
    32
  0
VERTEX
  8
0
  5
1012
 10
21.9674
 20
27.1191
 30
-4.97443e-15
  70
    32
  0
VERTEX
  8
0
  5
1013
 10
21.8561
 20
27.2089
 30
-4.94932e-15
  70
    32
  0
VERTEX
  8
0
  5
1014
 10
21.7444
 20
27.2982
 30
-4.92416e-15
  70
    32
  0
VERTEX
  8
0
  5
1015
 10
21.6324
 20
27.3870
 30
-4.89894e-15
  70
    32
  0
VERTEX
  8
0
  5
1016
 10
21.5200
 20
27.4754
 30
-4.87366e-15
  70
    32
  0
VERTEX
  8
0
  5
1017
 10
21.4072
 20
27.5634
 30
-4.84833e-15
  70
    32
  0
VERTEX
  8
0
  5
1018
 10
21.2942
 20
27.6508
 30
-4.82294e-15
  70
    32
  0
VERTEX
  8
0
  5
1019
 10
21.1807
 20
27.7378
 30
-4.79750e-15
  70
    32
  0
VERTEX
  8
0
  5
101A
 10
21.0669
 20
27.8243
 30
-4.77200e-15
  70
    32
  0
VERTEX
  8
0
  5
101B
 10
20.9528
 20
27.9104
 30
-4.74644e-15
  70
    32
  0
VERTEX
  8
0
  5
101C
 10
20.8383
 20
27.9960
 30
-4.72082e-15
  70
    32
  0
VERTEX
  8
0
  5
101D
 10
20.7235
 20
28.0811
 30
-4.69514e-15
  70
    32
  0
VERTEX
  8
0
  5
101E
 10
20.6083
 20
28.1657
 30
-4.66940e-15
  70
    32
  0
VERTEX
  8
0
  5
101F
 10
20.4928
 20
28.2498
 30
-4.64360e-15
  70
    32
  0
VERTEX
  8
0
  5
1020
 10
20.3770
 20
28.3335
 30
-4.61774e-15
  70
    32
  0
VERTEX
  8
0
  5
1021
 10
20.2608
 20
28.4167
 30
-4.59182e-15
  70
    32
  0
VERTEX
  8
0
  5
1022
 10
20.1442
 20
28.4995
 30
-4.56583e-15
  70
    32
  0
VERTEX
  8
0
  5
1023
 10
20.0274
 20
28.5817
 30
-4.53978e-15
  70
    32
  0
VERTEX
  8
0
  5
1024
 10
19.9102
 20
28.6635
 30
-4.51367e-15
  70
    32
  0
VERTEX
  8
0
  5
1025
 10
19.7926
 20
28.7447
 30
-4.48749e-15
  70
    32
  0
VERTEX
  8
0
  5
1026
 10
19.6748
 20
28.8256
 30
-4.46124e-15
  70
    32
  0
VERTEX
  8
0
  5
1027
 10
19.5566
 20
28.9059
 30
-4.43493e-15
  70
    32
  0
VERTEX
  8
0
  5
1028
 10
19.4381
 20
28.9857
 30
-4.40856e-15
  70
    32
  0
VERTEX
  8
0
  5
1029
 10
19.3192
 20
29.0651
 30
-4.38211e-15
  70
    32
  0
VERTEX
  8
0
  5
102A
 10
19.2000
 20
29.1439
 30
-4.35560e-15
  70
    32
  0
VERTEX
  8
0
  5
102B
 10
19.0805
 20
29.2223
 30
-4.32902e-15
  70
    32
  0
VERTEX
  8
0
  5
102C
 10
18.9607
 20
29.3002
 30
-4.30237e-15
  70
    32
  0
VERTEX
  8
0
  5
102D
 10
18.8406
 20
29.3776
 30
-4.27565e-15
  70
    32
  0
VERTEX
  8
0
  5
102E
 10
18.7201
 20
29.4545
 30
-4.24886e-15
  70
    32
  0
VERTEX
  8
0
  5
102F
 10
18.5993
 20
29.5309
 30
-4.22200e-15
  70
    32
  0
VERTEX
  8
0
  5
1030
 10
18.4782
 20
29.6068
 30
-4.19506e-15
  70
    32
  0
VERTEX
  8
0
  5
1031
 10
18.3568
 20
29.6823
 30
-4.16806e-15
  70
    32
  0
VERTEX
  8
0
  5
1032
 10
18.2351
 20
29.7572
 30
-4.14098e-15
  70
    32
  0
VERTEX
  8
0
  5
1033
 10
18.1130
 20
29.8316
 30
-4.11383e-15
  70
    32
  0
VERTEX
  8
0
  5
1034
 10
17.9907
 20
29.9056
 30
-4.08660e-15
  70
    32
  0
VERTEX
  8
0
  5
1035
 10
17.8680
 20
29.9790
 30
-4.05930e-15
  70
    32
  0
VERTEX
  8
0
  5
1036
 10
17.7451
 20
30.0520
 30
-4.03192e-15
  70
    32
  0
VERTEX
  8
0
  5
1037
 10
17.6218
 20
30.1244
 30
-4.00446e-15
  70
    32
  0
VERTEX
  8
0
  5
1038
 10
17.4982
 20
30.1964
 30
-3.97693e-15
  70
    32
  0
VERTEX
  8
0
  5
1039
 10
17.3743
 20
30.2678
 30
-3.94932e-15
  70
    32
  0
VERTEX
  8
0
  5
103A
 10
17.2501
 20
30.3388
 30
-3.92164e-15
  70
    32
  0
VERTEX
  8
0
  5
103B
 10
17.1257
 20
30.4092
 30
-3.89387e-15
  70
    32
  0
VERTEX
  8
0
  5
103C
 10
17.0009
 20
30.4792
 30
-3.86603e-15
  70
    32
  0
VERTEX
  8
0
  5
103D
 10
16.8758
 20
30.5486
 30
-3.83810e-15
  70
    32
  0
VERTEX
  8
0
  5
103E
 10
16.7504
 20
30.6175
 30
-3.81009e-15
  70
    32
  0
VERTEX
  8
0
  5
103F
 10
16.6247
 20
30.6859
 30
-3.78200e-15
  70
    32
  0
VERTEX
  8
0
  5
1040
 10
16.4988
 20
30.7539
 30
-3.75383e-15
  70
    32
  0
VERTEX
  8
0
  5
1041
 10
16.3725
 20
30.8213
 30
-3.72558e-15
  70
    32
  0
VERTEX
  8
0
  5
1042
 10
16.2460
 20
30.8881
 30
-3.69724e-15
  70
    32
  0
VERTEX
  8
0
  5
1043
 10
16.1192
 20
30.9545
 30
-3.66882e-15
  70
    32
  0
VERTEX
  8
0
  5
1044
 10
15.9920
 20
31.0204
 30
-3.64032e-15
  70
    32
  0
VERTEX
  8
0
  5
1045
 10
15.8646
 20
31.0857
 30
-3.61173e-15
  70
    32
  0
VERTEX
  8
0
  5
1046
 10
15.7369
 20
31.1506
 30
-3.58305e-15
  70
    32
  0
VERTEX
  8
0
  5
1047
 10
15.6090
 20
31.2149
 30
-3.55429e-15
  70
    32
  0
VERTEX
  8
0
  5
1048
 10
15.4807
 20
31.2787
 30
-3.52544e-15
  70
    32
  0
VERTEX
  8
0
  5
1049
 10
15.3522
 20
31.3420
 30
-3.49650e-15
  70
    32
  0
VERTEX
  8
0
  5
104A
 10
15.2234
 20
31.4048
 30
-3.46747e-15
  70
    32
  0
VERTEX
  8
0
  5
104B
 10
15.0943
 20
31.4670
 30
-3.43835e-15
  70
    32
  0
VERTEX
  8
0
  5
104C
 10
14.9649
 20
31.5287
 30
-3.40915e-15
  70
    32
  0
VERTEX
  8
0
  5
104D
 10
14.8353
 20
31.5899
 30
-3.37985e-15
  70
    32
  0
VERTEX
  8
0
  5
104E
 10
14.7054
 20
31.6506
 30
-3.35046e-15
  70
    32
  0
VERTEX
  8
0
  5
104F
 10
14.5752
 20
31.7108
 30
-3.32098e-15
  70
    32
  0
VERTEX
  8
0
  5
1050
 10
14.4448
 20
31.7704
 30
-3.29141e-15
  70
    32
  0
VERTEX
  8
0
  5
1051
 10
14.3141
 20
31.8295
 30
-3.26175e-15
  70
    32
  0
VERTEX
  8
0
  5
1052
 10
14.1831
 20
31.8881
 30
-3.23199e-15
  70
    32
  0
VERTEX
  8
0
  5
1053
 10
14.0519
 20
31.9461
 30
-3.20213e-15
  70
    32
  0
VERTEX
  8
0
  5
1054
 10
13.9203
 20
32.0037
 30
-3.17218e-15
  70
    32
  0
VERTEX
  8
0
  5
1055
 10
13.7886
 20
32.0606
 30
-3.14215e-15
  70
    32
  0
VERTEX
  8
0
  5
1056
 10
13.6566
 20
32.1171
 30
-3.11208e-15
  70
    32
  0
VERTEX
  8
0
  5
1057
 10
13.5244
 20
32.1730
 30
-3.08199e-15
  70
    32
  0
VERTEX
  8
0
  5
1058
 10
13.3921
 20
32.2283
 30
-3.05186e-15
  70
    32
  0
VERTEX
  8
0
  5
1059
 10
13.2595
 20
32.2831
 30
-3.02171e-15
  70
    32
  0
VERTEX
  8
0
  5
105A
 10
13.1267
 20
32.3373
 30
-2.99154e-15
  70
    32
  0
VERTEX
  8
0
  5
105B
 10
12.9937
 20
32.3909
 30
-2.96133e-15
  70
    32
  0
VERTEX
  8
0
  5
105C
 10
12.8605
 20
32.4440
 30
-2.93110e-15
  70
    32
  0
VERTEX
  8
0
  5
105D
 10
12.7272
 20
32.4966
 30
-2.90084e-15
  70
    32
  0
VERTEX
  8
0
  5
105E
 10
12.5936
 20
32.5486
 30
-2.87055e-15
  70
    32
  0
VERTEX
  8
0
  5
105F
 10
12.4599
 20
32.6000
 30
-2.84023e-15
  70
    32
  0
VERTEX
  8
0
  5
1060
 10
12.3259
 20
32.6509
 30
-2.80988e-15
  70
    32
  0
VERTEX
  8
0
  5
1061
 10
12.1918
 20
32.7012
 30
-2.77951e-15
  70
    32
  0
VERTEX
  8
0
  5
1062
 10
12.0575
 20
32.7510
 30
-2.74911e-15
  70
    32
  0
VERTEX
  8
0
  5
1063
 10
11.9230
 20
32.8002
 30
-2.71868e-15
  70
    32
  0
VERTEX
  8
0
  5
1064
 10
11.7883
 20
32.8488
 30
-2.68822e-15
  70
    32
  0
VERTEX
  8
0
  5
1065
 10
11.6534
 20
32.8969
 30
-2.65773e-15
  70
    32
  0
VERTEX
  8
0
  5
1066
 10
11.5184
 20
32.9444
 30
-2.62721e-15
  70
    32
  0
VERTEX
  8
0
  5
1067
 10
11.3832
 20
32.9914
 30
-2.59666e-15
  70
    32
  0
VERTEX
  8
0
  5
1068
 10
11.2478
 20
33.0378
 30
-2.56609e-15
  70
    32
  0
VERTEX
  8
0
  5
1069
 10
11.1122
 20
33.0837
 30
-2.53548e-15
  70
    32
  0
VERTEX
  8
0
  5
106A
 10
10.9765
 20
33.1289
 30
-2.50485e-15
  70
    32
  0
VERTEX
  8
0
  5
106B
 10
10.8406
 20
33.1737
 30
-2.47419e-15
  70
    32
  0
VERTEX
  8
0
  5
106C
 10
10.7045
 20
33.2178
 30
-2.44349e-15
  70
    32
  0
VERTEX
  8
0
  5
106D
 10
10.5683
 20
33.2614
 30
-2.41277e-15
  70
    32
  0
VERTEX
  8
0
  5
106E
 10
10.4319
 20
33.3044
 30
-2.38202e-15
  70
    32
  0
VERTEX
  8
0
  5
106F
 10
10.2953
 20
33.3469
 30
-2.35123e-15
  70
    32
  0
VERTEX
  8
0
  5
1070
 10
10.1586
 20
33.3888
 30
-2.32042e-15
  70
    32
  0
VERTEX
  8
0
  5
1071
 10
10.0217
 20
33.4302
 30
-2.28958e-15
  70
    32
  0
VERTEX
  8
0
  5
1072
 10
9.88465
 20
33.4709
 30
-2.25870e-15
  70
    32
  0
VERTEX
  8
0
  5
1073
 10
9.74745
 20
33.5111
 30
-2.22780e-15
  70
    32
  0
VERTEX
  8
0
  5
1074
 10
9.61010
 20
33.5508
 30
-2.19686e-15
  70
    32
  0
VERTEX
  8
0
  5
1075
 10
9.47259
 20
33.5899
 30
-2.16590e-15
  70
    32
  0
VERTEX
  8
0
  5
1076
 10
9.33494
 20
33.6284
 30
-2.13490e-15
  70
    32
  0
VERTEX
  8
0
  5
1077
 10
9.19714
 20
33.6663
 30
-2.10387e-15
  70
    32
  0
VERTEX
  8
0
  5
1078
 10
9.05919
 20
33.7037
 30
-2.07282e-15
  70
    32
  0
VERTEX
  8
0
  5
1079
 10
8.92109
 20
33.7405
 30
-2.04173e-15
  70
    32
  0
VERTEX
  8
0
  5
107A
 10
8.78285
 20
33.7768
 30
-2.01061e-15
  70
    32
  0
VERTEX
  8
0
  5
107B
 10
8.64447
 20
33.8125
 30
-1.97946e-15
  70
    32
  0
VERTEX
  8
0
  5
107C
 10
8.50595
 20
33.8476
 30
-1.94827e-15
  70
    32
  0
VERTEX
  8
0
  5
107D
 10
8.36730
 20
33.8821
 30
-1.91706e-15
  70
    32
  0
VERTEX
  8
0
  5
107E
 10
8.22850
 20
33.9161
 30
-1.88581e-15
  70
    32
  0
VERTEX
  8
0
  5
107F
 10
8.08958
 20
33.9495
 30
-1.85453e-15
  70
    32
  0
VERTEX
  8
0
  5
1080
 10
7.95052
 20
33.9823
 30
-1.82323e-15
  70
    32
  0
VERTEX
  8
0
  5
1081
 10
7.81132
 20
34.0146
 30
-1.79188e-15
  70
    32
  0
VERTEX
  8
0
  5
1082
 10
7.67201
 20
34.0463
 30
-1.76051e-15
  70
    32
  0
VERTEX
  8
0
  5
1083
 10
7.53256
 20
34.0774
 30
-1.72910e-15
  70
    32
  0
VERTEX
  8
0
  5
1084
 10
7.39299
 20
34.1080
 30
-1.69766e-15
  70
    32
  0
VERTEX
  8
0
  5
1085
 10
7.25329
 20
34.1379
 30
-1.66619e-15
  70
    32
  0
VERTEX
  8
0
  5
1086
 10
7.11347
 20
34.1673
 30
-1.63469e-15
  70
    32
  0
VERTEX
  8
0
  5
1087
 10
6.97353
 20
34.1962
 30
-1.60315e-15
  70
    32
  0
VERTEX
  8
0
  5
1088
 10
6.83348
 20
34.2244
 30
-1.57159e-15
  70
    32
  0
VERTEX
  8
0
  5
1089
 10
6.69330
 20
34.2521
 30
-1.53998e-15
  70
    32
  0
VERTEX
  8
0
  5
108A
 10
6.55301
 20
34.2792
 30
-1.50835e-15
  70
    32
  0
VERTEX
  8
0
  5
108B
 10
6.41261
 20
34.3058
 30
-1.47668e-15
  70
    32
  0
VERTEX
  8
0
  5
108C
 10
6.27210
 20
34.3318
 30
-1.44498e-15
  70
    32
  0
VERTEX
  8
0
  5
108D
 10
6.13148
 20
34.3572
 30
-1.41325e-15
  70
    32
  0
VERTEX
  8
0
  5
108E
 10
5.99075
 20
34.3820
 30
-1.38148e-15
  70
    32
  0
VERTEX
  8
0
  5
108F
 10
5.84991
 20
34.4062
 30
-1.34968e-15
  70
    32
  0
VERTEX
  8
0
  5
1090
 10
5.70897
 20
34.4299
 30
-1.31784e-15
  70
    32
  0
VERTEX
  8
0
  5
1091
 10
5.56793
 20
34.4530
 30
-1.28597e-15
  70
    32
  0
VERTEX
  8
0
  5
1092
 10
5.42679
 20
34.4755
 30
-1.25407e-15
  70
    32
  0
VERTEX
  8
0
  5
1093
 10
5.28554
 20
34.4974
 30
-1.22213e-15
  70
    32
  0
VERTEX
  8
0
  5
1094
 10
5.14420
 20
34.5188
 30
-1.19016e-15
  70
    32
  0
VERTEX
  8
0
  5
1095
 10
5.00277
 20
34.5396
 30
-1.15815e-15
  70
    32
  0
VERTEX
  8
0
  5
1096
 10
4.86124
 20
34.5598
 30
-1.12611e-15
  70
    32
  0
VERTEX
  8
0
  5
1097
 10
4.71962
 20
34.5794
 30
-1.09404e-15
  70
    32
  0
VERTEX
  8
0
  5
1098
 10
4.57791
 20
34.5984
 30
-1.06193e-15
  70
    32
  0
VERTEX
  8
0
  5
1099
 10
4.43611
 20
34.6169
 30
-1.02979e-15
  70
    32
  0
VERTEX
  8
0
  5
109A
 10
4.29423
 20
34.6348
 30
-9.97609e-16
  70
    32
  0
VERTEX
  8
0
  5
109B
 10
4.15226
 20
34.6521
 30
-9.65396e-16
  70
    32
  0
VERTEX
  8
0
  5
109C
 10
4.01020
 20
34.6688
 30
-9.33148e-16
  70
    32
  0
VERTEX
  8
0
  5
109D
 10
3.86807
 20
34.6850
 30
-9.00864e-16
  70
    32
  0
VERTEX
  8
0
  5
109E
 10
3.72585
 20
34.7005
 30
-8.68545e-16
  70
    32
  0
VERTEX
  8
0
  5
109F
 10
3.58356
 20
34.7155
 30
-8.36191e-16
  70
    32
  0
VERTEX
  8
0
  5
10A0
 10
3.44119
 20
34.7299
 30
-8.03801e-16
  70
    32
  0
VERTEX
  8
0
  5
10A1
 10
3.29875
 20
34.7437
 30
-7.71376e-16
  70
    32
  0
VERTEX
  8
0
  5
10A2
 10
3.15624
 20
34.7570
 30
-7.38915e-16
  70
    32
  0
VERTEX
  8
0
  5
10A3
 10
3.01365
 20
34.7696
 30
-7.06418e-16
  70
    32
  0
VERTEX
  8
0
  5
10A4
 10
2.87100
 20
34.7817
 30
-6.73885e-16
  70
    32
  0
VERTEX
  8
0
  5
10A5
 10
2.72828
 20
34.7932
 30
-6.41316e-16
  70
    32
  0
VERTEX
  8
0
  5
10A6
 10
2.58549
 20
34.8041
 30
-6.08711e-16
  70
    32
  0
VERTEX
  8
0
  5
10A7
 10
2.44264
 20
34.8144
 30
-5.76070e-16
  70
    32
  0
VERTEX
  8
0
  5
10A8
 10
2.29973
 20
34.8241
 30
-5.43392e-16
  70
    32
  0
VERTEX
  8
0
  5
10A9
 10
2.15676
 20
34.8333
 30
-5.10677e-16
  70
    32
  0
VERTEX
  8
0
  5
10AA
 10
2.01373
 20
34.8419
 30
-4.77926e-16
  70
    32
  0
VERTEX
  8
0
  5
10AB
 10
1.87064
 20
34.8498
 30
-4.45139e-16
  70
    32
  0
VERTEX
  8
0
  5
10AC
 10
1.72750
 20
34.8572
 30
-4.12314e-16
  70
    32
  0
VERTEX
  8
0
  5
10AD
 10
1.58431
 20
34.8640
 30
-3.79453e-16
  70
    32
  0
VERTEX
  8
0
  5
10AE
 10
1.44106
 20
34.8702
 30
-3.46554e-16
  70
    32
  0
VERTEX
  8
0
  5
10AF
 10
1.29777
 20
34.8759
 30
-3.13618e-16
  70
    32
  0
VERTEX
  8
0
  5
10B0
 10
1.15442
 20
34.8809
 30
-2.80645e-16
  70
    32
  0
VERTEX
  8
0
  5
10B1
 10
1.01104
 20
34.8854
 30
-2.47635e-16
  70
    32
  0
VERTEX
  8
0
  5
10B2
 10
0.867603
 20
34.8892
 30
-2.14587e-16
  70
    32
  0
VERTEX
  8
0
  5
10B3
 10
0.724128
 20
34.8925
 30
-1.81501e-16
  70
    32
  0
VERTEX
  8
0
  5
10B4
 10
0.580612
 20
34.8952
 30
-1.48377e-16
  70
    32
  0
VERTEX
  8
0
  5
10B5
 10
0.437068
 20
34.8973
 30
-1.08886e-16
  70
    32
  0
VERTEX
  8
0
  5
10B6
 10
0.293516
 20
34.8988
 30
-5.98049e-17
  70
    32
  0
VERTEX
  8
0
  5
10B7
 10
0.149960
 20
34.8997
 30
-1.78040e-17
  70
    32
  0
VERTEX
  8
0
  5
10B8
 10
0.00640041
 20
34.9000
 30
-1.00169e-37
  70
    32
  0
SEQEND
  8
0
  5
10B9
  0
POLYLINE
  8
0
  5
10BA
  62
1
  66
     1
 10
0.000000
 20
0.000000
 30
0.000000
  70
     8
  0
VERTEX
  8
0
  5
10BB
 10
0.00640041
 20
-34.9000
 30
0.000000
  70
    32
  0
VERTEX
  8
0
  5
10BC
 10
0.149960
 20
-34.8997
 30
-1.78040e-17
  70
    32
  0
VERTEX
  8
0
  5
10BD
 10
0.293516
 20
-34.8988
 30
-5.98049e-17
  70
    32
  0
VERTEX
  8
0
  5
10BE
 10
0.437068
 20
-34.8973
 30
-1.08886e-16
  70
    32
  0
VERTEX
  8
0
  5
10BF
 10
0.580612
 20
-34.8952
 30
-1.48377e-16
  70
    32
  0
VERTEX
  8
0
  5
10C0
 10
0.724128
 20
-34.8925
 30
-1.81501e-16
  70
    32
  0
VERTEX
  8
0
  5
10C1
 10
0.867603
 20
-34.8892
 30
-2.14587e-16
  70
    32
  0
VERTEX
  8
0
  5
10C2
 10
1.01104
 20
-34.8854
 30
-2.47635e-16
  70
    32
  0
VERTEX
  8
0
  5
10C3
 10
1.15442
 20
-34.8809
 30
-2.80645e-16
  70
    32
  0
VERTEX
  8
0
  5
10C4
 10
1.29777
 20
-34.8759
 30
-3.13618e-16
  70
    32
  0
VERTEX
  8
0
  5
10C5
 10
1.44106
 20
-34.8702
 30
-3.46554e-16
  70
    32
  0
VERTEX
  8
0
  5
10C6
 10
1.58431
 20
-34.8640
 30
-3.79453e-16
  70
    32
  0
VERTEX
  8
0
  5
10C7
 10
1.72750
 20
-34.8572
 30
-4.12314e-16
  70
    32
  0
VERTEX
  8
0
  5
10C8
 10
1.87064
 20
-34.8498
 30
-4.45139e-16
  70
    32
  0
VERTEX
  8
0
  5
10C9
 10
2.01373
 20
-34.8419
 30
-4.77926e-16
  70
    32
  0
VERTEX
  8
0
  5
10CA
 10
2.15676
 20
-34.8333
 30
-5.10677e-16
  70
    32
  0
VERTEX
  8
0
  5
10CB
 10
2.29973
 20
-34.8241
 30
-5.43392e-16
  70
    32
  0
VERTEX
  8
0
  5
10CC
 10
2.44264
 20
-34.8144
 30
-5.76070e-16
  70
    32
  0
VERTEX
  8
0
  5
10CD
 10
2.58549
 20
-34.8041
 30
-6.08711e-16
  70
    32
  0
VERTEX
  8
0
  5
10CE
 10
2.72828
 20
-34.7932
 30
-6.41316e-16
  70
    32
  0
VERTEX
  8
0
  5
10CF
 10
2.87100
 20
-34.7817
 30
-6.73885e-16
  70
    32
  0
VERTEX
  8
0
  5
10D0
 10
3.01365
 20
-34.7696
 30
-7.06418e-16
  70
    32
  0
VERTEX
  8
0
  5
10D1
 10
3.15624
 20
-34.7570
 30
-7.38915e-16
  70
    32
  0
VERTEX
  8
0
  5
10D2
 10
3.29875
 20
-34.7437
 30
-7.71376e-16
  70
    32
  0
VERTEX
  8
0
  5
10D3
 10
3.44119
 20
-34.7299
 30
-8.03801e-16
  70
    32
  0
VERTEX
  8
0
  5
10D4
 10
3.58356
 20
-34.7155
 30
-8.36191e-16
  70
    32
  0
VERTEX
  8
0
  5
10D5
 10
3.72585
 20
-34.7005
 30
-8.68545e-16
  70
    32
  0
VERTEX
  8
0
  5
10D6
 10
3.86807
 20
-34.6850
 30
-9.00864e-16
  70
    32
  0
VERTEX
  8
0
  5
10D7
 10
4.01020
 20
-34.6688
 30
-9.33148e-16
  70
    32
  0
VERTEX
  8
0
  5
10D8
 10
4.15226
 20
-34.6521
 30
-9.65396e-16
  70
    32
  0
VERTEX
  8
0
  5
10D9
 10
4.29423
 20
-34.6348
 30
-9.97609e-16
  70
    32
  0
VERTEX
  8
0
  5
10DA
 10
4.43611
 20
-34.6169
 30
-1.02979e-15
  70
    32
  0
VERTEX
  8
0
  5
10DB
 10
4.57791
 20
-34.5984
 30
-1.06193e-15
  70
    32
  0
VERTEX
  8
0
  5
10DC
 10
4.71962
 20
-34.5794
 30
-1.09404e-15
  70
    32
  0
VERTEX
  8
0
  5
10DD
 10
4.86124
 20
-34.5598
 30
-1.12611e-15
  70
    32
  0
VERTEX
  8
0
  5
10DE
 10
5.00277
 20
-34.5396
 30
-1.15815e-15
  70
    32
  0
VERTEX
  8
0
  5
10DF
 10
5.14420
 20
-34.5188
 30
-1.19016e-15
  70
    32
  0
VERTEX
  8
0
  5
10E0
 10
5.28554
 20
-34.4974
 30
-1.22213e-15
  70
    32
  0
VERTEX
  8
0
  5
10E1
 10
5.42679
 20
-34.4755
 30
-1.25407e-15
  70
    32
  0
VERTEX
  8
0
  5
10E2
 10
5.56793
 20
-34.4530
 30
-1.28597e-15
  70
    32
  0
VERTEX
  8
0
  5
10E3
 10
5.70897
 20
-34.4299
 30
-1.31784e-15
  70
    32
  0
VERTEX
  8
0
  5
10E4
 10
5.84991
 20
-34.4062
 30
-1.34968e-15
  70
    32
  0
VERTEX
  8
0
  5
10E5
 10
5.99075
 20
-34.3820
 30
-1.38148e-15
  70
    32
  0
VERTEX
  8
0
  5
10E6
 10
6.13148
 20
-34.3572
 30
-1.41325e-15
  70
    32
  0
VERTEX
  8
0
  5
10E7
 10
6.27210
 20
-34.3318
 30
-1.44498e-15
  70
    32
  0
VERTEX
  8
0
  5
10E8
 10
6.41261
 20
-34.3058
 30
-1.47668e-15
  70
    32
  0
VERTEX
  8
0
  5
10E9
 10
6.55301
 20
-34.2792
 30
-1.50835e-15
  70
    32
  0
VERTEX
  8
0
  5
10EA
 10
6.69330
 20
-34.2521
 30
-1.53998e-15
  70
    32
  0
VERTEX
  8
0
  5
10EB
 10
6.83348
 20
-34.2244
 30
-1.57159e-15
  70
    32
  0
VERTEX
  8
0
  5
10EC
 10
6.97353
 20
-34.1962
 30
-1.60315e-15
  70
    32
  0
VERTEX
  8
0
  5
10ED
 10
7.11347
 20
-34.1673
 30
-1.63469e-15
  70
    32
  0
VERTEX
  8
0
  5
10EE
 10
7.25329
 20
-34.1379
 30
-1.66619e-15
  70
    32
  0
VERTEX
  8
0
  5
10EF
 10
7.39299
 20
-34.1080
 30
-1.69766e-15
  70
    32
  0
VERTEX
  8
0
  5
10F0
 10
7.53256
 20
-34.0774
 30
-1.72910e-15
  70
    32
  0
VERTEX
  8
0
  5
10F1
 10
7.67201
 20
-34.0463
 30
-1.76051e-15
  70
    32
  0
VERTEX
  8
0
  5
10F2
 10
7.81132
 20
-34.0146
 30
-1.79188e-15
  70
    32
  0
VERTEX
  8
0
  5
10F3
 10
7.95052
 20
-33.9823
 30
-1.82323e-15
  70
    32
  0
VERTEX
  8
0
  5
10F4
 10
8.08958
 20
-33.9495
 30
-1.85453e-15
  70
    32
  0
VERTEX
  8
0
  5
10F5
 10
8.22850
 20
-33.9161
 30
-1.88581e-15
  70
    32
  0
VERTEX
  8
0
  5
10F6
 10
8.36730
 20
-33.8821
 30
-1.91706e-15
  70
    32
  0
VERTEX
  8
0
  5
10F7
 10
8.50595
 20
-33.8476
 30
-1.94827e-15
  70
    32
  0
VERTEX
  8
0
  5
10F8
 10
8.64447
 20
-33.8125
 30
-1.97946e-15
  70
    32
  0
VERTEX
  8
0
  5
10F9
 10
8.78285
 20
-33.7768
 30
-2.01061e-15
  70
    32
  0
VERTEX
  8
0
  5
10FA
 10
8.92109
 20
-33.7405
 30
-2.04173e-15
  70
    32
  0
VERTEX
  8
0
  5
10FB
 10
9.05919
 20
-33.7037
 30
-2.07282e-15
  70
    32
  0
VERTEX
  8
0
  5
10FC
 10
9.19714
 20
-33.6663
 30
-2.10387e-15
  70
    32
  0
VERTEX
  8
0
  5
10FD
 10
9.33494
 20
-33.6284
 30
-2.13490e-15
  70
    32
  0
VERTEX
  8
0
  5
10FE
 10
9.47259
 20
-33.5899
 30
-2.16590e-15
  70
    32
  0
VERTEX
  8
0
  5
10FF
 10
9.61010
 20
-33.5508
 30
-2.19686e-15
  70
    32
  0
VERTEX
  8
0
  5
1100
 10
9.74745
 20
-33.5111
 30
-2.22780e-15
  70
    32
  0
VERTEX
  8
0
  5
1101
 10
9.88465
 20
-33.4709
 30
-2.25870e-15
  70
    32
  0
VERTEX
  8
0
  5
1102
 10
10.0217
 20
-33.4302
 30
-2.28958e-15
  70
    32
  0
VERTEX
  8
0
  5
1103
 10
10.1586
 20
-33.3888
 30
-2.32042e-15
  70
    32
  0
VERTEX
  8
0
  5
1104
 10
10.2953
 20
-33.3469
 30
-2.35123e-15
  70
    32
  0
VERTEX
  8
0
  5
1105
 10
10.4319
 20
-33.3044
 30
-2.38202e-15
  70
    32
  0
VERTEX
  8
0
  5
1106
 10
10.5683
 20
-33.2614
 30
-2.41277e-15
  70
    32
  0
VERTEX
  8
0
  5
1107
 10
10.7045
 20
-33.2178
 30
-2.44349e-15
  70
    32
  0
VERTEX
  8
0
  5
1108
 10
10.8406
 20
-33.1737
 30
-2.47419e-15
  70
    32
  0
VERTEX
  8
0
  5
1109
 10
10.9765
 20
-33.1289
 30
-2.50485e-15
  70
    32
  0
VERTEX
  8
0
  5
110A
 10
11.1122
 20
-33.0837
 30
-2.53548e-15
  70
    32
  0
VERTEX
  8
0
  5
110B
 10
11.2478
 20
-33.0378
 30
-2.56609e-15
  70
    32
  0
VERTEX
  8
0
  5
110C
 10
11.3832
 20
-32.9914
 30
-2.59666e-15
  70
    32
  0
VERTEX
  8
0
  5
110D
 10
11.5184
 20
-32.9444
 30
-2.62721e-15
  70
    32
  0
VERTEX
  8
0
  5
110E
 10
11.6534
 20
-32.8969
 30
-2.65773e-15
  70
    32
  0
VERTEX
  8
0
  5
110F
 10
11.7883
 20
-32.8488
 30
-2.68822e-15
  70
    32
  0
VERTEX
  8
0
  5
1110
 10
11.9230
 20
-32.8002
 30
-2.71868e-15
  70
    32
  0
VERTEX
  8
0
  5
1111
 10
12.0575
 20
-32.7510
 30
-2.74911e-15
  70
    32
  0
VERTEX
  8
0
  5
1112
 10
12.1918
 20
-32.7012
 30
-2.77951e-15
  70
    32
  0
VERTEX
  8
0
  5
1113
 10
12.3259
 20
-32.6509
 30
-2.80988e-15
  70
    32
  0
VERTEX
  8
0
  5
1114
 10
12.4599
 20
-32.6000
 30
-2.84023e-15
  70
    32
  0
VERTEX
  8
0
  5
1115
 10
12.5936
 20
-32.5486
 30
-2.87055e-15
  70
    32
  0
VERTEX
  8
0
  5
1116
 10
12.7272
 20
-32.4966
 30
-2.90084e-15
  70
    32
  0
VERTEX
  8
0
  5
1117
 10
12.8605
 20
-32.4440
 30
-2.93110e-15
  70
    32
  0
VERTEX
  8
0
  5
1118
 10
12.9937
 20
-32.3909
 30
-2.96133e-15
  70
    32
  0
VERTEX
  8
0
  5
1119
 10
13.1267
 20
-32.3373
 30
-2.99154e-15
  70
    32
  0
VERTEX
  8
0
  5
111A
 10
13.2595
 20
-32.2831
 30
-3.02171e-15
  70
    32
  0
VERTEX
  8
0
  5
111B
 10
13.3921
 20
-32.2283
 30
-3.05186e-15
  70
    32
  0
VERTEX
  8
0
  5
111C
 10
13.5244
 20
-32.1730
 30
-3.08199e-15
  70
    32
  0
VERTEX
  8
0
  5
111D
 10
13.6566
 20
-32.1171
 30
-3.11208e-15
  70
    32
  0
VERTEX
  8
0
  5
111E
 10
13.7886
 20
-32.0606
 30
-3.14215e-15
  70
    32
  0
VERTEX
  8
0
  5
111F
 10
13.9203
 20
-32.0037
 30
-3.17218e-15
  70
    32
  0
VERTEX
  8
0
  5
1120
 10
14.0519
 20
-31.9461
 30
-3.20213e-15
  70
    32
  0
VERTEX
  8
0
  5
1121
 10
14.1831
 20
-31.8881
 30
-3.23199e-15
  70
    32
  0
VERTEX
  8
0
  5
1122
 10
14.3141
 20
-31.8295
 30
-3.26175e-15
  70
    32
  0
VERTEX
  8
0
  5
1123
 10
14.4448
 20
-31.7704
 30
-3.29141e-15
  70
    32
  0
VERTEX
  8
0
  5
1124
 10
14.5752
 20
-31.7108
 30
-3.32098e-15
  70
    32
  0
VERTEX
  8
0
  5
1125
 10
14.7054
 20
-31.6506
 30
-3.35046e-15
  70
    32
  0
VERTEX
  8
0
  5
1126
 10
14.8353
 20
-31.5899
 30
-3.37985e-15
  70
    32
  0
VERTEX
  8
0
  5
1127
 10
14.9649
 20
-31.5287
 30
-3.40915e-15
  70
    32
  0
VERTEX
  8
0
  5
1128
 10
15.0943
 20
-31.4670
 30
-3.43835e-15
  70
    32
  0
VERTEX
  8
0
  5
1129
 10
15.2234
 20
-31.4048
 30
-3.46747e-15
  70
    32
  0
VERTEX
  8
0
  5
112A
 10
15.3522
 20
-31.3420
 30
-3.49650e-15
  70
    32
  0
VERTEX
  8
0
  5
112B
 10
15.4807
 20
-31.2787
 30
-3.52544e-15
  70
    32
  0
VERTEX
  8
0
  5
112C
 10
15.6090
 20
-31.2149
 30
-3.55429e-15
  70
    32
  0
VERTEX
  8
0
  5
112D
 10
15.7369
 20
-31.1506
 30
-3.58305e-15
  70
    32
  0
VERTEX
  8
0
  5
112E
 10
15.8646
 20
-31.0857
 30
-3.61173e-15
  70
    32
  0
VERTEX
  8
0
  5
112F
 10
15.9920
 20
-31.0204
 30
-3.64032e-15
  70
    32
  0
VERTEX
  8
0
  5
1130
 10
16.1192
 20
-30.9545
 30
-3.66882e-15
  70
    32
  0
VERTEX
  8
0
  5
1131
 10
16.2460
 20
-30.8881
 30
-3.69724e-15
  70
    32
  0
VERTEX
  8
0
  5
1132
 10
16.3725
 20
-30.8213
 30
-3.72558e-15
  70
    32
  0
VERTEX
  8
0
  5
1133
 10
16.4988
 20
-30.7539
 30
-3.75383e-15
  70
    32
  0
VERTEX
  8
0
  5
1134
 10
16.6247
 20
-30.6859
 30
-3.78200e-15
  70
    32
  0
VERTEX
  8
0
  5
1135
 10
16.7504
 20
-30.6175
 30
-3.81009e-15
  70
    32
  0
VERTEX
  8
0
  5
1136
 10
16.8758
 20
-30.5486
 30
-3.83810e-15
  70
    32
  0
VERTEX
  8
0
  5
1137
 10
17.0009
 20
-30.4792
 30
-3.86603e-15
  70
    32
  0
VERTEX
  8
0
  5
1138
 10
17.1257
 20
-30.4092
 30
-3.89387e-15
  70
    32
  0
VERTEX
  8
0
  5
1139
 10
17.2501
 20
-30.3388
 30
-3.92164e-15
  70
    32
  0
VERTEX
  8
0
  5
113A
 10
17.3743
 20
-30.2678
 30
-3.94932e-15
  70
    32
  0
VERTEX
  8
0
  5
113B
 10
17.4982
 20
-30.1964
 30
-3.97693e-15
  70
    32
  0
VERTEX
  8
0
  5
113C
 10
17.6218
 20
-30.1244
 30
-4.00446e-15
  70
    32
  0
VERTEX
  8
0
  5
113D
 10
17.7451
 20
-30.0520
 30
-4.03192e-15
  70
    32
  0
VERTEX
  8
0
  5
113E
 10
17.8680
 20
-29.9790
 30
-4.05930e-15
  70
    32
  0
VERTEX
  8
0
  5
113F
 10
17.9907
 20
-29.9056
 30
-4.08660e-15
  70
    32
  0
VERTEX
  8
0
  5
1140
 10
18.1130
 20
-29.8316
 30
-4.11383e-15
  70
    32
  0
VERTEX
  8
0
  5
1141
 10
18.2351
 20
-29.7572
 30
-4.14098e-15
  70
    32
  0
VERTEX
  8
0
  5
1142
 10
18.3568
 20
-29.6823
 30
-4.16806e-15
  70
    32
  0
VERTEX
  8
0
  5
1143
 10
18.4782
 20
-29.6068
 30
-4.19506e-15
  70
    32
  0
VERTEX
  8
0
  5
1144
 10
18.5993
 20
-29.5309
 30
-4.22200e-15
  70
    32
  0
VERTEX
  8
0
  5
1145
 10
18.7201
 20
-29.4545
 30
-4.24886e-15
  70
    32
  0
VERTEX
  8
0
  5
1146
 10
18.8406
 20
-29.3776
 30
-4.27565e-15
  70
    32
  0
VERTEX
  8
0
  5
1147
 10
18.9607
 20
-29.3002
 30
-4.30237e-15
  70
    32
  0
VERTEX
  8
0
  5
1148
 10
19.0805
 20
-29.2223
 30
-4.32902e-15
  70
    32
  0
VERTEX
  8
0
  5
1149
 10
19.2000
 20
-29.1439
 30
-4.35560e-15
  70
    32
  0
VERTEX
  8
0
  5
114A
 10
19.3192
 20
-29.0651
 30
-4.38211e-15
  70
    32
  0
VERTEX
  8
0
  5
114B
 10
19.4381
 20
-28.9857
 30
-4.40856e-15
  70
    32
  0
VERTEX
  8
0
  5
114C
 10
19.5566
 20
-28.9059
 30
-4.43493e-15
  70
    32
  0
VERTEX
  8
0
  5
114D
 10
19.6748
 20
-28.8256
 30
-4.46124e-15
  70
    32
  0
VERTEX
  8
0
  5
114E
 10
19.7926
 20
-28.7447
 30
-4.48749e-15
  70
    32
  0
VERTEX
  8
0
  5
114F
 10
19.9102
 20
-28.6635
 30
-4.51367e-15
  70
    32
  0
VERTEX
  8
0
  5
1150
 10
20.0274
 20
-28.5817
 30
-4.53978e-15
  70
    32
  0
VERTEX
  8
0
  5
1151
 10
20.1442
 20
-28.4995
 30
-4.56583e-15
  70
    32
  0
VERTEX
  8
0
  5
1152
 10
20.2608
 20
-28.4167
 30
-4.59182e-15
  70
    32
  0
VERTEX
  8
0
  5
1153
 10
20.3770
 20
-28.3335
 30
-4.61774e-15
  70
    32
  0
VERTEX
  8
0
  5
1154
 10
20.4928
 20
-28.2498
 30
-4.64360e-15
  70
    32
  0
VERTEX
  8
0
  5
1155
 10
20.6083
 20
-28.1657
 30
-4.66940e-15
  70
    32
  0
VERTEX
  8
0
  5
1156
 10
20.7235
 20
-28.0811
 30
-4.69514e-15
  70
    32
  0
VERTEX
  8
0
  5
1157
 10
20.8383
 20
-27.9960
 30
-4.72082e-15
  70
    32
  0
VERTEX
  8
0
  5
1158
 10
20.9528
 20
-27.9104
 30
-4.74644e-15
  70
    32
  0
VERTEX
  8
0
  5
1159
 10
21.0669
 20
-27.8243
 30
-4.77200e-15
  70
    32
  0
VERTEX
  8
0
  5
115A
 10
21.1807
 20
-27.7378
 30
-4.79750e-15
  70
    32
  0
VERTEX
  8
0
  5
115B
 10
21.2942
 20
-27.6508
 30
-4.82294e-15
  70
    32
  0
VERTEX
  8
0
  5
115C
 10
21.4072
 20
-27.5634
 30
-4.84833e-15
  70
    32
  0
VERTEX
  8
0
  5
115D
 10
21.5200
 20
-27.4754
 30
-4.87366e-15
  70
    32
  0
VERTEX
  8
0
  5
115E
 10
21.6324
 20
-27.3870
 30
-4.89894e-15
  70
    32
  0
VERTEX
  8
0
  5
115F
 10
21.7444
 20
-27.2982
 30
-4.92416e-15
  70
    32
  0
VERTEX
  8
0
  5
1160
 10
21.8561
 20
-27.2089
 30
-4.94932e-15
  70
    32
  0
VERTEX
  8
0
  5
1161
 10
21.9674
 20
-27.1191
 30
-4.97443e-15
  70
    32
  0
VERTEX
  8
0
  5
1162
 10
22.0783
 20
-27.0288
 30
-4.99949e-15
  70
    32
  0
VERTEX
  8
0
  5
1163
 10
22.1889
 20
-26.9381
 30
-5.02450e-15
  70
    32
  0
VERTEX
  8
0
  5
1164
 10
22.2991
 20
-26.8469
 30
-5.04945e-15
  70
    32
  0
VERTEX
  8
0
  5
1165
 10
22.4090
 20
-26.7553
 30
-5.07436e-15
  70
    32
  0
VERTEX
  8
0
  5
1166
 10
22.5185
 20
-26.6632
 30
-5.09921e-15
  70
    32
  0
VERTEX
  8
0
  5
1167
 10
22.6276
 20
-26.5707
 30
-5.12401e-15
  70
    32
  0
VERTEX
  8
0
  5
1168
 10
22.7364
 20
-26.4777
 30
-5.14876e-15
  70
    32
  0
VERTEX
  8
0
  5
1169
 10
22.8448
 20
-26.3842
 30
-5.17347e-15
  70
    32
  0
VERTEX
  8
0
  5
116A
 10
22.9528
 20
-26.2903
 30
-5.19812e-15
  70
    32
  0
VERTEX
  8
0
  5
116B
 10
23.0604
 20
-26.1959
 30
-5.22273e-15
  70
    32
  0
VERTEX
  8
0
  5
116C
 10
23.1677
 20
-26.1011
 30
-5.24730e-15
  70
    32
  0
VERTEX
  8
0
  5
116D
 10
23.2746
 20
-26.0058
 30
-5.27181e-15
  70
    32
  0
VERTEX
  8
0
  5
116E
 10
23.3811
 20
-25.9101
 30
-5.29628e-15
  70
    32
  0
VERTEX
  8
0
  5
116F
 10
23.4872
 20
-25.8140
 30
-5.32071e-15
  70
    32
  0
VERTEX
  8
0
  5
1170
 10
23.5930
 20
-25.7173
 30
-5.34509e-15
  70
    32
  0
VERTEX
  8
0
  5
1171
 10
23.6983
 20
-25.6203
 30
-5.36943e-15
  70
    32
  0
VERTEX
  8
0
  5
1172
 10
23.8033
 20
-25.5228
 30
-5.39373e-15
  70
    32
  0
VERTEX
  8
0
  5
1173
 10
23.9079
 20
-25.4248
 30
-5.41798e-15
  70
    32
  0
VERTEX
  8
0
  5
1174
 10
24.0121
 20
-25.3264
 30
-5.44219e-15
  70
    32
  0
VERTEX
  8
0
  5
1175
 10
24.1160
 20
-25.2276
 30
-5.46636e-15
  70
    32
  0
VERTEX
  8
0
  5
1176
 10
24.2194
 20
-25.1283
 30
-5.49049e-15
  70
    32
  0
VERTEX
  8
0
  5
1177
 10
24.3225
 20
-25.0285
 30
-5.51458e-15
  70
    32
  0
VERTEX
  8
0
  5
1178
 10
24.4251
 20
-24.9284
 30
-5.53864e-15
  70
    32
  0
VERTEX
  8
0
  5
1179
 10
24.5274
 20
-24.8278
 30
-5.56265e-15
  70
    32
  0
VERTEX
  8
0
  5
117A
 10
24.6292
 20
-24.7267
 30
-5.58663e-15
  70
    32
  0
VERTEX
  8
0
  5
117B
 10
24.7307
 20
-24.6252
 30
-5.61057e-15
  70
    32
  0
VERTEX
  8
0
  5
117C
 10
24.8318
 20
-24.5233
 30
-5.63447e-15
  70
    32
  0
VERTEX
  8
0
  5
117D
 10
24.9324
 20
-24.4210
 30
-5.65833e-15
  70
    32
  0
VERTEX
  8
0
  5
117E
 10
25.0327
 20
-24.3182
 30
-5.68210e-15
  70
    32
  0
VERTEX
  8
0
  5
117F
 10
25.1324
 20
-24.2151
 30
-5.70576e-15
  70
    32
  0
VERTEX
  8
0
  5
1180
 10
25.2318
 20
-24.1116
 30
-5.72932e-15
  70
    32
  0
VERTEX
  8
0
  5
1181
 10
25.3307
 20
-24.0076
 30
-5.75278e-15
  70
    32
  0
VERTEX
  8
0
  5
1182
 10
25.4291
 20
-23.9033
 30
-5.77613e-15
  70
    32
  0
VERTEX
  8
0
  5
1183
 10
25.5271
 20
-23.7986
 30
-5.79938e-15
  70
    32
  0
VERTEX
  8
0
  5
1184
 10
25.6247
 20
-23.6936
 30
-5.82252e-15
  70
    32
  0
VERTEX
  8
0
  5
1185
 10
25.7218
 20
-23.5881
 30
-5.84555e-15
  70
    32
  0
VERTEX
  8
0
  5
1186
 10
25.8185
 20
-23.4823
 30
-5.86848e-15
  70
    32
  0
VERTEX
  8
0
  5
1187
 10
25.9147
 20
-23.3761
 30
-5.89129e-15
  70
    32
  0
VERTEX
  8
0
  5
1188
 10
26.0104
 20
-23.2695
 30
-5.91400e-15
  70
    32
  0
VERTEX
  8
0
  5
1189
 10
26.1057
 20
-23.1625
 30
-5.93659e-15
  70
    32
  0
VERTEX
  8
0
  5
118A
 10
26.2006
 20
-23.0552
 30
-5.95908e-15
  70
    32
  0
VERTEX
  8
0
  5
118B
 10
26.2950
 20
-22.9474
 30
-5.98145e-15
  70
    32
  0
VERTEX
  8
0
  5
118C
 10
26.3889
 20
-22.8393
 30
-6.00371e-15
  70
    32
  0
VERTEX
  8
0
  5
118D
 10
26.4824
 20
-22.7309
 30
-6.02586e-15
  70
    32
  0
VERTEX
  8
0
  5
118E
 10
26.5754
 20
-22.6221
 30
-6.04790e-15
  70
    32
  0
VERTEX
  8
0
  5
118F
 10
26.6680
 20
-22.5129
 30
-6.06982e-15
  70
    32
  0
VERTEX
  8
0
  5
1190
 10
26.7601
 20
-22.4033
 30
-6.09162e-15
  70
    32
  0
VERTEX
  8
0
  5
1191
 10
26.8517
 20
-22.2934
 30
-6.11331e-15
  70
    32
  0
VERTEX
  8
0
  5
1192
 10
26.9429
 20
-22.1831
 30
-6.13488e-15
  70
    32
  0
VERTEX
  8
0
  5
1193
 10
27.0336
 20
-22.0724
 30
-6.15634e-15
  70
    32
  0
VERTEX
  8
0
  5
1194
 10
27.1239
 20
-21.9614
 30
-6.17768e-15
  70
    32
  0
VERTEX
  8
0
  5
1195
 10
27.2137
 20
-21.8501
 30
-6.19890e-15
  70
    32
  0
VERTEX
  8
0
  5
1196
 10
27.3030
 20
-21.7383
 30
-6.22000e-15
  70
    32
  0
VERTEX
  8
0
  5
1197
 10
27.3919
 20
-21.6263
 30
-6.24098e-15
  70
    32
  0
VERTEX
  8
0
  5
1198
 10
27.4803
 20
-21.5138
 30
-6.26184e-15
  70
    32
  0
VERTEX
  8
0
  5
1199
 10
27.5682
 20
-21.4011
 30
-6.28258e-15
  70
    32
  0
VERTEX
  8
0
  5
119A
 10
27.6556
 20
-21.2879
 30
-6.30320e-15
  70
    32
  0
VERTEX
  8
0
  5
119B
 10
27.7426
 20
-21.1744
 30
-6.32369e-15
  70
    32
  0
VERTEX
  8
0
  5
119C
 10
27.8291
 20
-21.0606
 30
-6.34406e-15
  70
    32
  0
VERTEX
  8
0
  5
119D
 10
27.9152
 20
-20.9464
 30
-6.36431e-15
  70
    32
  0
VERTEX
  8
0
  5
119E
 10
28.0007
 20
-20.8319
 30
-6.38443e-15
  70
    32
  0
VERTEX
  8
0
  5
119F
 10
28.0858
 20
-20.7170
 30
-6.40443e-15
  70
    32
  0
VERTEX
  8
0
  5
11A0
 10
28.1704
 20
-20.6018
 30
-6.42430e-15
  70
    32
  0
VERTEX
  8
0
  5
11A1
 10
28.2546
 20
-20.4863
 30
-6.44404e-15
  70
    32
  0
VERTEX
  8
0
  5
11A2
 10
28.3382
 20
-20.3704
 30
-6.46366e-15
  70
    32
  0
VERTEX
  8
0
  5
11A3
 10
28.4214
 20
-20.2542
 30
-6.48315e-15
  70
    32
  0
VERTEX
  8
0
  5
11A4
 10
28.5041
 20
-20.1376
 30
-6.50250e-15
  70
    32
  0
VERTEX
  8
0
  5
11A5
 10
28.5863
 20
-20.0207
 30
-6.52173e-15
  70
    32
  0
VERTEX
  8
0
  5
11A6
 10
28.6681
 20
-19.9035
 30
-6.54083e-15
  70
    32
  0
VERTEX
  8
0
  5
11A7
 10
28.7493
 20
-19.7860
 30
-6.55980e-15
  70
    32
  0
VERTEX
  8
0
  5
11A8
 10
28.8301
 20
-19.6681
 30
-6.57864e-15
  70
    32
  0
VERTEX
  8
0
  5
11A9
 10
28.9104
 20
-19.5499
 30
-6.59734e-15
  70
    32
  0
VERTEX
  8
0
  5
11AA
 10
28.9902
 20
-19.4313
 30
-6.61591e-15
  70
    32
  0
VERTEX
  8
0
  5
11AB
 10
29.0695
 20
-19.3125
 30
-6.63435e-15
  70
    32
  0
VERTEX
  8
0
  5
11AC
 10
29.1484
 20
-19.1933
 30
-6.65265e-15
  70
    32
  0
VERTEX
  8
0
  5
11AD
 10
29.2267
 20
-19.0738
 30
-6.67081e-15
  70
    32
  0
VERTEX
  8
0
  5
11AE
 10
29.3046
 20
-18.9539
 30
-6.68884e-15
  70
    32
  0
VERTEX
  8
0
  5
11AF
 10
29.3819
 20
-18.8338
 30
-6.70674e-15
  70
    32
  0
VERTEX
  8
0
  5
11B0
 10
29.4588
 20
-18.7133
 30
-6.72449e-15
  70
    32
  0
VERTEX
  8
0
  5
11B1
 10
29.5352
 20
-18.5926
 30
-6.74211e-15
  70
    32
  0
VERTEX
  8
0
  5
11B2
 10
29.6110
 20
-18.4715
 30
-6.75959e-15
  70
    32
  0
VERTEX
  8
0
  5
11B3
 10
29.6864
 20
-18.3501
 30
-6.77693e-15
  70
    32
  0
VERTEX
  8
0
  5
11B4
 10
29.7613
 20
-18.2283
 30
-6.79413e-15
  70
    32
  0
VERTEX
  8
0
  5
11B5
 10
29.8357
 20
-18.1063
 30
-6.81119e-15
  70
    32
  0
VERTEX
  8
0
  5
11B6
 10
29.9096
 20
-17.9840
 30
-6.82811e-15
  70
    32
  0
VERTEX
  8
0
  5
11B7
 10
29.9830
 20
-17.8613
 30
-6.84488e-15
  70
    32
  0
VERTEX
  8
0
  5
11B8
 10
30.0559
 20
-17.7384
 30
-6.86151e-15
  70
    32
  0
VERTEX
  8
0
  5
11B9
 10
30.1283
 20
-17.6151
 30
-6.87800e-15
  70
    32
  0
VERTEX
  8
0
  5
11BA
 10
30.2002
 20
-17.4916
 30
-6.89435e-15
  70
    32
  0
VERTEX
  8
0
  5
11BB
 10
30.2716
 20
-17.3677
 30
-6.91055e-15
  70
    32
  0
VERTEX
  8
0
  5
11BC
 10
30.3425
 20
-17.2436
 30
-6.92660e-15
  70
    32
  0
VERTEX
  8
0
  5
11BD
 10
30.4129
 20
-17.1191
 30
-6.94251e-15
  70
    32
  0
VERTEX
  8
0
  5
11BE
 10
30.4828
 20
-16.9944
 30
-6.95827e-15
  70
    32
  0
VERTEX
  8
0
  5
11BF
 10
30.5522
 20
-16.8693
 30
-6.97388e-15
  70
    32
  0
VERTEX
  8
0
  5
11C0
 10
30.6210
 20
-16.7440
 30
-6.98934e-15
  70
    32
  0
VERTEX
  8
0
  5
11C1
 10
30.6894
 20
-16.6184
 30
-7.00466e-15
  70
    32
  0
VERTEX
  8
0
  5
11C2
 10
30.7573
 20
-16.4925
 30
-7.01982e-15
  70
    32
  0
VERTEX
  8
0
  5
11C3
 10
30.8246
 20
-16.3662
 30
-7.03483e-15
  70
    32
  0
VERTEX
  8
0
  5
11C4
 10
30.8914
 20
-16.2398
 30
-7.04970e-15
  70
    32
  0
VERTEX
  8
0
  5
11C5
 10
30.9577
 20
-16.1130
 30
-7.06441e-15
  70
    32
  0
VERTEX
  8
0
  5
11C6
 10
31.0235
 20
-15.9859
 30
-7.07896e-15
  70
    32
  0
VERTEX
  8
0
  5
11C7
 10
31.0888
 20
-15.8586
 30
-7.09337e-15
  70
    32
  0
VERTEX
  8
0
  5
11C8
 10
31.1536
 20
-15.7309
 30
-7.10762e-15
  70
    32
  0
VERTEX
  8
0
  5
11C9
 10
31.2179
 20
-15.6030
 30
-7.12171e-15
  70
    32
  0
VERTEX
  8
0
  5
11CA
 10
31.2816
 20
-15.4749
 30
-7.13565e-15
  70
    32
  0
VERTEX
  8
0
  5
11CB
 10
31.3448
 20
-15.3464
 30
-7.14943e-15
  70
    32
  0
VERTEX
  8
0
  5
11CC
 10
31.4075
 20
-15.2177
 30
-7.16306e-15
  70
    32
  0
VERTEX
  8
0
  5
11CD
 10
31.4697
 20
-15.0887
 30
-7.17653e-15
  70
    32
  0
VERTEX
  8
0
  5
11CE
 10
31.5314
 20
-14.9594
 30
-7.18984e-15
  70
    32
  0
VERTEX
  8
0
  5
11CF
 10
31.5925
 20
-14.8298
 30
-7.20299e-15
  70
    32
  0
VERTEX
  8
0
  5
11D0
 10
31.6531
 20
-14.7000
 30
-7.21598e-15
  70
    32
  0
VERTEX
  8
0
  5
11D1
 10
31.7132
 20
-14.5699
 30
-7.22881e-15
  70
    32
  0
VERTEX
  8
0
  5
11D2
 10
31.7728
 20
-14.4396
 30
-7.24148e-15
  70
    32
  0
VERTEX
  8
0
  5
11D3
 10
31.8318
 20
-14.3089
 30
-7.25399e-15
  70
    32
  0
VERTEX
  8
0
  5
11D4
 10
31.8903
 20
-14.1781
 30
-7.26633e-15
  70
    32
  0
VERTEX
  8
0
  5
11D5
 10
31.9483
 20
-14.0469
 30
-7.27852e-15
  70
    32
  0
VERTEX
  8
0
  5
11D6
 10
32.0058
 20
-13.9155
 30
-7.29053e-15
  70
    32
  0
VERTEX
  8
0
  5
11D7
 10
32.0627
 20
-13.7839
 30
-7.30239e-15
  70
    32
  0
VERTEX
  8
0
  5
11D8
 10
32.1191
 20
-13.6519
 30
-7.31408e-15
  70
    32
  0
VERTEX
  8
0
  5
11D9
 10
32.1749
 20
-13.5198
 30
-7.32560e-15
  70
    32
  0
VERTEX
  8
0
  5
11DA
 10
32.2303
 20
-13.3873
 30
-7.33695e-15
  70
    32
  0
VERTEX
  8
0
  5
11DB
 10
32.2850
 20
-13.2547
 30
-7.34814e-15
  70
    32
  0
VERTEX
  8
0
  5
11DC
 10
32.3393
 20
-13.1218
 30
-7.35919e-15
  70
    32
  0
VERTEX
  8
0
  5
11DD
 10
32.3930
 20
-12.9886
 30
-7.37013e-15
  70
    32
  0
VERTEX
  8
0
  5
11DE
 10
32.4461
 20
-12.8553
 30
-7.38098e-15
  70
    32
  0
VERTEX
  8
0
  5
11DF
 10
32.4987
 20
-12.7219
 30
-7.39172e-15
  70
    32
  0
VERTEX
  8
0
  5
11E0
 10
32.5507
 20
-12.5882
 30
-7.40236e-15
  70
    32
  0
VERTEX
  8
0
  5
11E1
 10
32.6022
 20
-12.4543
 30
-7.41290e-15
  70
    32
  0
VERTEX
  8
0
  5
11E2
 10
32.6530
 20
-12.3202
 30
-7.42334e-15
  70
    32
  0
VERTEX
  8
0
  5
11E3
 10
32.7034
 20
-12.1860
 30
-7.43367e-15
  70
    32
  0
VERTEX
  8
0
  5
11E4
 10
32.7532
 20
-12.0516
 30
-7.44390e-15
  70
    32
  0
VERTEX
  8
0
  5
11E5
 10
32.8024
 20
-11.9170
 30
-7.45403e-15
  70
    32
  0
VERTEX
  8
0
  5
11E6
 10
32.8510
 20
-11.7822
 30
-7.46406e-15
  70
    32
  0
VERTEX
  8
0
  5
11E7
 10
32.8991
 20
-11.6472
 30
-7.47398e-15
  70
    32
  0
VERTEX
  8
0
  5
11E8
 10
32.9467
 20
-11.5121
 30
-7.48379e-15
  70
    32
  0
VERTEX
  8
0
  5
11E9
 10
32.9936
 20
-11.3768
 30
-7.49350e-15
  70
    32
  0
VERTEX
  8
0
  5
11EA
 10
33.0400
 20
-11.2413
 30
-7.50311e-15
  70
    32
  0
VERTEX
  8
0
  5
11EB
 10
33.0859
 20
-11.1056
 30
-7.51261e-15
  70
    32
  0
VERTEX
  8
0
  5
11EC
 10
33.1312
 20
-10.9698
 30
-7.52200e-15
  70
    32
  0
VERTEX
  8
0
  5
11ED
 10
33.1759
 20
-10.8338
 30
-7.53129e-15
  70
    32
  0
VERTEX
  8
0
  5
11EE
 10
33.2200
 20
-10.6976
 30
-7.54047e-15
  70
    32
  0
VERTEX
  8
0
  5
11EF
 10
33.2636
 20
-10.5613
 30
-7.54954e-15
  70
    32
  0
VERTEX
  8
0
  5
11F0
 10
33.3066
 20
-10.4248
 30
-7.55851e-15
  70
    32
  0
VERTEX
  8
0
  5
11F1
 10
33.3491
 20
-10.2882
 30
-7.56737e-15
  70
    32
  0
VERTEX
  8
0
  5
11F2
 10
33.3910
 20
-10.1514
 30
-7.57612e-15
  70
    32
  0
VERTEX
  8
0
  5
11F3
 10
33.4323
 20
-10.0144
 30
-7.58476e-15
  70
    32
  0
VERTEX
  8
0
  5
11F4
 10
33.4731
 20
-9.87729
 30
-7.59330e-15
  70
    32
  0
VERTEX
  8
0
  5
11F5
 10
33.5133
 20
-9.74002
 30
-7.60172e-15
  70
    32
  0
VERTEX
  8
0
  5
11F6
 10
33.5529
 20
-9.60260
 30
-7.61004e-15
  70
    32
  0
VERTEX
  8
0
  5
11F7
 10
33.5920
 20
-9.46503
 30
-7.61824e-15
  70
    32
  0
VERTEX
  8
0
  5
11F8
 10
33.6305
 20
-9.32731
 30
-7.62634e-15
  70
    32
  0
VERTEX
  8
0
  5
11F9
 10
33.6684
 20
-9.18945
 30
-7.63433e-15
  70
    32
  0
VERTEX
  8
0
  5
11FA
 10
33.7058
 20
-9.05144
 30
-7.64220e-15
  70
    32
  0
VERTEX
  8
0
  5
11FB
 10
33.7426
 20
-8.91329
 30
-7.64997e-15
  70
    32
  0
VERTEX
  8
0
  5
11FC
 10
33.7788
 20
-8.77499
 30
-7.65762e-15
  70
    32
  0
VERTEX
  8
0
  5
11FD
 10
33.8145
 20
-8.63656
 30
-7.66516e-15
  70
    32
  0
VERTEX
  8
0
  5
11FE
 10
33.8496
 20
-8.49799
 30
-7.67259e-15
  70
    32
  0
VERTEX
  8
0
  5
11FF
 10
33.8841
 20
-8.35929
 30
-7.67990e-15
  70
    32
  0
VERTEX
  8
0
  5
1200
 10
33.9180
 20
-8.22045
 30
-7.68711e-15
  70
    32
  0
VERTEX
  8
0
  5
1201
 10
33.9514
 20
-8.08148
 30
-7.69420e-15
  70
    32
  0
VERTEX
  8
0
  5
1202
 10
33.9842
 20
-7.94238
 30
-7.70117e-15
  70
    32
  0
VERTEX
  8
0
  5
1203
 10
34.0165
 20
-7.80316
 30
-7.70804e-15
  70
    32
  0
VERTEX
  8
0
  5
1204
 10
34.0481
 20
-7.66380
 30
-7.71478e-15
  70
    32
  0
VERTEX
  8
0
  5
1205
 10
34.0792
 20
-7.52432
 30
-7.72142e-15
  70
    32
  0
VERTEX
  8
0
  5
1206
 10
34.1097
 20
-7.38472
 30
-7.72794e-15
  70
    32
  0
VERTEX
  8
0
  5
1207
 10
34.1397
 20
-7.24500
 30
-7.73434e-15
  70
    32
  0
VERTEX
  8
0
  5
1208
 10
34.1691
 20
-7.10516
 30
-7.74063e-15
  70
    32
  0
VERTEX
  8
0
  5
1209
 10
34.1979
 20
-6.96519
 30
-7.74680e-15
  70
    32
  0
VERTEX
  8
0
  5
120A
 10
34.2261
 20
-6.82512
 30
-7.75286e-15
  70
    32
  0
VERTEX
  8
0
  5
120B
 10
34.2538
 20
-6.68493
 30
-7.75880e-15
  70
    32
  0
VERTEX
  8
0
  5
120C
 10
34.2809
 20
-6.54463
 30
-7.76462e-15
  70
    32
  0
VERTEX
  8
0
  5
120D
 10
34.3074
 20
-6.40421
 30
-7.77032e-15
  70
    32
  0
VERTEX
  8
0
  5
120E
 10
34.3333
 20
-6.26369
 30
-7.77591e-15
  70
    32
  0
VERTEX
  8
0
  5
120F
 10
34.3587
 20
-6.12306
 30
-7.78138e-15
  70
    32
  0
VERTEX
  8
0
  5
1210
 10
34.3834
 20
-5.98233
 30
-7.78673e-15
  70
    32
  0
VERTEX
  8
0
  5
1211
 10
34.4076
 20
-5.84149
 30
-7.79196e-15
  70
    32
  0
VERTEX
  8
0
  5
1212
 10
34.4313
 20
-5.70055
 30
-7.79708e-15
  70
    32
  0
VERTEX
  8
0
  5
1213
 10
34.4543
 20
-5.55951
 30
-7.80207e-15
  70
    32
  0
VERTEX
  8
0
  5
1214
 10
34.4768
 20
-5.41838
 30
-7.80695e-15
  70
    32
  0
VERTEX
  8
0
  5
1215
 10
34.4987
 20
-5.27714
 30
-7.81170e-15
  70
    32
  0
VERTEX
  8
0
  5
1216
 10
34.5200
 20
-5.13581
 30
-7.81633e-15
  70
    32
  0
VERTEX
  8
0
  5
1217
 10
34.5408
 20
-4.99439
 30
-7.82085e-15
  70
    32
  0
VERTEX
  8
0
  5
1218
 10
34.5609
 20
-4.85288
 30
-7.82524e-15
  70
    32
  0
VERTEX
  8
0
  5
1219
 10
34.5805
 20
-4.71128
 30
-7.82951e-15
  70
    32
  0
VERTEX
  8
0
  5
121A
 10
34.5995
 20
-4.56959
 30
-7.83366e-15
  70
    32
  0
VERTEX
  8
0
  5
121B
 10
34.6180
 20
-4.42782
 30
-7.83768e-15
  70
    32
  0
VERTEX
  8
0
  5
121C
 10
34.6358
 20
-4.28596
 30
-7.84159e-15
  70
    32
  0
VERTEX
  8
0
  5
121D
 10
34.6531
 20
-4.14402
 30
-7.84537e-15
  70
    32
  0
VERTEX
  8
0
  5
121E
 10
34.6698
 20
-4.00200
 30
-7.84902e-15
  70
    32
  0
VERTEX
  8
0
  5
121F
 10
34.6859
 20
-3.85990
 30
-7.85256e-15
  70
    32
  0
VERTEX
  8
0
  5
1220
 10
34.7014
 20
-3.71772
 30
-7.85597e-15
  70
    32
  0
VERTEX
  8
0
  5
1221
 10
34.7164
 20
-3.57547
 30
-7.85925e-15
  70
    32
  0
VERTEX
  8
0
  5
1222
 10
34.7307
 20
-3.43315
 30
-7.86242e-15
  70
    32
  0
VERTEX
  8
0
  5
1223
 10
34.7445
 20
-3.29075
 30
-7.86545e-15
  70
    32
  0
VERTEX
  8
0
  5
1224
 10
34.7577
 20
-3.14829
 30
-7.86836e-15
  70
    32
  0
VERTEX
  8
0
  5
1225
 10
34.7703
 20
-3.00575
 30
-7.87115e-15
  70
    32
  0
VERTEX
  8
0
  5
1226
 10
34.7824
 20
-2.86315
 30
-7.87381e-15
  70
    32
  0
VERTEX
  8
0
  5
1227
 10
34.7938
 20
-2.72049
 30
-7.87634e-15
  70
    32
  0
VERTEX
  8
0
  5
1228
 10
34.8047
 20
-2.57776
 30
-7.87875e-15
  70
    32
  0
VERTEX
  8
0
  5
1229
 10
34.8149
 20
-2.43498
 30
-7.88103e-15
  70
    32
  0
VERTEX
  8
0
  5
122A
 10
34.8246
 20
-2.29213
 30
-7.88318e-15
  70
    32
  0
VERTEX
  8
0
  5
122B
 10
34.8338
 20
-2.14923
 30
-7.88520e-15
  70
    32
  0
VERTEX
  8
0
  5
122C
 10
34.8423
 20
-2.00627
 30
-7.88710e-15
  70
    32
  0
VERTEX
  8
0
  5
122D
 10
34.8502
 20
-1.86325
 30
-7.88887e-15
  70
    32
  0
VERTEX
  8
0
  5
122E
 10
34.8576
 20
-1.72019
 30
-7.89050e-15
  70
    32
  0
VERTEX
  8
0
  5
122F
 10
34.8643
 20
-1.57707
 30
-7.89201e-15
  70
    32
  0
VERTEX
  8
0
  5
1230
 10
34.8705
 20
-1.43391
 30
-7.89339e-15
  70
    32
  0
VERTEX
  8
0
  5
1231
 10
34.8761
 20
-1.29070
 30
-7.89464e-15
  70
    32
  0
VERTEX
  8
0
  5
1232
 10
34.8811
 20
-1.14744
 30
-7.89576e-15
  70
    32
  0
VERTEX
  8
0
  5
1233
 10
34.8856
 20
-1.00415
 30
-7.89675e-15
  70
    32
  0
VERTEX
  8
0
  5
1234
 10
34.8894
 20
-0.860806
 30
-7.89761e-15
  70
    32
  0
VERTEX
  8
0
  5
1235
 10
34.8926
 20
-0.717426
 30
-7.89834e-15
  70
    32
  0
VERTEX
  8
0
  5
1236
 10
34.8953
 20
-0.574010
 30
-7.89894e-15
  70
    32
  0
VERTEX
  8
0
  5
1237
 10
34.8973
 20
-0.430557
 30
-7.89940e-15
  70
    32
  0
VERTEX
  8
0
  5
1238
 10
34.8988
 20
-0.287070
 30
-7.89973e-15
  70
    32
  0
VERTEX
  8
0
  5
1239
 10
34.8997
 20
-0.143550
 30
-7.89993e-15
  70
    32
  0
VERTEX
  8
0
  5
123A
 10
34.9000
 20
-9.97973e-12
 30
-7.90000e-15
  70
    32
  0
SEQEND
  8
0
  5
123B
  0
CIRCLE
  5
E99
  8
0
  6
VERDECKT
 62
     1
 10
-99.993599590347614
 20
0.0000000000000246
 30
0.0000000000000284
 40
34.8999999999999986
  0
ARC
  5
E9A
  8
0
  6
VERDECKT
 62
     1
 10
-99.9935995903477277
 20
0.000000000000021
 30
0.0000000000000284
 40
36.5000000000001066
 50
270.0000000000005116
 51
359.9999999999998863
  0
ARC
  5
E9B
  8
0
  6
VERDECKT
 62
     1
 10
-99.9935995903477277
 20
-0.0000000000000891
 30
0.0000000000000284
 40
36.5000000000000711
 50
0.0000000000001018
 51
89.99999999999946
  0
ARC
  5
E9C
  8
0
  6
VERDECKT
 62
     1
 10
0.0000000000000782
 20
-0.0000000000000323
 30
0.0
 40
36.4999999999999929
 50
90.0
 51
270.0
  0
POLYLINE
  8
0
  5
123C
  62
1
  66
     1
 10
0.000000
 20
0.000000
 30
0.000000
  70
     8
  0
VERTEX
  8
0
  5
123D
 10
-2.79023e-10
 20
36.5000
 30
0.000000
  70
    32
  0
VERTEX
  8
0
  5
123E
 10
0.163621
 20
36.4996
 30
-4.66330e-17
  70
    32
  0
VERTEX
  8
0
  5
123F
 10
0.327239
 20
36.4985
 30
-1.18844e-16
  70
    32
  0
VERTEX
  8
0
  5
1240
 10
0.490839
 20
36.4967
 30
-1.56689e-16
  70
    32
  0
VERTEX
  8
0
  5
1241
 10
0.654393
 20
36.4941
 30
-1.93246e-16
  70
    32
  0
VERTEX
  8
0
  5
1242
 10
0.817900
 20
36.4908
 30
-2.29823e-16
  70
    32
  0
VERTEX
  8
0
  5
1243
 10
0.981357
 20
36.4868
 30
-2.66416e-16
  70
    32
  0
VERTEX
  8
0
  5
1244
 10
1.14476
 20
36.4820
 30
-3.03026e-16
  70
    32
  0
VERTEX
  8
0
  5
1245
 10
1.30811
 20
36.4766
 30
-3.39652e-16
  70
    32
  0
VERTEX
  8
0
  5
1246
 10
1.47140
 20
36.4703
 30
-3.76292e-16
  70
    32
  0
VERTEX
  8
0
  5
1247
 10
1.63463
 20
36.4634
 30
-4.12945e-16
  70
    32
  0
VERTEX
  8
0
  5
1248
 10
1.79780
 20
36.4557
 30
-4.49610e-16
  70
    32
  0
VERTEX
  8
0
  5
1249
 10
1.96091
 20
36.4473
 30
-4.86287e-16
  70
    32
  0
VERTEX
  8
0
  5
124A
 10
2.12395
 20
36.4381
 30
-5.22973e-16
  70
    32
  0
VERTEX
  8
0
  5
124B
 10
2.28691
 20
36.4283
 30
-5.59669e-16
  70
    32
  0
VERTEX
  8
0
  5
124C
 10
2.44981
 20
36.4177
 30
-5.96373e-16
  70
    32
  0
VERTEX
  8
0
  5
124D
 10
2.61263
 20
36.4064
 30
-6.33083e-16
  70
    32
  0
VERTEX
  8
0
  5
124E
 10
2.77538
 20
36.3943
 30
-6.69800e-16
  70
    32
  0
VERTEX
  8
0
  5
124F
 10
2.93805
 20
36.3816
 30
-7.06522e-16
  70
    32
  0
VERTEX
  8
0
  5
1250
 10
3.10063
 20
36.3681
 30
-7.43247e-16
  70
    32
  0
VERTEX
  8
0
  5
1251
 10
3.26313
 20
36.3538
 30
-7.79975e-16
  70
    32
  0
VERTEX
  8
0
  5
1252
 10
3.42555
 20
36.3389
 30
-8.16705e-16
  70
    32
  0
VERTEX
  8
0
  5
1253
 10
3.58788
 20
36.3232
 30
-8.53436e-16
  70
    32
  0
VERTEX
  8
0
  5
1254
 10
3.75011
 20
36.3068
 30
-8.90166e-16
  70
    32
  0
VERTEX
  8
0
  5
1255
 10
3.91225
 20
36.2897
 30
-9.26895e-16
  70
    32
  0
VERTEX
  8
0
  5
1256
 10
4.07430
 20
36.2719
 30
-9.63621e-16
  70
    32
  0
VERTEX
  8
0
  5
1257
 10
4.23625
 20
36.2533
 30
-1.00034e-15
  70
    32
  0
VERTEX
  8
0
  5
1258
 10
4.39810
 20
36.2340
 30
-1.03706e-15
  70
    32
  0
VERTEX
  8
0
  5
1259
 10
4.55984
 20
36.2140
 30
-1.07378e-15
  70
    32
  0
VERTEX
  8
0
  5
125A
 10
4.72148
 20
36.1933
 30
-1.11048e-15
  70
    32
  0
VERTEX
  8
0
  5
125B
 10
4.88302
 20
36.1719
 30
-1.14718e-15
  70
    32
  0
VERTEX
  8
0
  5
125C
 10
5.04444
 20
36.1497
 30
-1.18387e-15
  70
    32
  0
VERTEX
  8
0
  5
125D
 10
5.20575
 20
36.1269
 30
-1.22055e-15
  70
    32
  0
VERTEX
  8
0
  5
125E
 10
5.36694
 20
36.1033
 30
-1.25722e-15
  70
    32
  0
VERTEX
  8
0
  5
125F
 10
5.52802
 20
36.0789
 30
-1.29388e-15
  70
    32
  0
VERTEX
  8
0
  5
1260
 10
5.68898
 20
36.0539
 30
-1.33052e-15
  70
    32
  0
VERTEX
  8
0
  5
1261
 10
5.84981
 20
36.0282
 30
-1.36715e-15
  70
    32
  0
VERTEX
  8
0
  5
1262
 10
6.01053
 20
36.0017
 30
-1.40377e-15
  70
    32
  0
VERTEX
  8
0
  5
1263
 10
6.17111
 20
35.9745
 30
-1.44036e-15
  70
    32
  0
VERTEX
  8
0
  5
1264
 10
6.33157
 20
35.9466
 30
-1.47695e-15
  70
    32
  0
VERTEX
  8
0
  5
1265
 10
6.49189
 20
35.9180
 30
-1.51351e-15
  70
    32
  0
VERTEX
  8
0
  5
1266
 10
6.65208
 20
35.8887
 30
-1.55006e-15
  70
    32
  0
VERTEX
  8
0
  5
1267
 10
6.81213
 20
35.8587
 30
-1.58658e-15
  70
    32
  0
VERTEX
  8
0
  5
1268
 10
6.97204
 20
35.8279
 30
-1.62308e-15
  70
    32
  0
VERTEX
  8
0
  5
1269
 10
7.13182
 20
35.7965
 30
-1.65956e-15
  70
    32
  0
VERTEX
  8
0
  5
126A
 10
7.29145
 20
35.7643
 30
-1.69602e-15
  70
    32
  0
VERTEX
  8
0
  5
126B
 10
7.45093
 20
35.7314
 30
-1.73245e-15
  70
    32
  0
VERTEX
  8
0
  5
126C
 10
7.61026
 20
35.6978
 30
-1.76886e-15
  70
    32
  0
VERTEX
  8
0
  5
126D
 10
7.76945
 20
35.6635
 30
-1.80524e-15
  70
    32
  0
VERTEX
  8
0
  5
126E
 10
7.92848
 20
35.6285
 30
-1.84160e-15
  70
    32
  0
VERTEX
  8
0
  5
126F
 10
8.08735
 20
35.5927
 30
-1.87792e-15
  70
    32
  0
VERTEX
  8
0
  5
1270
 10
8.24607
 20
35.5563
 30
-1.91422e-15
  70
    32
  0
VERTEX
  8
0
  5
1271
 10
8.40462
 20
35.5192
 30
-1.95048e-15
  70
    32
  0
VERTEX
  8
0
  5
1272
 10
8.56302
 20
35.4813
 30
-1.98671e-15
  70
    32
  0
VERTEX
  8
0
  5
1273
 10
8.72124
 20
35.4428
 30
-2.02291e-15
  70
    32
  0
VERTEX
  8
0
  5
1274
 10
8.87931
 20
35.4035
 30
-2.05908e-15
  70
    32
  0
VERTEX
  8
0
  5
1275
 10
9.03720
 20
35.3635
 30
-2.09521e-15
  70
    32
  0
VERTEX
  8
0
  5
1276
 10
9.19491
 20
35.3228
 30
-2.13130e-15
  70
    32
  0
VERTEX
  8
0
  5
1277
 10
9.35246
 20
35.2814
 30
-2.16736e-15
  70
    32
  0
VERTEX
  8
0
  5
1278
 10
9.50982
 20
35.2394
 30
-2.20338e-15
  70
    32
  0
VERTEX
  8
0
  5
1279
 10
9.66701
 20
35.1966
 30
-2.23936e-15
  70
    32
  0
VERTEX
  8
0
  5
127A
 10
9.82401
 20
35.1531
 30
-2.27530e-15
  70
    32
  0
VERTEX
  8
0
  5
127B
 10
9.98083
 20
35.1089
 30
-2.31120e-15
  70
    32
  0
VERTEX
  8
0
  5
127C
 10
10.1375
 20
35.0640
 30
-2.34706e-15
  70
    32
  0
VERTEX
  8
0
  5
127D
 10
10.2939
 20
35.0183
 30
-2.38287e-15
  70
    32
  0
VERTEX
  8
0
  5
127E
 10
10.4502
 20
34.9720
 30
-2.41864e-15
  70
    32
  0
VERTEX
  8
0
  5
127F
 10
10.6062
 20
34.9250
 30
-2.45436e-15
  70
    32
  0
VERTEX
  8
0
  5
1280
 10
10.7621
 20
34.8773
 30
-2.49004e-15
  70
    32
  0
VERTEX
  8
0
  5
1281
 10
10.9177
 20
34.8289
 30
-2.52567e-15
  70
    32
  0
VERTEX
  8
0
  5
1282
 10
11.0732
 20
34.7798
 30
-2.56125e-15
  70
    32
  0
VERTEX
  8
0
  5
1283
 10
11.2285
 20
34.7300
 30
-2.59678e-15
  70
    32
  0
VERTEX
  8
0
  5
1284
 10
11.3835
 20
34.6795
 30
-2.63226e-15
  70
    32
  0
VERTEX
  8
0
  5
1285
 10
11.5384
 20
34.6283
 30
-2.66769e-15
  70
    32
  0
VERTEX
  8
0
  5
1286
 10
11.6930
 20
34.5763
 30
-2.70307e-15
  70
    32
  0
VERTEX
  8
0
  5
1287
 10
11.8474
 20
34.5237
 30
-2.73839e-15
  70
    32
  0
VERTEX
  8
0
  5
1288
 10
12.0016
 20
34.4704
 30
-2.77366e-15
  70
    32
  0
VERTEX
  8
0
  5
1289
 10
12.1556
 20
34.4164
 30
-2.80887e-15
  70
    32
  0
VERTEX
  8
0
  5
128A
 10
12.3094
 20
34.3617
 30
-2.84403e-15
  70
    32
  0
VERTEX
  8
0
  5
128B
 10
12.4629
 20
34.3063
 30
-2.87913e-15
  70
    32
  0
VERTEX
  8
0
  5
128C
 10
12.6162
 20
34.2503
 30
-2.91416e-15
  70
    32
  0
VERTEX
  8
0
  5
128D
 10
12.7693
 20
34.1935
 30
-2.94914e-15
  70
    32
  0
VERTEX
  8
0
  5
128E
 10
12.9222
 20
34.1360
 30
-2.98406e-15
  70
    32
  0
VERTEX
  8
0
  5
128F
 10
13.0748
 20
34.0778
 30
-3.01891e-15
  70
    32
  0
VERTEX
  8
0
  5
1290
 10
13.2272
 20
34.0190
 30
-3.05370e-15
  70
    32
  0
VERTEX
  8
0
  5
1291
 10
13.3794
 20
33.9594
 30
-3.08843e-15
  70
    32
  0
VERTEX
  8
0
  5
1292
 10
13.5313
 20
33.8992
 30
-3.12309e-15
  70
    32
  0
VERTEX
  8
0
  5
1293
 10
13.6830
 20
33.8382
 30
-3.15769e-15
  70
    32
  0
VERTEX
  8
0
  5
1294
 10
13.8344
 20
33.7766
 30
-3.19222e-15
  70
    32
  0
VERTEX
  8
0
  5
1295
 10
13.9856
 20
33.7143
 30
-3.22668e-15
  70
    32
  0
VERTEX
  8
0
  5
1296
 10
14.1365
 20
33.6513
 30
-3.26107e-15
  70
    32
  0
VERTEX
  8
0
  5
1297
 10
14.2872
 20
33.5876
 30
-3.29539e-15
  70
    32
  0
VERTEX
  8
0
  5
1298
 10
14.4376
 20
33.5232
 30
-3.32963e-15
  70
    32
  0
VERTEX
  8
0
  5
1299
 10
14.5877
 20
33.4582
 30
-3.36381e-15
  70
    32
  0
VERTEX
  8
0
  5
129A
 10
14.7375
 20
33.3925
 30
-3.39791e-15
  70
    32
  0
VERTEX
  8
0
  5
129B
 10
14.8869
 20
33.3261
 30
-3.43193e-15
  70
    32
  0
VERTEX
  8
0
  5
129C
 10
15.0360
 20
33.2591
 30
-3.46588e-15
  70
    32
  0
VERTEX
  8
0
  5
129D
 10
15.1848
 20
33.1914
 30
-3.49975e-15
  70
    32
  0
VERTEX
  8
0
  5
129E
 10
15.3333
 20
33.1231
 30
-3.53354e-15
  70
    32
  0
VERTEX
  8
0
  5
129F
 10
15.4814
 20
33.0541
 30
-3.56726e-15
  70
    32
  0
VERTEX
  8
0
  5
12A0
 10
15.6292
 20
32.9845
 30
-3.60090e-15
  70
    32
  0
VERTEX
  8
0
  5
12A1
 10
15.7766
 20
32.9143
 30
-3.63446e-15
  70
    32
  0
VERTEX
  8
0
  5
12A2
 10
15.9237
 20
32.8433
 30
-3.66794e-15
  70
    32
  0
VERTEX
  8
0
  5
12A3
 10
16.0705
 20
32.7718
 30
-3.70134e-15
  70
    32
  0
VERTEX
  8
0
  5
12A4
 10
16.2169
 20
32.6996
 30
-3.73466e-15
  70
    32
  0
VERTEX
  8
0
  5
12A5
 10
16.3630
 20
32.6267
 30
-3.76790e-15
  70
    32
  0
VERTEX
  8
0
  5
12A6
 10
16.5087
 20
32.5532
 30
-3.80106e-15
  70
    32
  0
VERTEX
  8
0
  5
12A7
 10
16.6541
 20
32.4791
 30
-3.83414e-15
  70
    32
  0
VERTEX
  8
0
  5
12A8
 10
16.7991
 20
32.4043
 30
-3.86714e-15
  70
    32
  0
VERTEX
  8
0
  5
12A9
 10
16.9437
 20
32.3289
 30
-3.90005e-15
  70
    32
  0
VERTEX
  8
0
  5
12AA
 10
17.0880
 20
32.2529
 30
-3.93288e-15
  70
    32
  0
VERTEX
  8
0
  5
12AB
 10
17.2320
 20
32.1762
 30
-3.96563e-15
  70
    32
  0
VERTEX
  8
0
  5
12AC
 10
17.3756
 20
32.0989
 30
-3.99829e-15
  70
    32
  0
VERTEX
  8
0
  5
12AD
 10
17.5188
 20
32.0209
 30
-4.03087e-15
  70
    32
  0
VERTEX
  8
0
  5
12AE
 10
17.6617
 20
31.9424
 30
-4.06336e-15
  70
    32
  0
VERTEX
  8
0
  5
12AF
 10
17.8041
 20
31.8632
 30
-4.09577e-15
  70
    32
  0
VERTEX
  8
0
  5
12B0
 10
17.9463
 20
31.7833
 30
-4.12809e-15
  70
    32
  0
VERTEX
  8
0
  5
12B1
 10
18.0880
 20
31.7029
 30
-4.16033e-15
  70
    32
  0
VERTEX
  8
0
  5
12B2
 10
18.2294
 20
31.6218
 30
-4.19247e-15
  70
    32
  0
VERTEX
  8
0
  5
12B3
 10
18.3704
 20
31.5401
 30
-4.22453e-15
  70
    32
  0
VERTEX
  8
0
  5
12B4
 10
18.5110
 20
31.4578
 30
-4.25650e-15
  70
    32
  0
VERTEX
  8
0
  5
12B5
 10
18.6513
 20
31.3748
 30
-4.28838e-15
  70
    32
  0
VERTEX
  8
0
  5
12B6
 10
18.7911
 20
31.2912
 30
-4.32018e-15
  70
    32
  0
VERTEX
  8
0
  5
12B7
 10
18.9306
 20
31.2071
 30
-4.35188e-15
  70
    32
  0
VERTEX
  8
0
  5
12B8
 10
19.0697
 20
31.1223
 30
-4.38349e-15
  70
    32
  0
VERTEX
  8
0
  5
12B9
 10
19.2084
 20
31.0368
 30
-4.41501e-15
  70
    32
  0
VERTEX
  8
0
  5
12BA
 10
19.3468
 20
30.9508
 30
-4.44644e-15
  70
    32
  0
VERTEX
  8
0
  5
12BB
 10
19.4847
 20
30.8642
 30
-4.47778e-15
  70
    32
  0
VERTEX
  8
0
  5
12BC
 10
19.6222
 20
30.7769
 30
-4.50902e-15
  70
    32
  0
VERTEX
  8
0
  5
12BD
 10
19.7594
 20
30.6890
 30
-4.54017e-15
  70
    32
  0
VERTEX
  8
0
  5
12BE
 10
19.8961
 20
30.6006
 30
-4.57123e-15
  70
    32
  0
VERTEX
  8
0
  5
12BF
 10
20.0325
 20
30.5115
 30
-4.60219e-15
  70
    32
  0
VERTEX
  8
0
  5
12C0
 10
20.1684
 20
30.4218
 30
-4.63306e-15
  70
    32
  0
VERTEX
  8
0
  5
12C1
 10
20.3039
 20
30.3315
 30
-4.66384e-15
  70
    32
  0
VERTEX
  8
0
  5
12C2
 10
20.4391
 20
30.2406
 30
-4.69452e-15
  70
    32
  0
VERTEX
  8
0
  5
12C3
 10
20.5738
 20
30.1491
 30
-4.72510e-15
  70
    32
  0
VERTEX
  8
0
  5
12C4
 10
20.7081
 20
30.0570
 30
-4.75558e-15
  70
    32
  0
VERTEX
  8
0
  5
12C5
 10
20.8420
 20
29.9643
 30
-4.78597e-15
  70
    32
  0
VERTEX
  8
0
  5
12C6
 10
20.9755
 20
29.8710
 30
-4.81626e-15
  70
    32
  0
VERTEX
  8
0
  5
12C7
 10
21.1086
 20
29.7771
 30
-4.84645e-15
  70
    32
  0
VERTEX
  8
0
  5
12C8
 10
21.2413
 20
29.6826
 30
-4.87655e-15
  70
    32
  0
VERTEX
  8
0
  5
12C9
 10
21.3735
 20
29.5875
 30
-4.90654e-15
  70
    32
  0
VERTEX
  8
0
  5
12CA
 10
21.5053
 20
29.4919
 30
-4.93644e-15
  70
    32
  0
VERTEX
  8
0
  5
12CB
 10
21.6367
 20
29.3956
 30
-4.96623e-15
  70
    32
  0
VERTEX
  8
0
  5
12CC
 10
21.7677
 20
29.2988
 30
-4.99592e-15
  70
    32
  0
VERTEX
  8
0
  5
12CD
 10
21.8982
 20
29.2013
 30
-5.02551e-15
  70
    32
  0
VERTEX
  8
0
  5
12CE
 10
22.0283
 20
29.1033
 30
-5.05500e-15
  70
    32
  0
VERTEX
  8
0
  5
12CF
 10
22.1580
 20
29.0047
 30
-5.08439e-15
  70
    32
  0
VERTEX
  8
0
  5
12D0
 10
22.2873
 20
28.9055
 30
-5.11367e-15
  70
    32
  0
VERTEX
  8
0
  5
12D1
 10
22.4161
 20
28.8057
 30
-5.14285e-15
  70
    32
  0
VERTEX
  8
0
  5
12D2
 10
22.5444
 20
28.7054
 30
-5.17193e-15
  70
    32
  0
VERTEX
  8
0
  5
12D3
 10
22.6724
 20
28.6044
 30
-5.20090e-15
  70
    32
  0
VERTEX
  8
0
  5
12D4
 10
22.7999
 20
28.5029
 30
-5.22977e-15
  70
    32
  0
VERTEX
  8
0
  5
12D5
 10
22.9269
 20
28.4008
 30
-5.25853e-15
  70
    32
  0
VERTEX
  8
0
  5
12D6
 10
23.0535
 20
28.2981
 30
-5.28719e-15
  70
    32
  0
VERTEX
  8
0
  5
12D7
 10
23.1797
 20
28.1949
 30
-5.31573e-15
  70
    32
  0
VERTEX
  8
0
  5
12D8
 10
23.3054
 20
28.0911
 30
-5.34418e-15
  70
    32
  0
VERTEX
  8
0
  5
12D9
 10
23.4306
 20
27.9867
 30
-5.37251e-15
  70
    32
  0
VERTEX
  8
0
  5
12DA
 10
23.5554
 20
27.8817
 30
-5.40074e-15
  70
    32
  0
VERTEX
  8
0
  5
12DB
 10
23.6798
 20
27.7762
 30
-5.42885e-15
  70
    32
  0
VERTEX
  8
0
  5
12DC
 10
23.8037
 20
27.6701
 30
-5.45686e-15
  70
    32
  0
VERTEX
  8
0
  5
12DD
 10
23.9271
 20
27.5635
 30
-5.48476e-15
  70
    32
  0
VERTEX
  8
0
  5
12DE
 10
24.0500
 20
27.4562
 30
-5.51254e-15
  70
    32
  0
VERTEX
  8
0
  5
12DF
 10
24.1725
 20
27.3485
 30
-5.54022e-15
  70
    32
  0
VERTEX
  8
0
  5
12E0
 10
24.2946
 20
27.2401
 30
-5.56779e-15
  70
    32
  0
VERTEX
  8
0
  5
12E1
 10
24.4161
 20
27.1312
 30
-5.59524e-15
  70
    32
  0
VERTEX
  8
0
  5
12E2
 10
24.5372
 20
27.0217
 30
-5.62258e-15
  70
    32
  0
VERTEX
  8
0
  5
12E3
 10
24.6578
 20
26.9117
 30
-5.64981e-15
  70
    32
  0
VERTEX
  8
0
  5
12E4
 10
24.7780
 20
26.8011
 30
-5.67692e-15
  70
    32
  0
VERTEX
  8
0
  5
12E5
 10
24.8977
 20
26.6900
 30
-5.70392e-15
  70
    32
  0
VERTEX
  8
0
  5
12E6
 10
25.0169
 20
26.5783
 30
-5.73081e-15
  70
    32
  0
VERTEX
  8
0
  5
12E7
 10
25.1356
 20
26.4661
 30
-5.75758e-15
  70
    32
  0
VERTEX
  8
0
  5
12E8
 10
25.2538
 20
26.3533
 30
-5.78424e-15
  70
    32
  0
VERTEX
  8
0
  5
12E9
 10
25.3715
 20
26.2399
 30
-5.81078e-15
  70
    32
  0
VERTEX
  8
0
  5
12EA
 10
25.4888
 20
26.1261
 30
-5.83720e-15
  70
    32
  0
VERTEX
  8
0
  5
12EB
 10
25.6056
 20
26.0116
 30
-5.86351e-15
  70
    32
  0
VERTEX
  8
0
  5
12EC
 10
25.7219
 20
25.8966
 30
-5.88970e-15
  70
    32
  0
VERTEX
  8
0
  5
12ED
 10
25.8376
 20
25.7811
 30
-5.91577e-15
  70
    32
  0
VERTEX
  8
0
  5
12EE
 10
25.9529
 20
25.6650
 30
-5.94172e-15
  70
    32
  0
VERTEX
  8
0
  5
12EF
 10
26.0677
 20
25.5485
 30
-5.96755e-15
  70
    32
  0
VERTEX
  8
0
  5
12F0
 10
26.1820
 20
25.4314
 30
-5.99326e-15
  70
    32
  0
VERTEX
  8
0
  5
12F1
 10
26.2957
 20
25.3138
 30
-6.01886e-15
  70
    32
  0
VERTEX
  8
0
  5
12F2
 10
26.4088
 20
25.1957
 30
-6.04433e-15
  70
    32
  0
VERTEX
  8
0
  5
12F3
 10
26.5214
 20
25.0772
 30
-6.06968e-15
  70
    32
  0
VERTEX
  8
0
  5
12F4
 10
26.6334
 20
24.9582
 30
-6.09491e-15
  70
    32
  0
VERTEX
  8
0
  5
12F5
 10
26.7449
 20
24.8387
 30
-6.12002e-15
  70
    32
  0
VERTEX
  8
0
  5
12F6
 10
26.8558
 20
24.7187
 30
-6.14501e-15
  70
    32
  0
VERTEX
  8
0
  5
12F7
 10
26.9662
 20
24.5983
 30
-6.16988e-15
  70
    32
  0
VERTEX
  8
0
  5
12F8
 10
27.0760
 20
24.4774
 30
-6.19462e-15
  70
    32
  0
VERTEX
  8
0
  5
12F9
 10
27.1852
 20
24.3560
 30
-6.21924e-15
  70
    32
  0
VERTEX
  8
0
  5
12FA
 10
27.2939
 20
24.2341
 30
-6.24373e-15
  70
    32
  0
VERTEX
  8
0
  5
12FB
 10
27.4020
 20
24.1118
 30
-6.26810e-15
  70
    32
  0
VERTEX
  8
0
  5
12FC
 10
27.5096
 20
23.9890
 30
-6.29235e-15
  70
    32
  0
VERTEX
  8
0
  5
12FD
 10
27.6166
 20
23.8658
 30
-6.31647e-15
  70
    32
  0
VERTEX
  8
0
  5
12FE
 10
27.7230
 20
23.7421
 30
-6.34046e-15
  70
    32
  0
VERTEX
  8
0
  5
12FF
 10
27.8288
 20
23.6179
 30
-6.36433e-15
  70
    32
  0
VERTEX
  8
0
  5
1300
 10
27.9341
 20
23.4933
 30
-6.38807e-15
  70
    32
  0
VERTEX
  8
0
  5
1301
 10
28.0388
 20
23.3682
 30
-6.41169e-15
  70
    32
  0
VERTEX
  8
0
  5
1302
 10
28.1430
 20
23.2427
 30
-6.43518e-15
  70
    32
  0
VERTEX
  8
0
  5
1303
 10
28.2465
 20
23.1167
 30
-6.45853e-15
  70
    32
  0
VERTEX
  8
0
  5
1304
 10
28.3495
 20
22.9903
 30
-6.48177e-15
  70
    32
  0
VERTEX
  8
0
  5
1305
 10
28.4519
 20
22.8635
 30
-6.50487e-15
  70
    32
  0
VERTEX
  8
0
  5
1306
 10
28.5538
 20
22.7361
 30
-6.52784e-15
  70
    32
  0
VERTEX
  8
0
  5
1307
 10
28.6550
 20
22.6084
 30
-6.55068e-15
  70
    32
  0
VERTEX
  8
0
  5
1308
 10
28.7557
 20
22.4802
 30
-6.57340e-15
  70
    32
  0
VERTEX
  8
0
  5
1309
 10
28.8558
 20
22.3516
 30
-6.59598e-15
  70
    32
  0
VERTEX
  8
0
  5
130A
 10
28.9553
 20
22.2225
 30
-6.61843e-15
  70
    32
  0
VERTEX
  8
0
  5
130B
 10
29.0542
 20
22.0930
 30
-6.64075e-15
  70
    32
  0
VERTEX
  8
0
  5
130C
 10
29.1525
 20
21.9631
 30
-6.66294e-15
  70
    32
  0
VERTEX
  8
0
  5
130D
 10
29.2503
 20
21.8328
 30
-6.68499e-15
  70
    32
  0
VERTEX
  8
0
  5
130E
 10
29.3475
 20
21.7020
 30
-6.70691e-15
  70
    32
  0
VERTEX
  8
0
  5
130F
 10
29.4440
 20
21.5708
 30
-6.72870e-15
  70
    32
  0
VERTEX
  8
0
  5
1310
 10
29.5400
 20
21.4392
 30
-6.75036e-15
  70
    32
  0
VERTEX
  8
0
  5
1311
 10
29.6354
 20
21.3071
 30
-6.77188e-15
  70
    32
  0
VERTEX
  8
0
  5
1312
 10
29.7302
 20
21.1746
 30
-6.79326e-15
  70
    32
  0
VERTEX
  8
0
  5
1313
 10
29.8244
 20
21.0418
 30
-6.81452e-15
  70
    32
  0
VERTEX
  8
0
  5
1314
 10
29.9180
 20
20.9085
 30
-6.83563e-15
  70
    32
  0
VERTEX
  8
0
  5
1315
 10
30.0110
 20
20.7748
 30
-6.85661e-15
  70
    32
  0
VERTEX
  8
0
  5
1316
 10
30.1034
 20
20.6406
 30
-6.87745e-15
  70
    32
  0
VERTEX
  8
0
  5
1317
 10
30.1952
 20
20.5061
 30
-6.89816e-15
  70
    32
  0
VERTEX
  8
0
  5
1318
 10
30.2864
 20
20.3712
 30
-6.91873e-15
  70
    32
  0
VERTEX
  8
0
  5
1319
 10
30.3770
 20
20.2358
 30
-6.93916e-15
  70
    32
  0
VERTEX
  8
0
  5
131A
 10
30.4669
 20
20.1001
 30
-6.95945e-15
  70
    32
  0
VERTEX
  8
0
  5
131B
 10
30.5563
 20
19.9640
 30
-6.97960e-15
  70
    32
  0
VERTEX
  8
0
  5
131C
 10
30.6451
 20
19.8274
 30
-6.99961e-15
  70
    32
  0
VERTEX
  8
0
  5
131D
 10
30.7333
 20
19.6905
 30
-7.01949e-15
  70
    32
  0
VERTEX
  8
0
  5
131E
 10
30.8208
 20
19.5532
 30
-7.03922e-15
  70
    32
  0
VERTEX
  8
0
  5
131F
 10
30.9078
 20
19.4154
 30
-7.05882e-15
  70
    32
  0
VERTEX
  8
0
  5
1320
 10
30.9941
 20
19.2773
 30
-7.07827e-15
  70
    32
  0
VERTEX
  8
0
  5
1321
 10
31.0798
 20
19.1388
 30
-7.09758e-15
  70
    32
  0
VERTEX
  8
0
  5
1322
 10
31.1649
 20
18.9999
 30
-7.11675e-15
  70
    32
  0
VERTEX
  8
0
  5
1323
 10
31.2494
 20
18.8607
 30
-7.13577e-15
  70
    32
  0
VERTEX
  8
0
  5
1324
 10
31.3332
 20
18.7210
 30
-7.15466e-15
  70
    32
  0
VERTEX
  8
0
  5
1325
 10
31.4165
 20
18.5810
 30
-7.17340e-15
  70
    32
  0
VERTEX
  8
0
  5
1326
 10
31.4991
 20
18.4406
 30
-7.19200e-15
  70
    32
  0
VERTEX
  8
0
  5
1327
 10
31.5811
 20
18.2998
 30
-7.21045e-15
  70
    32
  0
VERTEX
  8
0
  5
1328
 10
31.6625
 20
18.1586
 30
-7.22876e-15
  70
    32
  0
VERTEX
  8
0
  5
1329
 10
31.7432
 20
18.0171
 30
-7.24692e-15
  70
    32
  0
VERTEX
  8
0
  5
132A
 10
31.8234
 20
17.8752
 30
-7.26493e-15
  70
    32
  0
VERTEX
  8
0
  5
132B
 10
31.9029
 20
17.7329
 30
-7.28281e-15
  70
    32
  0
VERTEX
  8
0
  5
132C
 10
31.9817
 20
17.5903
 30
-7.30053e-15
  70
    32
  0
VERTEX
  8
0
  5
132D
 10
32.0600
 20
17.4473
 30
-7.31811e-15
  70
    32
  0
VERTEX
  8
0
  5
132E
 10
32.1376
 20
17.3040
 30
-7.33554e-15
  70
    32
  0
VERTEX
  8
0
  5
132F
 10
32.2145
 20
17.1602
 30
-7.35282e-15
  70
    32
  0
VERTEX
  8
0
  5
1330
 10
32.2909
 20
17.0162
 30
-7.36995e-15
  70
    32
  0
VERTEX
  8
0
  5
1331
 10
32.3666
 20
16.8717
 30
-7.38694e-15
  70
    32
  0
VERTEX
  8
0
  5
1332
 10
32.4416
 20
16.7269
 30
-7.40378e-15
  70
    32
  0
VERTEX
  8
0
  5
1333
 10
32.5160
 20
16.5818
 30
-7.42046e-15
  70
    32
  0
VERTEX
  8
0
  5
1334
 10
32.5898
 20
16.4363
 30
-7.43700e-15
  70
    32
  0
VERTEX
  8
0
  5
1335
 10
32.6630
 20
16.2905
 30
-7.45338e-15
  70
    32
  0
VERTEX
  8
0
  5
1336
 10
32.7355
 20
16.1443
 30
-7.46962e-15
  70
    32
  0
VERTEX
  8
0
  5
1337
 10
32.8073
 20
15.9978
 30
-7.48570e-15
  70
    32
  0
VERTEX
  8
0
  5
1338
 10
32.8785
 20
15.8509
 30
-7.50163e-15
  70
    32
  0
VERTEX
  8
0
  5
1339
 10
32.9491
 20
15.7037
 30
-7.51741e-15
  70
    32
  0
VERTEX
  8
0
  5
133A
 10
33.0190
 20
15.5562
 30
-7.53304e-15
  70
    32
  0
VERTEX
  8
0
  5
133B
 10
33.0883
 20
15.4083
 30
-7.54851e-15
  70
    32
  0
VERTEX
  8
0
  5
133C
 10
33.1569
 20
15.2601
 30
-7.56383e-15
  70
    32
  0
VERTEX
  8
0
  5
133D
 10
33.2248
 20
15.1116
 30
-7.57900e-15
  70
    32
  0
VERTEX
  8
0
  5
133E
 10
33.2921
 20
14.9627
 30
-7.59401e-15
  70
    32
  0
VERTEX
  8
0
  5
133F
 10
33.3588
 20
14.8136
 30
-7.60886e-15
  70
    32
  0
VERTEX
  8
0
  5
1340
 10
33.4248
 20
14.6640
 30
-7.62356e-15
  70
    32
  0
VERTEX
  8
0
  5
1341
 10
33.4901
 20
14.5142
 30
-7.63811e-15
  70
    32
  0
VERTEX
  8
0
  5
1342
 10
33.5548
 20
14.3640
 30
-7.65249e-15
  70
    32
  0
VERTEX
  8
0
  5
1343
 10
33.6188
 20
14.2136
 30
-7.66673e-15
  70
    32
  0
VERTEX
  8
0
  5
1344
 10
33.6822
 20
14.0628
 30
-7.68080e-15
  70
    32
  0
VERTEX
  8
0
  5
1345
 10
33.7449
 20
13.9117
 30
-7.69471e-15
  70
    32
  0
VERTEX
  8
0
  5
1346
 10
33.8069
 20
13.7603
 30
-7.70847e-15
  70
    32
  0
VERTEX
  8
0
  5
1347
 10
33.8682
 20
13.6086
 30
-7.72207e-15
  70
    32
  0
VERTEX
  8
0
  5
1348
 10
33.9288
 20
13.4567
 30
-7.73551e-15
  70
    32
  0
VERTEX
  8
0
  5
1349
 10
33.9888
 20
13.3046
 30
-7.74880e-15
  70
    32
  0
VERTEX
  8
0
  5
134A
 10
34.0480
 20
13.1522
 30
-7.76192e-15
  70
    32
  0
VERTEX
  8
0
  5
134B
 10
34.1066
 20
12.9996
 30
-7.77489e-15
  70
    32
  0
VERTEX
  8
0
  5
134C
 10
34.1645
 20
12.8468
 30
-7.78770e-15
  70
    32
  0
VERTEX
  8
0
  5
134D
 10
34.2216
 20
12.6937
 30
-7.80035e-15
  70
    32
  0
VERTEX
  8
0
  5
134E
 10
34.2781
 20
12.5404
 30
-7.81284e-15
  70
    32
  0
VERTEX
  8
0
  5
134F
 10
34.3339
 20
12.3869
 30
-7.82517e-15
  70
    32
  0
VERTEX
  8
0
  5
1350
 10
34.3890
 20
12.2331
 30
-7.83735e-15
  70
    32
  0
VERTEX
  8
0
  5
1351
 10
34.4433
 20
12.0792
 30
-7.84936e-15
  70
    32
  0
VERTEX
  8
0
  5
1352
 10
34.4970
 20
11.9250
 30
-7.86122e-15
  70
    32
  0
VERTEX
  8
0
  5
1353
 10
34.5500
 20
11.7706
 30
-7.87293e-15
  70
    32
  0
VERTEX
  8
0
  5
1354
 10
34.6023
 20
11.6160
 30
-7.88447e-15
  70
    32
  0
VERTEX
  8
0
  5
1355
 10
34.6539
 20
11.4612
 30
-7.89585e-15
  70
    32
  0
VERTEX
  8
0
  5
1356
 10
34.7048
 20
11.3062
 30
-7.90708e-15
  70
    32
  0
VERTEX
  8
0
  5
1357
 10
34.7549
 20
11.1510
 30
-7.91815e-15
  70
    32
  0
VERTEX
  8
0
  5
1358
 10
34.8044
 20
10.9955
 30
-7.92906e-15
  70
    32
  0
VERTEX
  8
0
  5
1359
 10
34.8532
 20
10.8399
 30
-7.93981e-15
  70
    32
  0
VERTEX
  8
0
  5
135A
 10
34.9013
 20
10.6841
 30
-7.95041e-15
  70
    32
  0
VERTEX
  8
0
  5
135B
 10
34.9487
 20
10.5280
 30
-7.96084e-15
  70
    32
  0
VERTEX
  8
0
  5
135C
 10
34.9954
 20
10.3718
 30
-7.97112e-15
  70
    32
  0
VERTEX
  8
0
  5
135D
 10
35.0413
 20
10.2154
 30
-7.98124e-15
  70
    32
  0
VERTEX
  8
0
  5
135E
 10
35.0866
 20
10.0588
 30
-7.99120e-15
  70
    32
  0
VERTEX
  8
0
  5
135F
 10
35.1312
 20
9.90203
 30
-8.00100e-15
  70
    32
  0
VERTEX
  8
0
  5
1360
 10
35.1750
 20
9.74506
 30
-8.01065e-15
  70
    32
  0
VERTEX
  8
0
  5
1361
 10
35.2182
 20
9.58792
 30
-8.02014e-15
  70
    32
  0
VERTEX
  8
0
  5
1362
 10
35.2606
 20
9.43059
 30
-8.02946e-15
  70
    32
  0
VERTEX
  8
0
  5
1363
 10
35.3024
 20
9.27308
 30
-8.03864e-15
  70
    32
  0
VERTEX
  8
0
  5
1364
 10
35.3434
 20
9.11541
 30
-8.04765e-15
  70
    32
  0
VERTEX
  8
0
  5
1365
 10
35.3838
 20
8.95756
 30
-8.05650e-15
  70
    32
  0
VERTEX
  8
0
  5
1366
 10
35.4234
 20
8.79954
 30
-8.06520e-15
  70
    32
  0
VERTEX
  8
0
  5
1367
 10
35.4623
 20
8.64135
 30
-8.07374e-15
  70
    32
  0
VERTEX
  8
0
  5
1368
 10
35.5005
 20
8.48300
 30
-8.08212e-15
  70
    32
  0
VERTEX
  8
0
  5
1369
 10
35.5380
 20
8.32449
 30
-8.09034e-15
  70
    32
  0
VERTEX
  8
0
  5
136A
 10
35.5748
 20
8.16582
 30
-8.09840e-15
  70
    32
  0
VERTEX
  8
0
  5
136B
 10
35.6109
 20
8.00699
 30
-8.10631e-15
  70
    32
  0
VERTEX
  8
0
  5
136C
 10
35.6463
 20
7.84801
 30
-8.11405e-15
  70
    32
  0
VERTEX
  8
0
  5
136D
 10
35.6809
 20
7.68887
 30
-8.12164e-15
  70
    32
  0
VERTEX
  8
0
  5
136E
 10
35.7149
 20
7.52959
 30
-8.12907e-15
  70
    32
  0
VERTEX
  8
0
  5
136F
 10
35.7481
 20
7.37015
 30
-8.13635e-15
  70
    32
  0
VERTEX
  8
0
  5
1370
 10
35.7807
 20
7.21057
 30
-8.14346e-15
  70
    32
  0
VERTEX
  8
0
  5
1371
 10
35.8125
 20
7.05085
 30
-8.15042e-15
  70
    32
  0
VERTEX
  8
0
  5
1372
 10
35.8436
 20
6.89099
 30
-8.15722e-15
  70
    32
  0
VERTEX
  8
0
  5
1373
 10
35.8740
 20
6.73099
 30
-8.16386e-15
  70
    32
  0
VERTEX
  8
0
  5
1374
 10
35.9037
 20
6.57086
 30
-8.17034e-15
  70
    32
  0
VERTEX
  8
0
  5
1375
 10
35.9326
 20
6.41059
 30
-8.17667e-15
  70
    32
  0
VERTEX
  8
0
  5
1376
 10
35.9609
 20
6.25019
 30
-8.18283e-15
  70
    32
  0
VERTEX
  8
0
  5
1377
 10
35.9884
 20
6.08966
 30
-8.18884e-15
  70
    32
  0
VERTEX
  8
0
  5
1378
 10
36.0152
 20
5.92900
 30
-8.19469e-15
  70
    32
  0
VERTEX
  8
0
  5
1379
 10
36.0413
 20
5.76823
 30
-8.20038e-15
  70
    32
  0
VERTEX
  8
0
  5
137A
 10
36.0667
 20
5.60733
 30
-8.20591e-15
  70
    32
  0
VERTEX
  8
0
  5
137B
 10
36.0914
 20
5.44631
 30
-8.21129e-15
  70
    32
  0
VERTEX
  8
0
  5
137C
 10
36.1153
 20
5.28518
 30
-8.21651e-15
  70
    32
  0
VERTEX
  8
0
  5
137D
 10
36.1385
 20
5.12393
 30
-8.22157e-15
  70
    32
  0
VERTEX
  8
0
  5
137E
 10
36.1611
 20
4.96257
 30
-8.22647e-15
  70
    32
  0
VERTEX
  8
0
  5
137F
 10
36.1828
 20
4.80110
 30
-8.23121e-15
  70
    32
  0
VERTEX
  8
0
  5
1380
 10
36.2039
 20
4.63952
 30
-8.23579e-15
  70
    32
  0
VERTEX
  8
0
  5
1381
 10
36.2243
 20
4.47784
 30
-8.24022e-15
  70
    32
  0
VERTEX
  8
0
  5
1382
 10
36.2439
 20
4.31606
 30
-8.24449e-15
  70
    32
  0
VERTEX
  8
0
  5
1383
 10
36.2628
 20
4.15418
 30
-8.24860e-15
  70
    32
  0
VERTEX
  8
0
  5
1384
 10
36.2810
 20
3.99220
 30
-8.25255e-15
  70
    32
  0
VERTEX
  8
0
  5
1385
 10
36.2985
 20
3.83013
 30
-8.25635e-15
  70
    32
  0
VERTEX
  8
0
  5
1386
 10
36.3152
 20
3.66796
 30
-8.25998e-15
  70
    32
  0
VERTEX
  8
0
  5
1387
 10
36.3312
 20
3.50571
 30
-8.26346e-15
  70
    32
  0
VERTEX
  8
0
  5
1388
 10
36.3465
 20
3.34336
 30
-8.26678e-15
  70
    32
  0
VERTEX
  8
0
  5
1389
 10
36.3611
 20
3.18094
 30
-8.26994e-15
  70
    32
  0
VERTEX
  8
0
  5
138A
 10
36.3750
 20
3.01842
 30
-8.27295e-15
  70
    32
  0
VERTEX
  8
0
  5
138B
 10
36.3881
 20
2.85583
 30
-8.27579e-15
  70
    32
  0
VERTEX
  8
0
  5
138C
 10
36.4005
 20
2.69316
 30
-8.27848e-15
  70
    32
  0
VERTEX
  8
0
  5
138D
 10
36.4122
 20
2.53042
 30
-8.28101e-15
  70
    32
  0
VERTEX
  8
0
  5
138E
 10
36.4231
 20
2.36760
 30
-8.28338e-15
  70
    32
  0
VERTEX
  8
0
  5
138F
 10
36.4334
 20
2.20471
 30
-8.28559e-15
  70
    32
  0
VERTEX
  8
0
  5
1390
 10
36.4428
 20
2.04175
 30
-8.28765e-15
  70
    32
  0
VERTEX
  8
0
  5
1391
 10
36.4516
 20
1.87873
 30
-8.28955e-15
  70
    32
  0
VERTEX
  8
0
  5
1392
 10
36.4597
 20
1.71564
 30
-8.29129e-15
  70
    32
  0
VERTEX
  8
0
  5
1393
 10
36.4670
 20
1.55249
 30
-8.29287e-15
  70
    32
  0
VERTEX
  8
0
  5
1394
 10
36.4735
 20
1.38929
 30
-8.29429e-15
  70
    32
  0
VERTEX
  8
0
  5
1395
 10
36.4794
 20
1.22603
 30
-8.29555e-15
  70
    32
  0
VERTEX
  8
0
  5
1396
 10
36.4845
 20
1.06271
 30
-8.29666e-15
  70
    32
  0
VERTEX
  8
0
  5
1397
 10
36.4889
 20
0.899340
 30
-8.29761e-15
  70
    32
  0
VERTEX
  8
0
  5
1398
 10
36.4926
 20
0.735922
 30
-8.29840e-15
  70
    32
  0
VERTEX
  8
0
  5
1399
 10
36.4955
 20
0.572458
 30
-8.29903e-15
  70
    32
  0
VERTEX
  8
0
  5
139A
 10
36.4977
 20
0.408950
 30
-8.29951e-15
  70
    32
  0
VERTEX
  8
0
  5
139B
 10
36.4992
 20
0.245399
 30
-8.29982e-15
  70
    32
  0
VERTEX
  8
0
  5
139C
 10
36.4999
 20
0.0818091
 30
-8.29998e-15
  70
    32
  0
VERTEX
  8
0
  5
139D
 10
36.4999
 20
-0.0818091
 30
-8.29998e-15
  70
    32
  0
VERTEX
  8
0
  5
139E
 10
36.4992
 20
-0.245399
 30
-8.29982e-15
  70
    32
  0
VERTEX
  8
0
  5
139F
 10
36.4977
 20
-0.408950
 30
-8.29951e-15
  70
    32
  0
VERTEX
  8
0
  5
13A0
 10
36.4955
 20
-0.572458
 30
-8.29903e-15
  70
    32
  0
VERTEX
  8
0
  5
13A1
 10
36.4926
 20
-0.735922
 30
-8.29840e-15
  70
    32
  0
VERTEX
  8
0
  5
13A2
 10
36.4889
 20
-0.899340
 30
-8.29761e-15
  70
    32
  0
VERTEX
  8
0
  5
13A3
 10
36.4845
 20
-1.06271
 30
-8.29666e-15
  70
    32
  0
VERTEX
  8
0
  5
13A4
 10
36.4794
 20
-1.22603
 30
-8.29555e-15
  70
    32
  0
VERTEX
  8
0
  5
13A5
 10
36.4735
 20
-1.38929
 30
-8.29429e-15
  70
    32
  0
VERTEX
  8
0
  5
13A6
 10
36.4670
 20
-1.55249
 30
-8.29287e-15
  70
    32
  0
VERTEX
  8
0
  5
13A7
 10
36.4597
 20
-1.71564
 30
-8.29129e-15
  70
    32
  0
VERTEX
  8
0
  5
13A8
 10
36.4516
 20
-1.87873
 30
-8.28955e-15
  70
    32
  0
VERTEX
  8
0
  5
13A9
 10
36.4428
 20
-2.04175
 30
-8.28765e-15
  70
    32
  0
VERTEX
  8
0
  5
13AA
 10
36.4334
 20
-2.20471
 30
-8.28559e-15
  70
    32
  0
VERTEX
  8
0
  5
13AB
 10
36.4231
 20
-2.36760
 30
-8.28338e-15
  70
    32
  0
VERTEX
  8
0
  5
13AC
 10
36.4122
 20
-2.53042
 30
-8.28101e-15
  70
    32
  0
VERTEX
  8
0
  5
13AD
 10
36.4005
 20
-2.69316
 30
-8.27848e-15
  70
    32
  0
VERTEX
  8
0
  5
13AE
 10
36.3881
 20
-2.85583
 30
-8.27579e-15
  70
    32
  0
VERTEX
  8
0
  5
13AF
 10
36.3750
 20
-3.01842
 30
-8.27295e-15
  70
    32
  0
VERTEX
  8
0
  5
13B0
 10
36.3611
 20
-3.18094
 30
-8.26994e-15
  70
    32
  0
VERTEX
  8
0
  5
13B1
 10
36.3465
 20
-3.34336
 30
-8.26678e-15
  70
    32
  0
VERTEX
  8
0
  5
13B2
 10
36.3312
 20
-3.50571
 30
-8.26346e-15
  70
    32
  0
VERTEX
  8
0
  5
13B3
 10
36.3152
 20
-3.66796
 30
-8.25998e-15
  70
    32
  0
VERTEX
  8
0
  5
13B4
 10
36.2985
 20
-3.83013
 30
-8.25635e-15
  70
    32
  0
VERTEX
  8
0
  5
13B5
 10
36.2810
 20
-3.99220
 30
-8.25255e-15
  70
    32
  0
VERTEX
  8
0
  5
13B6
 10
36.2628
 20
-4.15418
 30
-8.24860e-15
  70
    32
  0
VERTEX
  8
0
  5
13B7
 10
36.2439
 20
-4.31606
 30
-8.24449e-15
  70
    32
  0
VERTEX
  8
0
  5
13B8
 10
36.2243
 20
-4.47784
 30
-8.24022e-15
  70
    32
  0
VERTEX
  8
0
  5
13B9
 10
36.2039
 20
-4.63952
 30
-8.23579e-15
  70
    32
  0
VERTEX
  8
0
  5
13BA
 10
36.1828
 20
-4.80110
 30
-8.23121e-15
  70
    32
  0
VERTEX
  8
0
  5
13BB
 10
36.1611
 20
-4.96257
 30
-8.22647e-15
  70
    32
  0
VERTEX
  8
0
  5
13BC
 10
36.1385
 20
-5.12393
 30
-8.22157e-15
  70
    32
  0
VERTEX
  8
0
  5
13BD
 10
36.1153
 20
-5.28518
 30
-8.21651e-15
  70
    32
  0
VERTEX
  8
0
  5
13BE
 10
36.0914
 20
-5.44631
 30
-8.21129e-15
  70
    32
  0
VERTEX
  8
0
  5
13BF
 10
36.0667
 20
-5.60733
 30
-8.20591e-15
  70
    32
  0
VERTEX
  8
0
  5
13C0
 10
36.0413
 20
-5.76823
 30
-8.20038e-15
  70
    32
  0
VERTEX
  8
0
  5
13C1
 10
36.0152
 20
-5.92900
 30
-8.19469e-15
  70
    32
  0
VERTEX
  8
0
  5
13C2
 10
35.9884
 20
-6.08966
 30
-8.18884e-15
  70
    32
  0
VERTEX
  8
0
  5
13C3
 10
35.9609
 20
-6.25019
 30
-8.18283e-15
  70
    32
  0
VERTEX
  8
0
  5
13C4
 10
35.9326
 20
-6.41059
 30
-8.17667e-15
  70
    32
  0
VERTEX
  8
0
  5
13C5
 10
35.9037
 20
-6.57086
 30
-8.17034e-15
  70
    32
  0
VERTEX
  8
0
  5
13C6
 10
35.8740
 20
-6.73099
 30
-8.16386e-15
  70
    32
  0
VERTEX
  8
0
  5
13C7
 10
35.8436
 20
-6.89099
 30
-8.15722e-15
  70
    32
  0
VERTEX
  8
0
  5
13C8
 10
35.8125
 20
-7.05085
 30
-8.15042e-15
  70
    32
  0
VERTEX
  8
0
  5
13C9
 10
35.7807
 20
-7.21057
 30
-8.14346e-15
  70
    32
  0
VERTEX
  8
0
  5
13CA
 10
35.7481
 20
-7.37015
 30
-8.13635e-15
  70
    32
  0
VERTEX
  8
0
  5
13CB
 10
35.7149
 20
-7.52959
 30
-8.12907e-15
  70
    32
  0
VERTEX
  8
0
  5
13CC
 10
35.6809
 20
-7.68887
 30
-8.12164e-15
  70
    32
  0
VERTEX
  8
0
  5
13CD
 10
35.6463
 20
-7.84801
 30
-8.11405e-15
  70
    32
  0
VERTEX
  8
0
  5
13CE
 10
35.6109
 20
-8.00699
 30
-8.10631e-15
  70
    32
  0
VERTEX
  8
0
  5
13CF
 10
35.5748
 20
-8.16582
 30
-8.09840e-15
  70
    32
  0
VERTEX
  8
0
  5
13D0
 10
35.5380
 20
-8.32449
 30
-8.09034e-15
  70
    32
  0
VERTEX
  8
0
  5
13D1
 10
35.5005
 20
-8.48300
 30
-8.08212e-15
  70
    32
  0
VERTEX
  8
0
  5
13D2
 10
35.4623
 20
-8.64135
 30
-8.07374e-15
  70
    32
  0
VERTEX
  8
0
  5
13D3
 10
35.4234
 20
-8.79954
 30
-8.06520e-15
  70
    32
  0
VERTEX
  8
0
  5
13D4
 10
35.3838
 20
-8.95756
 30
-8.05650e-15
  70
    32
  0
VERTEX
  8
0
  5
13D5
 10
35.3434
 20
-9.11541
 30
-8.04765e-15
  70
    32
  0
VERTEX
  8
0
  5
13D6
 10
35.3024
 20
-9.27308
 30
-8.03864e-15
  70
    32
  0
VERTEX
  8
0
  5
13D7
 10
35.2606
 20
-9.43059
 30
-8.02946e-15
  70
    32
  0
VERTEX
  8
0
  5
13D8
 10
35.2182
 20
-9.58792
 30
-8.02014e-15
  70
    32
  0
VERTEX
  8
0
  5
13D9
 10
35.1750
 20
-9.74506
 30
-8.01065e-15
  70
    32
  0
VERTEX
  8
0
  5
13DA
 10
35.1312
 20
-9.90203
 30
-8.00100e-15
  70
    32
  0
VERTEX
  8
0
  5
13DB
 10
35.0866
 20
-10.0588
 30
-7.99120e-15
  70
    32
  0
VERTEX
  8
0
  5
13DC
 10
35.0413
 20
-10.2154
 30
-7.98124e-15
  70
    32
  0
VERTEX
  8
0
  5
13DD
 10
34.9954
 20
-10.3718
 30
-7.97112e-15
  70
    32
  0
VERTEX
  8
0
  5
13DE
 10
34.9487
 20
-10.5280
 30
-7.96084e-15
  70
    32
  0
VERTEX
  8
0
  5
13DF
 10
34.9013
 20
-10.6841
 30
-7.95041e-15
  70
    32
  0
VERTEX
  8
0
  5
13E0
 10
34.8532
 20
-10.8399
 30
-7.93981e-15
  70
    32
  0
VERTEX
  8
0
  5
13E1
 10
34.8044
 20
-10.9955
 30
-7.92906e-15
  70
    32
  0
VERTEX
  8
0
  5
13E2
 10
34.7549
 20
-11.1510
 30
-7.91815e-15
  70
    32
  0
VERTEX
  8
0
  5
13E3
 10
34.7048
 20
-11.3062
 30
-7.90708e-15
  70
    32
  0
VERTEX
  8
0
  5
13E4
 10
34.6539
 20
-11.4612
 30
-7.89585e-15
  70
    32
  0
VERTEX
  8
0
  5
13E5
 10
34.6023
 20
-11.6160
 30
-7.88447e-15
  70
    32
  0
VERTEX
  8
0
  5
13E6
 10
34.5500
 20
-11.7706
 30
-7.87293e-15
  70
    32
  0
VERTEX
  8
0
  5
13E7
 10
34.4970
 20
-11.9250
 30
-7.86122e-15
  70
    32
  0
VERTEX
  8
0
  5
13E8
 10
34.4433
 20
-12.0792
 30
-7.84936e-15
  70
    32
  0
VERTEX
  8
0
  5
13E9
 10
34.3890
 20
-12.2331
 30
-7.83735e-15
  70
    32
  0
VERTEX
  8
0
  5
13EA
 10
34.3339
 20
-12.3869
 30
-7.82517e-15
  70
    32
  0
VERTEX
  8
0
  5
13EB
 10
34.2781
 20
-12.5404
 30
-7.81284e-15
  70
    32
  0
VERTEX
  8
0
  5
13EC
 10
34.2216
 20
-12.6937
 30
-7.80035e-15
  70
    32
  0
VERTEX
  8
0
  5
13ED
 10
34.1645
 20
-12.8468
 30
-7.78770e-15
  70
    32
  0
VERTEX
  8
0
  5
13EE
 10
34.1066
 20
-12.9996
 30
-7.77489e-15
  70
    32
  0
VERTEX
  8
0
  5
13EF
 10
34.0480
 20
-13.1522
 30
-7.76192e-15
  70
    32
  0
VERTEX
  8
0
  5
13F0
 10
33.9888
 20
-13.3046
 30
-7.74880e-15
  70
    32
  0
VERTEX
  8
0
  5
13F1
 10
33.9288
 20
-13.4567
 30
-7.73551e-15
  70
    32
  0
VERTEX
  8
0
  5
13F2
 10
33.8682
 20
-13.6086
 30
-7.72207e-15
  70
    32
  0
VERTEX
  8
0
  5
13F3
 10
33.8069
 20
-13.7603
 30
-7.70847e-15
  70
    32
  0
VERTEX
  8
0
  5
13F4
 10
33.7449
 20
-13.9117
 30
-7.69471e-15
  70
    32
  0
VERTEX
  8
0
  5
13F5
 10
33.6822
 20
-14.0628
 30
-7.68080e-15
  70
    32
  0
VERTEX
  8
0
  5
13F6
 10
33.6188
 20
-14.2136
 30
-7.66673e-15
  70
    32
  0
VERTEX
  8
0
  5
13F7
 10
33.5548
 20
-14.3640
 30
-7.65249e-15
  70
    32
  0
VERTEX
  8
0
  5
13F8
 10
33.4901
 20
-14.5142
 30
-7.63811e-15
  70
    32
  0
VERTEX
  8
0
  5
13F9
 10
33.4248
 20
-14.6640
 30
-7.62356e-15
  70
    32
  0
VERTEX
  8
0
  5
13FA
 10
33.3588
 20
-14.8136
 30
-7.60886e-15
  70
    32
  0
VERTEX
  8
0
  5
13FB
 10
33.2921
 20
-14.9627
 30
-7.59401e-15
  70
    32
  0
VERTEX
  8
0
  5
13FC
 10
33.2248
 20
-15.1116
 30
-7.57900e-15
  70
    32
  0
VERTEX
  8
0
  5
13FD
 10
33.1569
 20
-15.2601
 30
-7.56383e-15
  70
    32
  0
VERTEX
  8
0
  5
13FE
 10
33.0883
 20
-15.4083
 30
-7.54851e-15
  70
    32
  0
VERTEX
  8
0
  5
13FF
 10
33.0190
 20
-15.5562
 30
-7.53304e-15
  70
    32
  0
VERTEX
  8
0
  5
1400
 10
32.9491
 20
-15.7037
 30
-7.51741e-15
  70
    32
  0
VERTEX
  8
0
  5
1401
 10
32.8785
 20
-15.8509
 30
-7.50163e-15
  70
    32
  0
VERTEX
  8
0
  5
1402
 10
32.8073
 20
-15.9978
 30
-7.48570e-15
  70
    32
  0
VERTEX
  8
0
  5
1403
 10
32.7355
 20
-16.1443
 30
-7.46962e-15
  70
    32
  0
VERTEX
  8
0
  5
1404
 10
32.6630
 20
-16.2905
 30
-7.45338e-15
  70
    32
  0
VERTEX
  8
0
  5
1405
 10
32.5898
 20
-16.4363
 30
-7.43700e-15
  70
    32
  0
VERTEX
  8
0
  5
1406
 10
32.5160
 20
-16.5818
 30
-7.42046e-15
  70
    32
  0
VERTEX
  8
0
  5
1407
 10
32.4416
 20
-16.7269
 30
-7.40378e-15
  70
    32
  0
VERTEX
  8
0
  5
1408
 10
32.3666
 20
-16.8717
 30
-7.38694e-15
  70
    32
  0
VERTEX
  8
0
  5
1409
 10
32.2909
 20
-17.0162
 30
-7.36995e-15
  70
    32
  0
VERTEX
  8
0
  5
140A
 10
32.2145
 20
-17.1602
 30
-7.35282e-15
  70
    32
  0
VERTEX
  8
0
  5
140B
 10
32.1376
 20
-17.3040
 30
-7.33554e-15
  70
    32
  0
VERTEX
  8
0
  5
140C
 10
32.0600
 20
-17.4473
 30
-7.31811e-15
  70
    32
  0
VERTEX
  8
0
  5
140D
 10
31.9817
 20
-17.5903
 30
-7.30053e-15
  70
    32
  0
VERTEX
  8
0
  5
140E
 10
31.9029
 20
-17.7329
 30
-7.28281e-15
  70
    32
  0
VERTEX
  8
0
  5
140F
 10
31.8234
 20
-17.8752
 30
-7.26493e-15
  70
    32
  0
VERTEX
  8
0
  5
1410
 10
31.7432
 20
-18.0171
 30
-7.24692e-15
  70
    32
  0
VERTEX
  8
0
  5
1411
 10
31.6625
 20
-18.1586
 30
-7.22876e-15
  70
    32
  0
VERTEX
  8
0
  5
1412
 10
31.5811
 20
-18.2998
 30
-7.21045e-15
  70
    32
  0
VERTEX
  8
0
  5
1413
 10
31.4991
 20
-18.4406
 30
-7.19200e-15
  70
    32
  0
VERTEX
  8
0
  5
1414
 10
31.4165
 20
-18.5810
 30
-7.17340e-15
  70
    32
  0
VERTEX
  8
0
  5
1415
 10
31.3332
 20
-18.7210
 30
-7.15466e-15
  70
    32
  0
VERTEX
  8
0
  5
1416
 10
31.2494
 20
-18.8607
 30
-7.13577e-15
  70
    32
  0
VERTEX
  8
0
  5
1417
 10
31.1649
 20
-18.9999
 30
-7.11675e-15
  70
    32
  0
VERTEX
  8
0
  5
1418
 10
31.0798
 20
-19.1388
 30
-7.09758e-15
  70
    32
  0
VERTEX
  8
0
  5
1419
 10
30.9941
 20
-19.2773
 30
-7.07827e-15
  70
    32
  0
VERTEX
  8
0
  5
141A
 10
30.9078
 20
-19.4154
 30
-7.05882e-15
  70
    32
  0
VERTEX
  8
0
  5
141B
 10
30.8208
 20
-19.5532
 30
-7.03922e-15
  70
    32
  0
VERTEX
  8
0
  5
141C
 10
30.7333
 20
-19.6905
 30
-7.01949e-15
  70
    32
  0
VERTEX
  8
0
  5
141D
 10
30.6451
 20
-19.8274
 30
-6.99961e-15
  70
    32
  0
VERTEX
  8
0
  5
141E
 10
30.5563
 20
-19.9640
 30
-6.97960e-15
  70
    32
  0
VERTEX
  8
0
  5
141F
 10
30.4669
 20
-20.1001
 30
-6.95945e-15
  70
    32
  0
VERTEX
  8
0
  5
1420
 10
30.3770
 20
-20.2358
 30
-6.93916e-15
  70
    32
  0
VERTEX
  8
0
  5
1421
 10
30.2864
 20
-20.3712
 30
-6.91873e-15
  70
    32
  0
VERTEX
  8
0
  5
1422
 10
30.1952
 20
-20.5061
 30
-6.89816e-15
  70
    32
  0
VERTEX
  8
0
  5
1423
 10
30.1034
 20
-20.6406
 30
-6.87745e-15
  70
    32
  0
VERTEX
  8
0
  5
1424
 10
30.0110
 20
-20.7748
 30
-6.85661e-15
  70
    32
  0
VERTEX
  8
0
  5
1425
 10
29.9180
 20
-20.9085
 30
-6.83563e-15
  70
    32
  0
VERTEX
  8
0
  5
1426
 10
29.8244
 20
-21.0418
 30
-6.81452e-15
  70
    32
  0
VERTEX
  8
0
  5
1427
 10
29.7302
 20
-21.1746
 30
-6.79326e-15
  70
    32
  0
VERTEX
  8
0
  5
1428
 10
29.6354
 20
-21.3071
 30
-6.77188e-15
  70
    32
  0
VERTEX
  8
0
  5
1429
 10
29.5400
 20
-21.4392
 30
-6.75036e-15
  70
    32
  0
VERTEX
  8
0
  5
142A
 10
29.4440
 20
-21.5708
 30
-6.72870e-15
  70
    32
  0
VERTEX
  8
0
  5
142B
 10
29.3475
 20
-21.7020
 30
-6.70691e-15
  70
    32
  0
VERTEX
  8
0
  5
142C
 10
29.2503
 20
-21.8328
 30
-6.68499e-15
  70
    32
  0
VERTEX
  8
0
  5
142D
 10
29.1525
 20
-21.9631
 30
-6.66294e-15
  70
    32
  0
VERTEX
  8
0
  5
142E
 10
29.0542
 20
-22.0930
 30
-6.64075e-15
  70
    32
  0
VERTEX
  8
0
  5
142F
 10
28.9553
 20
-22.2225
 30
-6.61843e-15
  70
    32
  0
VERTEX
  8
0
  5
1430
 10
28.8558
 20
-22.3516
 30
-6.59598e-15
  70
    32
  0
VERTEX
  8
0
  5
1431
 10
28.7557
 20
-22.4802
 30
-6.57340e-15
  70
    32
  0
VERTEX
  8
0
  5
1432
 10
28.6550
 20
-22.6084
 30
-6.55068e-15
  70
    32
  0
VERTEX
  8
0
  5
1433
 10
28.5538
 20
-22.7361
 30
-6.52784e-15
  70
    32
  0
VERTEX
  8
0
  5
1434
 10
28.4519
 20
-22.8635
 30
-6.50487e-15
  70
    32
  0
VERTEX
  8
0
  5
1435
 10
28.3495
 20
-22.9903
 30
-6.48177e-15
  70
    32
  0
VERTEX
  8
0
  5
1436
 10
28.2465
 20
-23.1167
 30
-6.45853e-15
  70
    32
  0
VERTEX
  8
0
  5
1437
 10
28.1430
 20
-23.2427
 30
-6.43518e-15
  70
    32
  0
VERTEX
  8
0
  5
1438
 10
28.0388
 20
-23.3682
 30
-6.41169e-15
  70
    32
  0
VERTEX
  8
0
  5
1439
 10
27.9341
 20
-23.4933
 30
-6.38807e-15
  70
    32
  0
VERTEX
  8
0
  5
143A
 10
27.8288
 20
-23.6179
 30
-6.36433e-15
  70
    32
  0
VERTEX
  8
0
  5
143B
 10
27.7230
 20
-23.7421
 30
-6.34046e-15
  70
    32
  0
VERTEX
  8
0
  5
143C
 10
27.6166
 20
-23.8658
 30
-6.31647e-15
  70
    32
  0
VERTEX
  8
0
  5
143D
 10
27.5096
 20
-23.9890
 30
-6.29235e-15
  70
    32
  0
VERTEX
  8
0
  5
143E
 10
27.4020
 20
-24.1118
 30
-6.26810e-15
  70
    32
  0
VERTEX
  8
0
  5
143F
 10
27.2939
 20
-24.2341
 30
-6.24373e-15
  70
    32
  0
VERTEX
  8
0
  5
1440
 10
27.1852
 20
-24.3560
 30
-6.21924e-15
  70
    32
  0
VERTEX
  8
0
  5
1441
 10
27.0760
 20
-24.4774
 30
-6.19462e-15
  70
    32
  0
VERTEX
  8
0
  5
1442
 10
26.9662
 20
-24.5983
 30
-6.16988e-15
  70
    32
  0
VERTEX
  8
0
  5
1443
 10
26.8558
 20
-24.7187
 30
-6.14501e-15
  70
    32
  0
VERTEX
  8
0
  5
1444
 10
26.7449
 20
-24.8387
 30
-6.12002e-15
  70
    32
  0
VERTEX
  8
0
  5
1445
 10
26.6334
 20
-24.9582
 30
-6.09491e-15
  70
    32
  0
VERTEX
  8
0
  5
1446
 10
26.5214
 20
-25.0772
 30
-6.06968e-15
  70
    32
  0
VERTEX
  8
0
  5
1447
 10
26.4088
 20
-25.1957
 30
-6.04433e-15
  70
    32
  0
VERTEX
  8
0
  5
1448
 10
26.2957
 20
-25.3138
 30
-6.01886e-15
  70
    32
  0
VERTEX
  8
0
  5
1449
 10
26.1820
 20
-25.4314
 30
-5.99326e-15
  70
    32
  0
VERTEX
  8
0
  5
144A
 10
26.0677
 20
-25.5485
 30
-5.96755e-15
  70
    32
  0
VERTEX
  8
0
  5
144B
 10
25.9529
 20
-25.6650
 30
-5.94172e-15
  70
    32
  0
VERTEX
  8
0
  5
144C
 10
25.8376
 20
-25.7811
 30
-5.91577e-15
  70
    32
  0
VERTEX
  8
0
  5
144D
 10
25.7219
 20
-25.8966
 30
-5.88970e-15
  70
    32
  0
VERTEX
  8
0
  5
144E
 10
25.6056
 20
-26.0116
 30
-5.86351e-15
  70
    32
  0
VERTEX
  8
0
  5
144F
 10
25.4888
 20
-26.1261
 30
-5.83720e-15
  70
    32
  0
VERTEX
  8
0
  5
1450
 10
25.3715
 20
-26.2399
 30
-5.81078e-15
  70
    32
  0
VERTEX
  8
0
  5
1451
 10
25.2538
 20
-26.3533
 30
-5.78424e-15
  70
    32
  0
VERTEX
  8
0
  5
1452
 10
25.1356
 20
-26.4661
 30
-5.75758e-15
  70
    32
  0
VERTEX
  8
0
  5
1453
 10
25.0169
 20
-26.5783
 30
-5.73081e-15
  70
    32
  0
VERTEX
  8
0
  5
1454
 10
24.8977
 20
-26.6900
 30
-5.70392e-15
  70
    32
  0
VERTEX
  8
0
  5
1455
 10
24.7780
 20
-26.8011
 30
-5.67692e-15
  70
    32
  0
VERTEX
  8
0
  5
1456
 10
24.6578
 20
-26.9117
 30
-5.64981e-15
  70
    32
  0
VERTEX
  8
0
  5
1457
 10
24.5372
 20
-27.0217
 30
-5.62258e-15
  70
    32
  0
VERTEX
  8
0
  5
1458
 10
24.4161
 20
-27.1312
 30
-5.59524e-15
  70
    32
  0
VERTEX
  8
0
  5
1459
 10
24.2946
 20
-27.2401
 30
-5.56779e-15
  70
    32
  0
VERTEX
  8
0
  5
145A
 10
24.1725
 20
-27.3485
 30
-5.54022e-15
  70
    32
  0
VERTEX
  8
0
  5
145B
 10
24.0500
 20
-27.4562
 30
-5.51254e-15
  70
    32
  0
VERTEX
  8
0
  5
145C
 10
23.9271
 20
-27.5635
 30
-5.48476e-15
  70
    32
  0
VERTEX
  8
0
  5
145D
 10
23.8037
 20
-27.6701
 30
-5.45686e-15
  70
    32
  0
VERTEX
  8
0
  5
145E
 10
23.6798
 20
-27.7762
 30
-5.42885e-15
  70
    32
  0
VERTEX
  8
0
  5
145F
 10
23.5554
 20
-27.8817
 30
-5.40074e-15
  70
    32
  0
VERTEX
  8
0
  5
1460
 10
23.4306
 20
-27.9867
 30
-5.37251e-15
  70
    32
  0
VERTEX
  8
0
  5
1461
 10
23.3054
 20
-28.0911
 30
-5.34418e-15
  70
    32
  0
VERTEX
  8
0
  5
1462
 10
23.1797
 20
-28.1949
 30
-5.31573e-15
  70
    32
  0
VERTEX
  8
0
  5
1463
 10
23.0535
 20
-28.2981
 30
-5.28719e-15
  70
    32
  0
VERTEX
  8
0
  5
1464
 10
22.9269
 20
-28.4008
 30
-5.25853e-15
  70
    32
  0
VERTEX
  8
0
  5
1465
 10
22.7999
 20
-28.5029
 30
-5.22977e-15
  70
    32
  0
VERTEX
  8
0
  5
1466
 10
22.6724
 20
-28.6044
 30
-5.20090e-15
  70
    32
  0
VERTEX
  8
0
  5
1467
 10
22.5444
 20
-28.7054
 30
-5.17193e-15
  70
    32
  0
VERTEX
  8
0
  5
1468
 10
22.4161
 20
-28.8057
 30
-5.14285e-15
  70
    32
  0
VERTEX
  8
0
  5
1469
 10
22.2873
 20
-28.9055
 30
-5.11367e-15
  70
    32
  0
VERTEX
  8
0
  5
146A
 10
22.1580
 20
-29.0047
 30
-5.08439e-15
  70
    32
  0
VERTEX
  8
0
  5
146B
 10
22.0283
 20
-29.1033
 30
-5.05500e-15
  70
    32
  0
VERTEX
  8
0
  5
146C
 10
21.8982
 20
-29.2013
 30
-5.02551e-15
  70
    32
  0
VERTEX
  8
0
  5
146D
 10
21.7677
 20
-29.2988
 30
-4.99592e-15
  70
    32
  0
VERTEX
  8
0
  5
146E
 10
21.6367
 20
-29.3956
 30
-4.96623e-15
  70
    32
  0
VERTEX
  8
0
  5
146F
 10
21.5053
 20
-29.4919
 30
-4.93644e-15
  70
    32
  0
VERTEX
  8
0
  5
1470
 10
21.3735
 20
-29.5875
 30
-4.90654e-15
  70
    32
  0
VERTEX
  8
0
  5
1471
 10
21.2413
 20
-29.6826
 30
-4.87655e-15
  70
    32
  0
VERTEX
  8
0
  5
1472
 10
21.1086
 20
-29.7771
 30
-4.84645e-15
  70
    32
  0
VERTEX
  8
0
  5
1473
 10
20.9755
 20
-29.8710
 30
-4.81626e-15
  70
    32
  0
VERTEX
  8
0
  5
1474
 10
20.8420
 20
-29.9643
 30
-4.78597e-15
  70
    32
  0
VERTEX
  8
0
  5
1475
 10
20.7081
 20
-30.0570
 30
-4.75558e-15
  70
    32
  0
VERTEX
  8
0
  5
1476
 10
20.5738
 20
-30.1491
 30
-4.72510e-15
  70
    32
  0
VERTEX
  8
0
  5
1477
 10
20.4391
 20
-30.2406
 30
-4.69452e-15
  70
    32
  0
VERTEX
  8
0
  5
1478
 10
20.3039
 20
-30.3315
 30
-4.66384e-15
  70
    32
  0
VERTEX
  8
0
  5
1479
 10
20.1684
 20
-30.4218
 30
-4.63306e-15
  70
    32
  0
VERTEX
  8
0
  5
147A
 10
20.0325
 20
-30.5115
 30
-4.60219e-15
  70
    32
  0
VERTEX
  8
0
  5
147B
 10
19.8961
 20
-30.6006
 30
-4.57123e-15
  70
    32
  0
VERTEX
  8
0
  5
147C
 10
19.7594
 20
-30.6890
 30
-4.54017e-15
  70
    32
  0
VERTEX
  8
0
  5
147D
 10
19.6222
 20
-30.7769
 30
-4.50902e-15
  70
    32
  0
VERTEX
  8
0
  5
147E
 10
19.4847
 20
-30.8642
 30
-4.47778e-15
  70
    32
  0
VERTEX
  8
0
  5
147F
 10
19.3468
 20
-30.9508
 30
-4.44644e-15
  70
    32
  0
VERTEX
  8
0
  5
1480
 10
19.2084
 20
-31.0368
 30
-4.41501e-15
  70
    32
  0
VERTEX
  8
0
  5
1481
 10
19.0697
 20
-31.1223
 30
-4.38349e-15
  70
    32
  0
VERTEX
  8
0
  5
1482
 10
18.9306
 20
-31.2071
 30
-4.35188e-15
  70
    32
  0
VERTEX
  8
0
  5
1483
 10
18.7911
 20
-31.2912
 30
-4.32018e-15
  70
    32
  0
VERTEX
  8
0
  5
1484
 10
18.6513
 20
-31.3748
 30
-4.28838e-15
  70
    32
  0
VERTEX
  8
0
  5
1485
 10
18.5110
 20
-31.4578
 30
-4.25650e-15
  70
    32
  0
VERTEX
  8
0
  5
1486
 10
18.3704
 20
-31.5401
 30
-4.22453e-15
  70
    32
  0
VERTEX
  8
0
  5
1487
 10
18.2294
 20
-31.6218
 30
-4.19247e-15
  70
    32
  0
VERTEX
  8
0
  5
1488
 10
18.0880
 20
-31.7029
 30
-4.16033e-15
  70
    32
  0
VERTEX
  8
0
  5
1489
 10
17.9463
 20
-31.7833
 30
-4.12809e-15
  70
    32
  0
VERTEX
  8
0
  5
148A
 10
17.8041
 20
-31.8632
 30
-4.09577e-15
  70
    32
  0
VERTEX
  8
0
  5
148B
 10
17.6617
 20
-31.9424
 30
-4.06336e-15
  70
    32
  0
VERTEX
  8
0
  5
148C
 10
17.5188
 20
-32.0209
 30
-4.03087e-15
  70
    32
  0
VERTEX
  8
0
  5
148D
 10
17.3756
 20
-32.0989
 30
-3.99829e-15
  70
    32
  0
VERTEX
  8
0
  5
148E
 10
17.2320
 20
-32.1762
 30
-3.96563e-15
  70
    32
  0
VERTEX
  8
0
  5
148F
 10
17.0880
 20
-32.2529
 30
-3.93288e-15
  70
    32
  0
VERTEX
  8
0
  5
1490
 10
16.9437
 20
-32.3289
 30
-3.90005e-15
  70
    32
  0
VERTEX
  8
0
  5
1491
 10
16.7991
 20
-32.4043
 30
-3.86714e-15
  70
    32
  0
VERTEX
  8
0
  5
1492
 10
16.6541
 20
-32.4791
 30
-3.83414e-15
  70
    32
  0
VERTEX
  8
0
  5
1493
 10
16.5087
 20
-32.5532
 30
-3.80106e-15
  70
    32
  0
VERTEX
  8
0
  5
1494
 10
16.3630
 20
-32.6267
 30
-3.76790e-15
  70
    32
  0
VERTEX
  8
0
  5
1495
 10
16.2169
 20
-32.6996
 30
-3.73466e-15
  70
    32
  0
VERTEX
  8
0
  5
1496
 10
16.0705
 20
-32.7718
 30
-3.70134e-15
  70
    32
  0
VERTEX
  8
0
  5
1497
 10
15.9237
 20
-32.8433
 30
-3.66794e-15
  70
    32
  0
VERTEX
  8
0
  5
1498
 10
15.7766
 20
-32.9143
 30
-3.63446e-15
  70
    32
  0
VERTEX
  8
0
  5
1499
 10
15.6292
 20
-32.9845
 30
-3.60090e-15
  70
    32
  0
VERTEX
  8
0
  5
149A
 10
15.4814
 20
-33.0541
 30
-3.56726e-15
  70
    32
  0
VERTEX
  8
0
  5
149B
 10
15.3333
 20
-33.1231
 30
-3.53354e-15
  70
    32
  0
VERTEX
  8
0
  5
149C
 10
15.1848
 20
-33.1914
 30
-3.49975e-15
  70
    32
  0
VERTEX
  8
0
  5
149D
 10
15.0360
 20
-33.2591
 30
-3.46588e-15
  70
    32
  0
VERTEX
  8
0
  5
149E
 10
14.8869
 20
-33.3261
 30
-3.43193e-15
  70
    32
  0
VERTEX
  8
0
  5
149F
 10
14.7375
 20
-33.3925
 30
-3.39791e-15
  70
    32
  0
VERTEX
  8
0
  5
14A0
 10
14.5877
 20
-33.4582
 30
-3.36381e-15
  70
    32
  0
VERTEX
  8
0
  5
14A1
 10
14.4376
 20
-33.5232
 30
-3.32963e-15
  70
    32
  0
VERTEX
  8
0
  5
14A2
 10
14.2872
 20
-33.5876
 30
-3.29539e-15
  70
    32
  0
VERTEX
  8
0
  5
14A3
 10
14.1365
 20
-33.6513
 30
-3.26107e-15
  70
    32
  0
VERTEX
  8
0
  5
14A4
 10
13.9856
 20
-33.7143
 30
-3.22668e-15
  70
    32
  0
VERTEX
  8
0
  5
14A5
 10
13.8344
 20
-33.7766
 30
-3.19222e-15
  70
    32
  0
VERTEX
  8
0
  5
14A6
 10
13.6830
 20
-33.8382
 30
-3.15769e-15
  70
    32
  0
VERTEX
  8
0
  5
14A7
 10
13.5313
 20
-33.8992
 30
-3.12309e-15
  70
    32
  0
VERTEX
  8
0
  5
14A8
 10
13.3794
 20
-33.9594
 30
-3.08843e-15
  70
    32
  0
VERTEX
  8
0
  5
14A9
 10
13.2272
 20
-34.0190
 30
-3.05370e-15
  70
    32
  0
VERTEX
  8
0
  5
14AA
 10
13.0748
 20
-34.0778
 30
-3.01891e-15
  70
    32
  0
VERTEX
  8
0
  5
14AB
 10
12.9222
 20
-34.1360
 30
-2.98406e-15
  70
    32
  0
VERTEX
  8
0
  5
14AC
 10
12.7693
 20
-34.1935
 30
-2.94914e-15
  70
    32
  0
VERTEX
  8
0
  5
14AD
 10
12.6162
 20
-34.2503
 30
-2.91416e-15
  70
    32
  0
VERTEX
  8
0
  5
14AE
 10
12.4629
 20
-34.3063
 30
-2.87913e-15
  70
    32
  0
VERTEX
  8
0
  5
14AF
 10
12.3094
 20
-34.3617
 30
-2.84403e-15
  70
    32
  0
VERTEX
  8
0
  5
14B0
 10
12.1556
 20
-34.4164
 30
-2.80887e-15
  70
    32
  0
VERTEX
  8
0
  5
14B1
 10
12.0016
 20
-34.4704
 30
-2.77366e-15
  70
    32
  0
VERTEX
  8
0
  5
14B2
 10
11.8474
 20
-34.5237
 30
-2.73839e-15
  70
    32
  0
VERTEX
  8
0
  5
14B3
 10
11.6930
 20
-34.5763
 30
-2.70307e-15
  70
    32
  0
VERTEX
  8
0
  5
14B4
 10
11.5384
 20
-34.6283
 30
-2.66769e-15
  70
    32
  0
VERTEX
  8
0
  5
14B5
 10
11.3835
 20
-34.6795
 30
-2.63226e-15
  70
    32
  0
VERTEX
  8
0
  5
14B6
 10
11.2285
 20
-34.7300
 30
-2.59678e-15
  70
    32
  0
VERTEX
  8
0
  5
14B7
 10
11.0732
 20
-34.7798
 30
-2.56125e-15
  70
    32
  0
VERTEX
  8
0
  5
14B8
 10
10.9177
 20
-34.8289
 30
-2.52567e-15
  70
    32
  0
VERTEX
  8
0
  5
14B9
 10
10.7621
 20
-34.8773
 30
-2.49004e-15
  70
    32
  0
VERTEX
  8
0
  5
14BA
 10
10.6062
 20
-34.9250
 30
-2.45436e-15
  70
    32
  0
VERTEX
  8
0
  5
14BB
 10
10.4502
 20
-34.9720
 30
-2.41864e-15
  70
    32
  0
VERTEX
  8
0
  5
14BC
 10
10.2939
 20
-35.0183
 30
-2.38287e-15
  70
    32
  0
VERTEX
  8
0
  5
14BD
 10
10.1375
 20
-35.0640
 30
-2.34706e-15
  70
    32
  0
VERTEX
  8
0
  5
14BE
 10
9.98083
 20
-35.1089
 30
-2.31120e-15
  70
    32
  0
VERTEX
  8
0
  5
14BF
 10
9.82401
 20
-35.1531
 30
-2.27530e-15
  70
    32
  0
VERTEX
  8
0
  5
14C0
 10
9.66701
 20
-35.1966
 30
-2.23936e-15
  70
    32
  0
VERTEX
  8
0
  5
14C1
 10
9.50982
 20
-35.2394
 30
-2.20338e-15
  70
    32
  0
VERTEX
  8
0
  5
14C2
 10
9.35246
 20
-35.2814
 30
-2.16736e-15
  70
    32
  0
VERTEX
  8
0
  5
14C3
 10
9.19491
 20
-35.3228
 30
-2.13130e-15
  70
    32
  0
VERTEX
  8
0
  5
14C4
 10
9.03720
 20
-35.3635
 30
-2.09521e-15
  70
    32
  0
VERTEX
  8
0
  5
14C5
 10
8.87931
 20
-35.4035
 30
-2.05908e-15
  70
    32
  0
VERTEX
  8
0
  5
14C6
 10
8.72124
 20
-35.4428
 30
-2.02291e-15
  70
    32
  0
VERTEX
  8
0
  5
14C7
 10
8.56302
 20
-35.4813
 30
-1.98671e-15
  70
    32
  0
VERTEX
  8
0
  5
14C8
 10
8.40462
 20
-35.5192
 30
-1.95048e-15
  70
    32
  0
VERTEX
  8
0
  5
14C9
 10
8.24607
 20
-35.5563
 30
-1.91422e-15
  70
    32
  0
VERTEX
  8
0
  5
14CA
 10
8.08735
 20
-35.5927
 30
-1.87792e-15
  70
    32
  0
VERTEX
  8
0
  5
14CB
 10
7.92848
 20
-35.6285
 30
-1.84160e-15
  70
    32
  0
VERTEX
  8
0
  5
14CC
 10
7.76945
 20
-35.6635
 30
-1.80524e-15
  70
    32
  0
VERTEX
  8
0
  5
14CD
 10
7.61026
 20
-35.6978
 30
-1.76886e-15
  70
    32
  0
VERTEX
  8
0
  5
14CE
 10
7.45093
 20
-35.7314
 30
-1.73245e-15
  70
    32
  0
VERTEX
  8
0
  5
14CF
 10
7.29145
 20
-35.7643
 30
-1.69602e-15
  70
    32
  0
VERTEX
  8
0
  5
14D0
 10
7.13182
 20
-35.7965
 30
-1.65956e-15
  70
    32
  0
VERTEX
  8
0
  5
14D1
 10
6.97204
 20
-35.8279
 30
-1.62308e-15
  70
    32
  0
VERTEX
  8
0
  5
14D2
 10
6.81213
 20
-35.8587
 30
-1.58658e-15
  70
    32
  0
VERTEX
  8
0
  5
14D3
 10
6.65208
 20
-35.8887
 30
-1.55006e-15
  70
    32
  0
VERTEX
  8
0
  5
14D4
 10
6.49189
 20
-35.9180
 30
-1.51351e-15
  70
    32
  0
VERTEX
  8
0
  5
14D5
 10
6.33157
 20
-35.9466
 30
-1.47695e-15
  70
    32
  0
VERTEX
  8
0
  5
14D6
 10
6.17111
 20
-35.9745
 30
-1.44036e-15
  70
    32
  0
VERTEX
  8
0
  5
14D7
 10
6.01053
 20
-36.0017
 30
-1.40377e-15
  70
    32
  0
VERTEX
  8
0
  5
14D8
 10
5.84981
 20
-36.0282
 30
-1.36715e-15
  70
    32
  0
VERTEX
  8
0
  5
14D9
 10
5.68898
 20
-36.0539
 30
-1.33052e-15
  70
    32
  0
VERTEX
  8
0
  5
14DA
 10
5.52802
 20
-36.0789
 30
-1.29388e-15
  70
    32
  0
VERTEX
  8
0
  5
14DB
 10
5.36694
 20
-36.1033
 30
-1.25722e-15
  70
    32
  0
VERTEX
  8
0
  5
14DC
 10
5.20575
 20
-36.1269
 30
-1.22055e-15
  70
    32
  0
VERTEX
  8
0
  5
14DD
 10
5.04444
 20
-36.1497
 30
-1.18387e-15
  70
    32
  0
VERTEX
  8
0
  5
14DE
 10
4.88302
 20
-36.1719
 30
-1.14718e-15
  70
    32
  0
VERTEX
  8
0
  5
14DF
 10
4.72148
 20
-36.1933
 30
-1.11048e-15
  70
    32
  0
VERTEX
  8
0
  5
14E0
 10
4.55984
 20
-36.2140
 30
-1.07378e-15
  70
    32
  0
VERTEX
  8
0
  5
14E1
 10
4.39810
 20
-36.2340
 30
-1.03706e-15
  70
    32
  0
VERTEX
  8
0
  5
14E2
 10
4.23625
 20
-36.2533
 30
-1.00034e-15
  70
    32
  0
VERTEX
  8
0
  5
14E3
 10
4.07430
 20
-36.2719
 30
-9.63621e-16
  70
    32
  0
VERTEX
  8
0
  5
14E4
 10
3.91225
 20
-36.2897
 30
-9.26895e-16
  70
    32
  0
VERTEX
  8
0
  5
14E5
 10
3.75011
 20
-36.3068
 30
-8.90166e-16
  70
    32
  0
VERTEX
  8
0
  5
14E6
 10
3.58788
 20
-36.3232
 30
-8.53436e-16
  70
    32
  0
VERTEX
  8
0
  5
14E7
 10
3.42555
 20
-36.3389
 30
-8.16705e-16
  70
    32
  0
VERTEX
  8
0
  5
14E8
 10
3.26313
 20
-36.3538
 30
-7.79975e-16
  70
    32
  0
VERTEX
  8
0
  5
14E9
 10
3.10063
 20
-36.3681
 30
-7.43247e-16
  70
    32
  0
VERTEX
  8
0
  5
14EA
 10
2.93805
 20
-36.3816
 30
-7.06522e-16
  70
    32
  0
VERTEX
  8
0
  5
14EB
 10
2.77538
 20
-36.3943
 30
-6.69800e-16
  70
    32
  0
VERTEX
  8
0
  5
14EC
 10
2.61263
 20
-36.4064
 30
-6.33083e-16
  70
    32
  0
VERTEX
  8
0
  5
14ED
 10
2.44981
 20
-36.4177
 30
-5.96373e-16
  70
    32
  0
VERTEX
  8
0
  5
14EE
 10
2.28691
 20
-36.4283
 30
-5.59669e-16
  70
    32
  0
VERTEX
  8
0
  5
14EF
 10
2.12395
 20
-36.4381
 30
-5.22973e-16
  70
    32
  0
VERTEX
  8
0
  5
14F0
 10
1.96091
 20
-36.4473
 30
-4.86287e-16
  70
    32
  0
VERTEX
  8
0
  5
14F1
 10
1.79780
 20
-36.4557
 30
-4.49610e-16
  70
    32
  0
VERTEX
  8
0
  5
14F2
 10
1.63463
 20
-36.4634
 30
-4.12945e-16
  70
    32
  0
VERTEX
  8
0
  5
14F3
 10
1.47140
 20
-36.4703
 30
-3.76292e-16
  70
    32
  0
VERTEX
  8
0
  5
14F4
 10
1.30811
 20
-36.4766
 30
-3.39652e-16
  70
    32
  0
VERTEX
  8
0
  5
14F5
 10
1.14476
 20
-36.4820
 30
-3.03026e-16
  70
    32
  0
VERTEX
  8
0
  5
14F6
 10
0.981357
 20
-36.4868
 30
-2.66416e-16
  70
    32
  0
VERTEX
  8
0
  5
14F7
 10
0.817900
 20
-36.4908
 30
-2.29823e-16
  70
    32
  0
VERTEX
  8
0
  5
14F8
 10
0.654393
 20
-36.4941
 30
-1.93246e-16
  70
    32
  0
VERTEX
  8
0
  5
14F9
 10
0.490839
 20
-36.4967
 30
-1.56689e-16
  70
    32
  0
VERTEX
  8
0
  5
14FA
 10
0.327239
 20
-36.4985
 30
-1.18844e-16
  70
    32
  0
VERTEX
  8
0
  5
14FB
 10
0.163621
 20
-36.4996
 30
-4.66330e-17
  70
    32
  0
VERTEX
  8
0
  5
14FC
 10
-2.69019e-10
 20
-36.5000
 30
-2.37587e-37
  70
    32
  0
SEQEND
  8
0
  5
14FD
  0
CIRCLE
  5
E9E
  8
0
  6
VERDECKT
 62
     1
 10
0.0
 20
0.000000000000015
 30
0.0
 40
34.1939789517230111
  0
CIRCLE
  5
E9F
  8
0
  6
VERDECKT
 62
     1
 10
0.0
 20
0.000000000000015
 30
0.0
 40
35.8000906917922066
  0
ARC
  5
EA0
  8
0
  6
VERDECKT
 62
     1
 10
0.0064004096523893
 20
0.0000000000000249
 30
0.0
 40
34.8999999999999915
 50
270.0
 51
90.0
  0
ARC
  5
EA1
  8
0
  6
VERDECKT
 62
     1
 10
0.0064004096523893
 20
0.0000000000000213
 30
0.0
 40
34.8999999999999986
 50
90.0
 51
270.0
  0
LINE
  5
EA2
  8
0
  6
VERDECKT
 62
     1
 10
0.0064004096523929
 20
34.9000000000000199
 30
0.0
 11
-99.993599590347614
 21
34.9000000000000199
 31
0.0000000000000284
  0
LINE
  5
EA3
  8
0
  6
VERDECKT
 62
     1
 10
-99.9935995903476424
 20
-34.8999999999999773
 30
0.0000000000000284
 11
0.006400409652386
 21
-34.8999999999999773
 31
0.0
  0
LINE
  5
EA4
  8
0
  6
VERDECKT
 62
     1
 10
-199.9935995903475998
 20
-34.8999999999999773
 30
0.0000000000000426
 11
-99.9935995903475856
 21
-34.8999999999999773
 31
0.0000000000000284
  0
LINE
  5
EA5
  8
0
  6
VERDECKT
 62
     1
 10
-99.9935995903475856
 20
34.9000000000000199
 30
0.0000000000000284
 11
-199.9935995903475998
 21
34.9000000000000199
 31
0.0000000000000426
  0
LINE
  5
EA6
  8
0
  6
VERDECKT
 62
     1
 10
-179.0136091232380124
 20
36.4999999999999716
 30
0.0000000000000426
 11
-199.9935995903472872
 21
36.4999999999999716
 31
0.0000000000000426
  0
LINE
  5
EA7
  8
0
  6
VERDECKT
 62
     1
 10
-199.9935995903472872
 20
-36.5000000000000426
 30
0.0000000000000426
 11
-179.0136091232382114
 21
-36.5000000000000426
 31
0.0000000000000426
  0
ARC
  5
EA8
  8
0
  6
VERDECKT
 62
     1
 10
0.0064004096526203
 20
-0.0000000000000391
 30
0.0
 40
36.5
 50
90.0
 51
270.0
  0
ENDBLK
  5
EAA
  8
0
  0
BLOCK
  8
0
  2
A$C782F6426
 70
     0
 10
0.0
 20
0.0
 30
0.0
  3
A$C782F6426
  1

  0
LINE
  5
EAE
  8
0
  6
AUSGEZOGEN
 62
     3
 10
-239.7589969186240069
 20
225.4999999999976978
 30
-0.0000000000000501
 11
-160.2282022620711075
 21
225.4999999999976978
 31
-0.0000000000000501
210
0.0
220
1.0
230
-0.0000000000000002
  0
LINE
  5
EAF
  8
0
  6
AUSGEZOGEN
 62
     3
 10
-35.8000906917922066
 20
0.0000000000000284
 30
0.0
 11
35.8000906917922066
 21
-0.0000000000000853
 31
0.0
210
0.0
220
1.0
230
-0.0000000000000002
  0
ARC
  5
EB0
  8
0
  6
AUSGEZOGEN
 62
     3
 10
217.0935995903458888
 20
214.9510775928810062
 30
0.0
 40
25.0000000000016804
210
0.0
220
-0.0000000000000002
230
-1.0
 50
0.0000000000008524
 51
24.9581963123086403
  0
ARC
  5
EB1
  8
0
  6
AUSGEZOGEN
 62
     3
 10
182.8935995903491971
 20
214.9510775928810062
 30
0.0
 40
25.0000000000016911
210
0.0
220
-0.0000000000000002
230
-1.0
 50
155.0418036876912993
 51
179.9999999999990905
  0
LINE
  5
EB2
  8
0
  6
AUSGEZOGEN
 62
     3
 10
-157.8935995903474918
 20
214.9510775928814041
 30
-0.0000000000000477
 11
-157.8935995903474918
 21
205.8017199518010045
 31
-0.0000000000000457
210
0.0
220
1.0
230
-0.0000000000000002
  0
LINE
  5
EB3
  8
0
  6
AUSGEZOGEN
 62
     3
 10
-242.0935995903475941
 20
214.9510775928814041
 30
-0.0000000000000477
 11
-242.0935995903475941
 21
205.8017199518010045
 31
-0.0000000000000457
210
0.0
220
1.0
230
-0.0000000000000002
  0
ARC
  5
EB4
  8
0
  6
AUSGEZOGEN
 62
     3
 10
217.093599590352909
 20
205.8699999999990098
 30
0.0
 40
25.0000932431204106
210
0.0
220
-0.0000000000000002
230
-1.0
 50
338.8168456069616923
 51
359.8435140456318777
  0
ARC
  5
EB5
  8
0
  6
AUSGEZOGEN
 62
     3
 10
182.8935995903420917
 20
205.8699999999990098
 30
0.0
 40
25.0000932431203786
210
0.0
220
-0.0000000000000002
230
-1.0
 50
180.1564859543678949
 51
201.1831543930383077
  0
ARC
  5
EB6
  8
0
  6
AUSGEZOGEN
 62
     3
 10
251.5935995903471962
 20
192.499999999999801
 30
0.0
 40
11.9999999999997708
210
0.0
220
-0.0000000000000002
230
-1.0
 50
158.8168456069637955
 51
179.9999999999982094
  0
ARC
  5
EB7
  8
0
  6
AUSGEZOGEN
 62
     3
 10
148.3935995903478897
 20
192.499999999999801
 30
0.0
 40
11.9999999999997708
210
0.0
220
-0.0000000000000002
230
-1.0
 50
0.0000000000017684
 51
21.1831543930361796
  0
LINE
  5
EB8
  8
0
  6
AUSGEZOGEN
 62
     3
 10
-160.3935995903476055
 20
192.5000000000001137
 30
-0.0000000000000427
 11
-160.3935995903476055
 21
175.88872641741699
 31
-0.0000000000000391
210
0.0
220
1.0
230
-0.0000000000000002
  0
LINE
  5
EB9
  8
0
  6
AUSGEZOGEN
 62
     3
 10
-239.5935995903475089
 20
192.5000000000001137
 30
-0.0000000000000427
 11
-239.5935995903475089
 21
175.88872641741699
 31
-0.0000000000000391
210
0.0
220
1.0
230
-0.0000000000000002
  0
ARC
  5
EBA
  8
0
  6
AUSGEZOGEN
 62
     3
 10
227.5935995903462867
 20
175.8887264174171889
 30
0.0
 40
12.0000000000011298
210
0.0
220
-0.0000000000000002
230
-1.0
 50
327.671935877839303
 51
359.9999999999993179
  0
ARC
  5
EBB
  8
0
  6
AUSGEZOGEN
 62
     3
 10
172.3935995903487992
 20
175.8887264174171889
 30
0.0
 40
12.0000000000011298
210
0.0
220
-0.0000000000000002
230
-1.0
 50
180.0000000000005969
 51
212.328064122160697
  0
ARC
  5
EBC
  8
0
  6
AUSGEZOGEN
 62
     3
 10
244.4935995903479125
 20
165.1934003354313916
 30
0.0
 40
8.0000000000003144
210
0.0
220
-0.0000000000000002
230
-1.0
 50
147.6719358778397861
 51
179.999999999999801
  0
ARC
  5
EBD
  8
0
  6
AUSGEZOGEN
 62
     3
 10
155.4935995903472019
 20
165.1934003354313916
 30
0.0
 40
8.0000000000003126
210
0.0
220
-0.0000000000000002
230
-1.0
 50
0.0000000000002036
 51
32.3280641221602565
  0
LINE
  5
EBE
  8
0
  6
AUSGEZOGEN
 62
     3
 10
-236.4935995903472872
 20
86.9999999999999858
 30
-0.0000000000000193
 11
-236.4935995903472872
 21
165.1934003354313916
 31
-0.0000000000000367
210
0.0
220
1.0
230
-0.0000000000000002
  0
LINE
  5
EBF
  8
0
  6
AUSGEZOGEN
 62
     3
 10
-163.4935995903472872
 20
86.9999999999999716
 30
-0.0000000000000193
 11
-163.4935995903472872
 21
165.1934003354313916
 31
-0.0000000000000367
210
0.0
220
1.0
230
-0.0000000000000002
  0
ARC
  5
EC0
  8
0
  6
AUSGEZOGEN
 62
     3
 10
149.9935995903474009
 20
87.0000000000000426
 30
0.0
 40
86.4999999999998863
210
0.0
220
-0.0000000000000002
230
-1.0
 50
179.9999999999998863
 51
360.0
  0
ARC
  5
EC1
  8
0
  6
AUSGEZOGEN
 62
     3
 10
-149.9935995903474009
 20
87.0000000000000426
 30
-0.0000000000000193
 40
13.4999999999998792
 50
180.000000000000199
 51
0.0000000000002913
  0
LINE
  5
EC2
  8
0
  6
AUSGEZOGEN
 62
     3
 10
-63.4935995903475714
 20
157.000000000000199
 30
-0.0000000000000349
 11
-63.4935995903475714
 21
87.0000000000000853
 31
-0.0000000000000193
210
0.0
220
1.0
230
-0.0000000000000002
  0
LINE
  5
EC3
  8
0
  6
AUSGEZOGEN
 62
     3
 10
-136.4935995903474861
 20
157.000000000000199
 30
-0.0000000000000349
 11
-136.4935995903474861
 21
87.0000000000001137
 31
-0.0000000000000193
210
0.0
220
1.0
230
-0.0000000000000002
  0
LINE
  5
EC4
  8
0
  6
AUSGEZOGEN
 62
     3
 10
-36.4953277009535881
 20
156.7839999999995086
 30
-0.0000000000000348
 11
-36.4999999999998934
 21
156.4920186903912054
 31
-0.0000000000000347
210
0.0
220
1.0
230
-0.0000000000000002
  0
ARC
  5
EC5
  8
0
  6
AUSGEZOGEN
 62
     3
 10
49.9935995903473369
 20
157.0000000000001137
 30
0.0
 40
86.5
210
0.0
220
-0.0000000000000002
230
-1.0
 50
0.0000000000000382
 51
180.6970053958658866
  0
ARC
  5
EC6
  8
0
  6
AUSGEZOGEN
 62
     3
 10
-49.9935995903473369
 20
157.0000000000001137
 30
-0.0000000000000349
 40
13.5
 50
359.0832284093627891
 51
179.9999999999996874
  0
LINE
  5
EC7
  8
0
  6
AUSGEZOGEN
 62
     3
 10
36.5000000000000568
 20
155.9477500750070931
 30
-0.0000000000000346
 11
36.4999999999996732
 21
7.9999999999994609
 31
-0.0000000000000018
210
0.0
220
1.0
230
-0.0000000000000002
  0
LINE
  5
EC8
  8
0
  6
AUSGEZOGEN
 62
     3
 10
-36.499999999999261
 20
156.4920186903912054
 30
-0.0000000000000347
 11
-36.4999999999996518
 21
7.9999999999996323
 31
-0.0000000000000018
210
0.0
220
1.0
230
-0.0000000000000002
  0
LINE
  5
EC9
  8
0
  6
AUSGEZOGEN
 62
     3
 10
-35.8000906917922634
 20
0.0000000000000813
 30
0.0
 11
-36.4999999999996021
 21
7.9999999999996261
 31
-0.0000000000000018
210
0.0
220
1.0
230
-0.0000000000000002
  0
LINE
  5
ECA
  8
0
  6
AUSGEZOGEN
 62
     3
 10
35.8000906917922492
 20
-0.0000000000000964
 30
0.0
 11
36.4999999999996305
 21
7.9999999999994449
 31
-0.0000000000000018
210
0.0
220
1.0
230
-0.0000000000000002
  0
ARC
  5
ECB
  8
0
  6
VERDECKT
 62
     1
 10
217.0935995903458036
 20
214.9510775928810062
 30
0.0
 40
23.4000000000017394
210
0.0
220
-0.0000000000000002
230
-1.0
 50
0.0
 51
26.7955779312291718
  0
ARC
  5
ECC
  8
0
  6
VERDECKT
 62
     1
 10
182.8935995903493108
 20
214.9510775928810062
 30
0.0
 40
23.4000000000017714
210
0.0
220
-0.0000000000000002
230
-1.0
 50
153.2044220687753011
 51
179.9999999999990905
  0
LINE
  5
ECD
  8
0
  6
VERDECKT
 62
     1
 10
-159.4935995903474861
 20
214.9510775928814041
 30
-0.0000000000000477
 11
-159.4935995903474861
 21
205.801719951806291
 31
-0.0000000000000457
210
0.0
220
1.0
230
-0.0000000000000002
  0
LINE
  5
ECE
  8
0
  6
VERDECKT
 62
     1
 10
-240.4935995903475998
 20
214.9510775928814041
 30
-0.0000000000000477
 11
-240.4935995903475998
 21
205.801719951806291
 31
-0.0000000000000457
210
0.0
220
1.0
230
-0.0000000000000002
  0
ARC
  5
ECF
  8
0
  6
VERDECKT
 62
     1
 10
217.0935102210640935
 20
205.870034633834905
 30
0.0
 40
23.4001890886854298
210
0.0
220
-0.0000000000000002
230
-1.0
 50
338.8168456069658987
 51
359.8327300474279014
  0
ARC
  5
ED0
  8
0
  6
VERDECKT
 62
     1
 10
182.8936889596309925
 20
205.870034633834905
 30
0.0
 40
23.4001890886854405
210
0.0
220
-0.0000000000000002
230
-1.0
 50
180.1672699525718997
 51
201.1831543930339876
  0
ARC
  5
ED1
  8
0
  6
VERDECKT
 62
     1
 10
251.593599590347992
 20
192.500000000000199
 30
0.0
 40
13.6000000000005308
210
0.0
220
-0.0000000000000002
230
-1.0
 50
158.8168456069649892
 51
180.000000000000199
  0
ARC
  5
ED2
  8
0
  6
VERDECKT
 62
     1
 10
148.3935995903470939
 20
192.500000000000199
 30
0.0
 40
13.6000000000005308
210
0.0
220
-0.0000000000000002
230
-1.0
 50
359.9999999999997158
 51
21.1831543930350108
  0
LINE
  5
ED3
  8
0
  6
VERDECKT
 62
     1
 10
-161.9935995903477135
 20
192.5000000000001137
 30
-0.0000000000000427
 11
-161.9935995903477135
 21
175.88872641741699
 31
-0.0000000000000391
210
0.0
220
1.0
230
-0.0000000000000002
  0
LINE
  5
ED4
  8
0
  6
VERDECKT
 62
     1
 10
-237.9935995903474009
 20
192.5000000000001137
 30
-0.0000000000000427
 11
-237.9935995903474009
 21
175.88872641741699
 31
-0.0000000000000391
210
0.0
220
1.0
230
-0.0000000000000002
  0
ARC
  5
ED5
  8
0
  6
VERDECKT
 62
     1
 10
227.5935995903475089
 20
175.888726417416791
 30
0.0
 40
10.39999999999994
210
0.0
220
-0.0000000000000002
230
-1.0
 50
327.6719358778381093
 51
0.0000000000014122
  0
ARC
  5
ED6
  8
0
  6
VERDECKT
 62
     1
 10
172.3935995903476055
 20
175.888726417416791
 30
0.0
 40
10.3999999999999506
210
0.0
220
-0.0000000000000002
230
-1.0
 50
179.9999999999986073
 51
212.3280641221620044
  0
ARC
  5
ED7
  8
0
  6
VERDECKT
 62
     1
 10
244.4935995903489072
 20
165.1934003354309937
 30
0.0
 40
9.6000000000013852
210
0.0
220
-0.0000000000000002
230
-1.0
 50
147.6719358778406956
 51
179.9999999999976126
  0
ARC
  5
ED8
  8
0
  6
VERDECKT
 62
     1
 10
155.4935995903462072
 20
165.1934003354309937
 30
0.0
 40
9.6000000000013852
210
0.0
220
-0.0000000000000002
230
-1.0
 50
0.0000000000023791
 51
32.3280641221592404
  0
LINE
  5
ED9
  8
0
  6
VERDECKT
 62
     1
 10
-34.900000000000361
 20
156.4792178710862913
 30
-0.0000000000000347
 11
-34.8955325140629427
 21
156.7583999999991136
 31
-0.0000000000000348
210
0.0
220
1.0
230
-0.0000000000000002
  0
ARC
  5
EDA
  8
0
  6
VERDECKT
 62
     1
 10
49.9935995903475785
 20
156.9999999999998863
 30
0.0
 40
84.9000000000000057
210
0.0
220
-0.0000000000000002
230
-1.0
 50
0.0000000000000763
 51
180.7035425998064113
  0
ARC
  5
EDB
  8
0
  6
VERDECKT
 62
     1
 10
-49.9935995903475785
 20
157.0
 30
-0.0000000000000349
 40
15.0999999999999996
 50
359.0832284093619933
 51
179.9999999999994031
  0
LINE
  5
EDC
  8
0
  6
VERDECKT
 62
     1
 10
-134.8935995903476055
 20
86.9999999999999858
 30
-0.0000000000000193
 11
-134.8935995903476055
 21
157.0
 31
-0.0000000000000349
210
0.0
220
1.0
230
-0.0000000000000002
  0
LINE
  5
EDD
  8
0
  6
VERDECKT
 62
     1
 10
-65.0935995903475657
 20
87.0000000000000426
 30
-0.0000000000000193
 11
-65.0935995903475657
 21
157.0000000000001137
 31
-0.0000000000000349
210
0.0
220
1.0
230
-0.0000000000000002
  0
ARC
  5
EDE
  8
0
  6
VERDECKT
 62
     1
 10
149.9935995903474861
 20
86.9999999999999858
 30
0.0
 40
84.9000000000000057
210
0.0
220
-0.0000000000000002
230
-1.0
 50
179.9999999999998863
 51
359.9999999999998863
  0
ARC
  5
EDF
  8
0
  6
VERDECKT
 62
     1
 10
-149.9935995903474861
 20
87.0
 30
-0.0000000000000193
 40
15.0999999999999908
 50
180.0
 51
0.0000000000000369
  0
LINE
  5
EE0
  8
0
  6
VERDECKT
 62
     1
 10
-165.0935995903475089
 20
165.1934003354313916
 30
-0.0000000000000367
 11
-165.0935995903475089
 21
86.9999999999999858
 31
-0.0000000000000193
210
0.0
220
1.0
230
-0.0000000000000002
  0
LINE
  5
EE1
  8
0
  6
VERDECKT
 62
     1
 10
-234.8935995903476055
 20
165.1934003354313916
 30
-0.0000000000000367
 11
-234.8935995903476055
 21
86.9999999999999858
 31
-0.0000000000000193
210
0.0
220
1.0
230
-0.0000000000000002
  0
LINE
  5
EE2
  8
0
  6
VERDECKT
 62
     1
 10
34.9000000000001265
 20
155.9575276532289081
 30
-0.0000000000000346
 11
34.8999999999997712
 21
8.0698575086521505
 31
-0.0000000000000018
210
0.0
220
1.0
230
-0.0000000000000002
  0
LINE
  5
EE3
  8
0
  6
VERDECKT
 62
     1
 10
-34.8999999999993733
 20
156.4792178710862913
 30
-0.0000000000000347
 11
-34.8999999999997428
 21
8.0698575086523192
 31
-0.0000000000000018
210
0.0
220
1.0
230
-0.0000000000000002
  0
LINE
  5
EE4
  8
0
  6
VERDECKT
 62
     1
 10
-34.1939789517230111
 20
0.000000000000087
 30
0.0
 11
-34.8999999999996433
 21
8.0698575086523192
 31
-0.0000000000000018
210
0.0
220
1.0
230
-0.0000000000000002
  0
LINE
  5
EE5
  8
0
  6
VERDECKT
 62
     1
 10
34.1939789517229968
 20
-0.0000000000000018
 30
0.0
 11
34.8999999999996575
 21
8.0698575086521451
 31
-0.0000000000000018
210
0.0
220
1.0
230
-0.0000000000000002
  0
ENDBLK
  5
EE7
  8
0
  0
ENDSEC
  0
SECTION
  2
ENTITIES
  0
TEXT
  5
329
  8
VOLL
 10
421.388162674505395
 20
174.3046634717333063
 30
0.0
 40
1.8
  1

  7
GREEKS
  0
TEXT
  5
32A
  8
TEXT
 10
753.2204308780983411
 20
179.8628990049589049
 30
0.0
 40
2.5
  1
  
  7
GREEKS
 72
     1
 11
755.4823356400030434
 21
179.8628990049589049
 31
0.0
  0
TEXT
  5
32B
  8
BEM
 10
997.3401481905804076
 20
315.4217810353611071
 30
0.0
 40
2.5
  1
 
 72
     4
 11
998.4711005715327019
 21
315.4217810353611071
 31
0.0
  0
TEXT
  5
32D
  8
BEM
 10
535.877181052672654
 20
237.2435895725068917
 30
0.0
 40
2.5
  1

  7
GREEKS
  0
TEXT
  5
32E
  8
VOLL
 10
521.8109880329512862
 20
217.0603289154718993
 30
0.0
 40
1.8
  1

  7
GREEKS
  0
TEXT
  5
32F
  8
BEM
 10
556.2990528722358476
 20
221.7860532386924035
 30
0.0
 40
2.5
  1

 41
0.8
  7
GREEKS
  0
TEXT
  5
330
  8
BEM
 10
556.2990528722358476
 20
217.0922846846403047
 30
0.0
 40
2.5
  1

 41
0.8
  7
GREEKS
  0
TEXT
  5
331
  8
BEM
 10
556.2990528722358476
 20
211.8544408659768123
 30
0.0
 40
2.5
  1

 41
0.8
  7
GREEKS
  0
TEXT
  5
332
  8
BEM
 10
556.2261083948615124
 20
207.3492519158791936
 30
0.0
 40
1.8
  1

 41
0.8
  7
GREEKS
  0
TEXT
  5
333
  8
BEM
 10
543.5425375152502738
 20
232.9408410121044994
 30
0.0
 40
2.0
  1

 41
0.8
  7
GREEKS
 72
     1
 11
543.5425375152502738
 21
232.9408410121044994
 31
0.0
  0
TEXT
  5
334
  8
TEXT
 10
853.6432562365441754
 20
222.6185644486974127
 30
0.0
 40
2.5
  1
  
  7
GREEKS
 72
     1
 11
855.9051609984488778
 21
222.6185644486974127
 31
0.0
  0
TEXT
  5
335
  8
BEM
 10
1097.7629735490259009
 20
358.1774464790996149
 30
0.0
 40
2.5
  1
 
 72
     4
 11
1098.8939259299791047
 21
358.1774464790996149
 31
0.0
  0
TEXT
  5
377
  8
VOLL
 10
487.7304587180743738
 20
718.0852660065393138
 30
0.0
 40
1.8
  1

  7
GREEKS
  0
TEXT
  5
378
  8
TEXT
 10
819.5627269216674904
 20
723.6435015397647703
 30
0.0
 40
2.5
  1
  
  7
GREEKS
 72
     1
 11
821.8246316835721927
 21
723.6435015397647703
 31
0.0
  0
TEXT
  5
379
  8
BEM
 10
1063.6824442341489885
 20
859.2023835701669441
 30
0.0
 40
2.5
  1
 
 72
     4
 11
1064.8133966151019649
 21
859.2023835701669441
 31
0.0
  0
TEXT
  5
37A
  8
BEM
 10
642.8700608748704326
 20
738.4186768962158567
 30
0.0
 40
2.5
  1

  7
GREEKS
  0
TEXT
  5
37B
  8
VOLL
 10
628.8038678551489511
 20
718.2354162391807222
 30
0.0
 40
1.8
  1

  7
GREEKS
  0
TEXT
  5
37C
  8
BEM
 10
663.2919326944336262
 20
722.9611405624012832
 30
0.0
 40
2.5
  1

 41
0.8
  7
GREEKS
  0
TEXT
  5
37D
  8
BEM
 10
663.2919326944336262
 20
718.2673720083490707
 30
0.0
 40
2.5
  1

 41
0.8
  7
GREEKS
  0
TEXT
  5
37E
  8
BEM
 10
663.2919326944336262
 20
713.0295281896857205
 30
0.0
 40
2.5
  1

 41
0.8
  7
GREEKS
  0
TEXT
  5
37F
  8
BEM
 10
663.2189882170591773
 20
708.5243392395881301
 30
0.0
 40
1.8
  1

 41
0.8
  7
GREEKS
  0
TEXT
  5
380
  8
BEM
 10
650.5354173374479387
 20
734.1159283358133507
 30
0.0
 40
2.0
  1

 41
0.8
  7
GREEKS
 72
     1
 11
650.5354173374479387
 21
734.1159283358133507
 31
0.0
  0
TEXT
  5
381
  8
TEXT
 10
960.636136058741954
 20
723.7936517724062924
 30
0.0
 40
2.5
  1
  
  7
GREEKS
 72
     1
 11
962.89804082064677
 21
723.7936517724062924
 31
0.0
  0
TEXT
  5
382
  8
BEM
 10
1204.7558533712240205
 20
859.3525338028084661
 30
0.0
 40
2.5
  1
 
 72
     4
 11
1205.8868057521760875
 21
859.3525338028084661
 31
0.0
  0
TEXT
  5
387
  8
VOLL
 10
583.6220073704930655
 20
875.0295223152586459
 30
0.0
 40
1.8
  1

  7
GREEKS
  0
TEXT
  5
388
  8
TEXT
 10
915.4542755740860684
 20
880.5877578484842161
 30
0.0
 40
2.5
  1
  
  7
GREEKS
 72
     1
 11
917.7161803359907708
 21
880.5877578484842161
 31
0.0
  0
TEXT
  5
389
  8
BEM
 10
1159.5739928865680213
 20
1016.1466398788860488
 30
0.0
 40
2.5
  1
 
 72
     4
 11
1160.7049452675200882
 21
1016.1466398788860488
 31
0.0
  0
TEXT
  5
38A
  8
VOLL
 10
741.156724447654824
 20
880.5850779503298327
 30
0.0
 40
1.8
  1

  7
GREEKS
  0
TEXT
  5
38B
  8
BEM
 10
775.6447892869393854
 20
885.3108022735503937
 30
0.0
 40
2.5
  1

 41
0.8
  7
GREEKS
  0
TEXT
  5
38C
  8
BEM
 10
775.6447892869393854
 20
880.6170337194981812
 30
0.0
 40
2.5
  1

 41
0.8
  7
GREEKS
  0
TEXT
  5
38D
  8
BEM
 10
775.6447892869393854
 20
875.379189900834831
 30
0.0
 40
2.5
  1

 41
0.8
  7
GREEKS
  0
TEXT
  5
38E
  8
BEM
 10
775.5718448095649364
 20
870.8740009507371269
 30
0.0
 40
1.8
  1

 41
0.8
  7
GREEKS
  0
TEXT
  5
38F
  8
TEXT
 10
1072.9889926512469174
 20
886.1433134835554029
 30
0.0
 40
2.5
  1
  
  7
GREEKS
 72
     1
 11
1075.2508974131519608
 21
886.1433134835554029
 31
0.0
  0
TEXT
  5
390
  8
BEM
 10
1317.1087099637290976
 20
1021.7021955139570082
 30
0.0
 40
2.5
  1
 
 72
     4
 11
1318.239662344682074
 21
1021.7021955139570082
 31
0.0
  0
TEXT
  5
393
  8
VOLL
 10
582.729612564292097
 20
897.157541983345368
 30
0.0
 40
1.8
  1

  7
GREEKS
  0
TEXT
  5
394
  8
TEXT
 10
914.5618807678849862
 20
902.7157775165710518
 30
0.0
 40
2.5
  1
  
  7
GREEKS
 72
     1
 11
916.8237855297896886
 21
902.7157775165710518
 31
0.0
  0
TEXT
  5
395
  8
BEM
 10
1158.681598080366939
 20
1038.2746595469729982
 30
0.0
 40
2.5
  1
 
 72
     4
 11
1159.812550461319006
 21
1038.2746595469729982
 31
0.0
  0
TEXT
  5
396
  8
BEM
 10
748.0752256439419625
 20
937.3107726819310983
 30
0.0
 40
2.5
  1

  7
GREEKS
  0
TEXT
  5
397
  8
VOLL
 10
734.009032624220481
 20
917.1275120248959638
 30
0.0
 40
1.8
  1

  7
GREEKS
  0
TEXT
  5
398
  8
BEM
 10
768.4970974635051562
 20
921.8532363481166385
 30
0.0
 40
2.5
  1

 41
0.8
  7
GREEKS
  0
TEXT
  5
399
  8
BEM
 10
768.4970974635051562
 20
917.159467794064426
 30
0.0
 40
2.5
  1

 41
0.8
  7
GREEKS
  0
TEXT
  5
39A
  8
BEM
 10
768.4970974635051562
 20
911.9216239754009621
 30
0.0
 40
2.5
  1

 41
0.8
  7
GREEKS
  0
TEXT
  5
39B
  8
BEM
 10
768.4241529861308209
 20
907.416435025303258
 30
0.0
 40
1.8
  1

 41
0.8
  7
GREEKS
  0
TEXT
  5
39C
  8
BEM
 10
755.7405821065194687
 20
933.0080241215285923
 30
0.0
 40
2.0
  1

 41
0.8
  7
GREEKS
 72
     1
 11
755.7405821065194687
 21
933.0080241215285923
 31
0.0
  0
TEXT
  5
39D
  8
TEXT
 10
1065.8413008278130292
 20
922.6857475581216477
 30
0.0
 40
2.5
  1
  
  7
GREEKS
 72
     1
 11
1068.1032055897180726
 21
922.6857475581216477
 31
0.0
  0
TEXT
  5
39E
  8
BEM
 10
1309.9610181402958915
 20
1058.2446295885240488
 30
0.0
 40
2.5
  1
 
 72
     4
 11
1311.0919705212479585
 21
1058.2446295885240488
 31
0.0
  0
TEXT
  5
39F
  8
VOLL
 10
535.2274952054301593
 20
943.9290125399834324
 30
0.0
 40
1.8
  1

  7
GREEKS
  0
TEXT
  5
3A0
  8
TEXT
 10
867.0597634090230486
 20
949.4872480732088889
 30
0.0
 40
2.5
  1
  
  7
GREEKS
 72
     1
 11
869.3216681709279783
 21
949.4872480732088889
 31
0.0
  0
TEXT
  5
3A1
  8
BEM
 10
1111.1794807215048877
 20
1085.0461301036109489
 30
0.0
 40
2.5
  1
 
 72
     4
 11
1112.3104331024569547
 21
1085.0461301036109489
 31
0.0
  0
TEXT
  5
3A2
  8
VOLL
 10
692.7622122825916904
 20
949.4845681750545054
 30
0.0
 40
1.8
  1

  7
GREEKS
  0
TEXT
  5
3A3
  8
BEM
 10
727.2502771218763655
 20
954.2102924982752938
 30
0.0
 40
2.5
  1

 41
0.8
  7
GREEKS
  0
TEXT
  5
3A4
  8
BEM
 10
727.2502771218763655
 20
949.5165239442230813
 30
0.0
 40
2.5
  1

 41
0.8
  7
GREEKS
  0
TEXT
  5
3A5
  8
BEM
 10
727.2502771218763655
 20
944.2786801255596174
 30
0.0
 40
2.5
  1

 41
0.8
  7
GREEKS
  0
TEXT
  5
3A6
  8
BEM
 10
727.1773326445020302
 20
939.7734911754620271
 30
0.0
 40
1.8
  1

 41
0.8
  7
GREEKS
  0
TEXT
  5
3A7
  8
TEXT
 10
1024.5944804861849207
 20
955.0428037082801893
 30
0.0
 40
2.5
  1
  
  7
GREEKS
 72
     1
 11
1026.8563852480890546
 21
955.0428037082801893
 31
0.0
  0
TEXT
  5
3A8
  8
BEM
 10
1268.7141977986671009
 20
1090.6016857386819083
 30
0.0
 40
2.5
  1
 
 72
     4
 11
1269.8451501796189405
 21
1090.6016857386819083
 31
0.0
  0
TEXT
  5
3A9
  8
VOLL
 10
535.9472242482787578
 20
918.024813704834969
 30
0.0
 40
1.8
  1

  7
GREEKS
  0
TEXT
  5
3AA
  8
TEXT
 10
867.7794924518717607
 20
923.5830492380606529
 30
0.0
 40
2.5
  1
  
  7
GREEKS
 72
     1
 11
870.0413972137764631
 21
923.5830492380606529
 31
0.0
  0
TEXT
  5
3AB
  8
BEM
 10
1111.8992097643540546
 20
1059.1419312684629404
 30
0.0
 40
2.5
  1
 
 72
     4
 11
1113.0301621453058942
 21
1059.1419312684629404
 31
0.0
  0
TEXT
  5
3AC
  8
VOLL
 10
693.4819413254404026
 20
923.5803693399062695
 30
0.0
 40
1.8
  1

  7
GREEKS
  0
TEXT
  5
3AD
  8
BEM
 10
727.970006164724964
 20
928.3060936631269442
 30
0.0
 40
2.5
  1

 41
0.8
  7
GREEKS
  0
TEXT
  5
3AE
  8
BEM
 10
727.970006164724964
 20
923.6123251090747317
 30
0.0
 40
2.5
  1

 41
0.8
  7
GREEKS
  0
TEXT
  5
3AF
  8
BEM
 10
727.970006164724964
 20
918.3744812904111541
 30
0.0
 40
2.5
  1

 41
0.8
  7
GREEKS
  0
TEXT
  5
3B0
  8
BEM
 10
727.8970616873506287
 20
913.8692923403136774
 30
0.0
 40
1.8
  1

 41
0.8
  7
GREEKS
  0
TEXT
  5
3B1
  8
TEXT
 10
1025.3142095290329507
 20
929.1386048731318397
 30
0.0
 40
2.5
  1
  
  7
GREEKS
 72
     1
 11
1027.5761142909379942
 21
929.1386048731318397
 31
0.0
  0
TEXT
  5
3B2
  8
BEM
 10
1269.4339268415149036
 20
1064.6974869035338997
 30
0.0
 40
2.5
  1
 
 72
     4
 11
1270.5648792224669705
 21
1064.6974869035338997
 31
0.0
  0
TEXT
  5
3B3
  8
BEM
 10
550.0134172680002393
 20
938.2080743618702172
 30
0.0
 40
2.5
  1

  7
GREEKS
  0
TEXT
  5
3B4
  8
VOLL
 10
535.9472242482787578
 20
918.024813704834969
 30
0.0
 40
1.8
  1

  7
GREEKS
  0
TEXT
  5
3B5
  8
BEM
 10
570.435289087563433
 20
922.7505380280556437
 30
0.0
 40
2.5
  1

 41
0.8
  7
GREEKS
  0
TEXT
  5
3B6
  8
BEM
 10
570.435289087563433
 20
918.0567694740035449
 30
0.0
 40
2.5
  1

 41
0.8
  7
GREEKS
  0
TEXT
  5
3B7
  8
BEM
 10
570.435289087563433
 20
912.818925655340081
 30
0.0
 40
2.5
  1

 41
0.8
  7
GREEKS
  0
TEXT
  5
3B8
  8
BEM
 10
557.6787737305777455
 20
933.9053258014677112
 30
0.0
 40
2.0
  1

 41
0.8
  7
GREEKS
 72
     1
 11
557.6787737305777455
 21
933.9053258014677112
 31
0.0
  0
TEXT
  5
3B9
  8
TEXT
 10
867.7794924518717607
 20
923.5830492380606529
 30
0.0
 40
2.5
  1
  
  7
GREEKS
 72
     1
 11
870.0413972137764631
 21
923.5830492380606529
 31
0.0
  0
TEXT
  5
3BA
  8
BEM
 10
1111.8992097643540546
 20
1059.1419312684629404
 30
0.0
 40
2.5
  1
 
 72
     4
 11
1113.0301621453058942
 21
1059.1419312684629404
 31
0.0
  0
TEXT
  5
3BB
  8
VOLL
 10
566.1758440479196679
 20
910.8292029172939692
 30
0.0
 40
1.8
  1

  7
GREEKS
  0
TEXT
  5
3BC
  8
TEXT
 10
898.0081122515127845
 20
916.387438450519312
 30
0.0
 40
2.5
  1
  
  7
GREEKS
 72
     1
 11
900.2700170134176005
 21
916.387438450519312
 31
0.0
  0
TEXT
  5
3BD
  8
BEM
 10
1142.1278295639949647
 20
1051.946320480921031
 30
0.0
 40
2.5
  1
 
 72
     4
 11
1143.2587819449470317
 21
1051.946320480921031
 31
0.0
  0
TEXT
  5
3BE
  8
BEM
 10
680.6648624260872111
 20
973.7681290180673841
 30
0.0
 40
2.5
  1

  7
GREEKS
  0
TEXT
  5
3BF
  8
VOLL
 10
666.5986694063657296
 20
953.584868361032477
 30
0.0
 40
1.8
  1

  7
GREEKS
  0
TEXT
  5
3C0
  8
BEM
 10
701.0867342456502911
 20
958.3105926842531517
 30
0.0
 40
2.5
  1

 41
0.8
  7
GREEKS
  0
TEXT
  5
3C1
  8
BEM
 10
701.0867342456502911
 20
953.6168241302007118
 30
0.0
 40
2.5
  1

 41
0.8
  7
GREEKS
  0
TEXT
  5
3C2
  8
BEM
 10
701.0867342456502911
 20
948.3789803115372479
 30
0.0
 40
2.5
  1

 41
0.8
  7
GREEKS
  0
TEXT
  5
3C3
  8
BEM
 10
701.0137897682759558
 20
943.8737913614397712
 30
0.0
 40
1.8
  1

 41
0.8
  7
GREEKS
  0
TEXT
  5
3C4
  8
BEM
 10
688.3302188886647173
 20
969.4653804576648781
 30
0.0
 40
2.0
  1

 41
0.8
  7
GREEKS
 72
     1
 11
688.3302188886647173
 21
969.4653804576648781
 31
0.0
  0
TEXT
  5
3C5
  8
TEXT
 10
998.4309376099586189
 20
959.1431038942578198
 30
0.0
 40
2.5
  1
  
  7
GREEKS
 72
     1
 11
1000.6928423718629801
 21
959.1431038942578198
 31
0.0
  0
TEXT
  5
3C6
  8
BEM
 10
1242.5506549224410264
 20
1094.7019859246599935
 30
0.0
 40
2.5
  1
 
 72
     4
 11
1243.6816073033930934
 21
1094.7019859246599935
 31
0.0
  0
TEXT
  5
3C7
  8
VOLL
 10
282.9311547075417934
 20
320.4744076683641083
 30
0.0
 40
1.8
  1

  7
GREEKS
  0
TEXT
  5
3C8
  8
VOLL
 10
372.5973286332148859
 20
325.766524384083425
 30
0.0
 40
1.8
  1

  7
GREEKS
  0
TEXT
  5
3C9
  8
TEXT
 10
704.429596836807832
 20
331.3247599173088815
 30
0.0
 40
2.5
  1
  
  7
GREEKS
 72
     1
 11
706.691501598712648
 21
331.3247599173088815
 31
0.0
  0
TEXT
  5
3CA
  8
BEM
 10
948.5493141492896711
 20
466.8836419477111122
 30
0.0
 40
2.5
  1
 
 72
     4
 11
949.6802665302420792
 21
466.8836419477111122
 31
0.0
  0
TEXT
  5
3CB
  8
BEM
 10
514.2386582791392584
 20
349.4032385752448135
 30
0.0
 40
2.5
  1

  7
GREEKS
  0
TEXT
  5
3CC
  8
VOLL
 10
500.1724652594178906
 20
329.219977918209679
 30
0.0
 40
1.8
  1

  7
GREEKS
  0
TEXT
  5
3CD
  8
BEM
 10
534.6605300987024521
 20
333.9457022414302969
 30
0.0
 40
2.5
  1

 41
0.8
  7
GREEKS
  0
TEXT
  5
3CE
  8
BEM
 10
534.6605300987024521
 20
329.2519336873780844
 30
0.0
 40
2.5
  1

 41
0.8
  7
GREEKS
  0
TEXT
  5
3CF
  8
BEM
 10
534.6605300987024521
 20
324.0140898687146773
 30
0.0
 40
2.5
  1

 41
0.8
  7
GREEKS
  0
TEXT
  5
3D0
  8
BEM
 10
534.5875856213281168
 20
319.5089009186169733
 30
0.0
 40
1.8
  1

 41
0.8
  7
GREEKS
  0
TEXT
  5
3D1
  8
BEM
 10
521.9040147417168782
 20
345.1004900148423076
 30
0.0
 40
2.0
  1

 41
0.8
  7
GREEKS
 72
     1
 11
521.9040147417168782
 21
345.1004900148423076
 31
0.0
  0
TEXT
  5
3D2
  8
TEXT
 10
832.0047334630106661
 20
334.7782134514353061
 30
0.0
 40
2.5
  1
  
  7
GREEKS
 72
     1
 11
834.2666382249155959
 21
334.7782134514353061
 31
0.0
  0
TEXT
  5
3D3
  8
BEM
 10
1076.12445077549296
 20
470.337095481837423
 30
0.0
 40
2.5
  1
 
 72
     4
 11
1077.255403156445027
 21
470.337095481837423
 31
0.0
  0
TEXT
  5
3D4
  8
VOLL
 10
424.8892296547031151
 20
336.6714919801988231
 30
0.0
 40
1.8
  1

  7
GREEKS
  0
TEXT
  5
3D5
  8
TEXT
 10
756.7214978582959475
 20
342.2297275134242796
 30
0.0
 40
2.5
  1
  
  7
GREEKS
 72
     1
 11
758.9834026202008772
 21
342.2297275134242796
 31
0.0
  0
TEXT
  5
3D6
  8
BEM
 10
1000.841215170778014
 20
477.7886095438266238
 30
0.0
 40
2.5
  1
 
 72
     4
 11
1001.9721675517299673
 21
477.7886095438266238
 31
0.0
  0
TEXT
  5
3D7
  8
BEM
 10
580.0288318114990034
 20
357.0049028698754228
 30
0.0
 40
2.5
  1

  7
GREEKS
  0
TEXT
  5
3D8
  8
VOLL
 10
565.9626387917776356
 20
336.8216422128402883
 30
0.0
 40
1.8
  1

  7
GREEKS
  0
TEXT
  5
3D9
  8
BEM
 10
600.450703631062197
 20
341.5473665360607924
 30
0.0
 40
2.5
  1

 41
0.8
  7
GREEKS
  0
TEXT
  5
3DA
  8
BEM
 10
600.450703631062197
 20
336.8535979820088073
 30
0.0
 40
2.5
  1

 41
0.8
  7
GREEKS
  0
TEXT
  5
3DB
  8
BEM
 10
600.450703631062197
 20
331.6157541633451729
 30
0.0
 40
2.5
  1

 41
0.8
  7
GREEKS
  0
TEXT
  5
3DC
  8
BEM
 10
600.377759153687748
 20
327.1105652132475825
 30
0.0
 40
1.8
  1

 41
0.8
  7
GREEKS
  0
TEXT
  5
3DD
  8
BEM
 10
587.6941882740766232
 20
352.7021543094729168
 30
0.0
 40
2.0
  1

 41
0.8
  7
GREEKS
 72
     1
 11
587.6941882740766232
 21
352.7021543094729168
 31
0.0
  0
TEXT
  5
3DE
  8
TEXT
 10
897.7949069953705248
 20
342.3798777460659153
 30
0.0
 40
2.5
  1
  
  7
GREEKS
 72
     1
 11
900.0568117572752271
 21
342.3798777460659153
 31
0.0
  0
TEXT
  5
3DF
  8
BEM
 10
1141.9146243078519092
 20
477.9387597764679754
 30
0.0
 40
2.5
  1
 
 72
     4
 11
1143.045576688805113
 21
477.9387597764679754
 31
0.0
  0
TEXT
  5
3E0
  8
VOLL
 10
360.8670182279466871
 20
324.8557824544503205
 30
0.0
 40
1.8
  1

  7
GREEKS
  0
TEXT
  5
3E1
  8
TEXT
 10
692.6992864315394627
 20
330.414017987675777
 30
0.0
 40
2.5
  1
  
  7
GREEKS
 72
     1
 11
694.9611911934443924
 21
330.414017987675777
 31
0.0
  0
TEXT
  5
3E2
  8
BEM
 10
936.8190037440216429
 20
465.9729000180781213
 30
0.0
 40
2.5
  1
 
 72
     4
 11
937.9499561249740509
 21
465.9729000180781213
 31
0.0
  0
TEXT
  5
3E3
  8
BEM
 10
526.2126313075965527
 20
365.009013153035994
 30
0.0
 40
2.5
  1

  7
GREEKS
  0
TEXT
  5
3E4
  8
VOLL
 10
512.1464382878751849
 20
344.8257524960009164
 30
0.0
 40
1.8
  1

  7
GREEKS
  0
TEXT
  5
3E5
  8
BEM
 10
546.63450312715986
 20
349.5514768192214774
 30
0.0
 40
2.5
  1

 41
0.8
  7
GREEKS
  0
TEXT
  5
3E6
  8
BEM
 10
546.63450312715986
 20
344.8577082651693217
 30
0.0
 40
2.5
  1

 41
0.8
  7
GREEKS
  0
TEXT
  5
3E7
  8
BEM
 10
546.63450312715986
 20
339.6198644465059147
 30
0.0
 40
2.5
  1

 41
0.8
  7
GREEKS
  0
TEXT
  5
3E8
  8
BEM
 10
546.561558649785411
 20
335.1146754964082106
 30
0.0
 40
1.8
  1

 41
0.8
  7
GREEKS
  0
TEXT
  5
3E9
  8
BEM
 10
533.8779877701741725
 20
360.7062645926334881
 30
0.0
 40
2.0
  1

 41
0.8
  7
GREEKS
 72
     1
 11
533.8779877701741725
 21
360.7062645926334881
 31
0.0
  0
TEXT
  5
3EA
  8
TEXT
 10
843.9787064914679604
 20
350.3839880292264866
 30
0.0
 40
2.5
  1
  
  7
GREEKS
 72
     1
 11
846.2406112533728901
 21
350.3839880292264866
 31
0.0
  0
TEXT
  5
3EB
  8
BEM
 10
1088.0984238039500269
 20
485.9428700596287172
 30
0.0
 40
2.5
  1
 
 72
     4
 11
1089.2293761849020939
 21
485.9428700596287172
 31
0.0
  0
TEXT
  5
3EC
  8
VOLL
 10
688.448594481057853
 20
329.9742258319528219
 30
0.0
 40
1.8
  1

  7
GREEKS
  0
TEXT
  5
3ED
  8
VOLL
 10
778.1147684067310593
 20
335.2663425476721955
 30
0.0
 40
1.8
  1

  7
GREEKS
  0
TEXT
  5
3EE
  8
TEXT
 10
1109.9470366103239485
 20
340.8245780808977088
 30
0.0
 40
2.5
  1
  
  7
GREEKS
 72
     1
 11
1112.2089413722280824
 21
340.8245780808977088
 31
0.0
  0
TEXT
  5
3EF
  8
BEM
 10
1354.0667539228059013
 20
476.3834601112998257
 30
0.0
 40
2.5
  1
 
 72
     4
 11
1355.1977063037579683
 21
476.3834601112998257
 31
0.0
  0
TEXT
  5
3F0
  8
BEM
 10
919.7560980526557159
 20
358.9030567388335839
 30
0.0
 40
2.5
  1

  7
GREEKS
  0
TEXT
  5
3F1
  8
VOLL
 10
905.6899050329342344
 20
338.7197960817985063
 30
0.0
 40
1.8
  1

  7
GREEKS
  0
TEXT
  5
3F2
  8
BEM
 10
940.1779698722187959
 20
343.4455204050191242
 30
0.0
 40
2.5
  1

 41
0.8
  7
GREEKS
  0
TEXT
  5
3F3
  8
BEM
 10
940.1779698722187959
 20
338.7517518509669117
 30
0.0
 40
2.5
  1

 41
0.8
  7
GREEKS
  0
TEXT
  5
3F4
  8
BEM
 10
940.1779698722187959
 20
333.5139080323035046
 30
0.0
 40
2.5
  1

 41
0.8
  7
GREEKS
  0
TEXT
  5
3F5
  8
BEM
 10
940.1050253948443469
 20
329.0087190822058005
 30
0.0
 40
1.8
  1

 41
0.8
  7
GREEKS
  0
TEXT
  5
3F6
  8
BEM
 10
927.4214545152331084
 20
354.600308178431078
 30
0.0
 40
2.0
  1

 41
0.8
  7
GREEKS
 72
     1
 11
927.4214545152331084
 21
354.600308178431078
 31
0.0
  0
TEXT
  5
3F7
  8
TEXT
 10
1237.5221732365268963
 20
344.2780316150240196
 30
0.0
 40
2.5
  1
  
  7
GREEKS
 72
     1
 11
1239.7840779984319397
 21
344.2780316150240196
 31
0.0
  0
TEXT
  5
3F8
  8
BEM
 10
1481.6418905490090765
 20
479.8369136454261934
 30
0.0
 40
2.5
  1
 
 72
     4
 11
1482.7728429299620529
 21
479.8369136454261934
 31
0.0
  0
TEXT
  5
3F9
  8
VOLL
 10
696.3619091728412513
 20
307.0251529394523118
 30
0.0
 40
1.8
  1

  7
GREEKS
  0
TEXT
  5
3FA
  8
VOLL
 10
786.0280830985144576
 20
312.3172696551715717
 30
0.0
 40
1.8
  1

  7
GREEKS
  0
TEXT
  5
3FB
  8
TEXT
 10
1117.860351302106892
 20
317.8755051883971987
 30
0.0
 40
2.5
  1
  
  7
GREEKS
 72
     1
 11
1120.1222560640119355
 21
317.8755051883971987
 31
0.0
  0
TEXT
  5
3FC
  8
BEM
 10
1361.9800686145890722
 20
453.4343872187993725
 30
0.0
 40
2.5
  1
 
 72
     4
 11
1363.1110209955420487
 21
453.4343872187993725
 31
0.0
  0
TEXT
  5
3FD
  8
BEM
 10
927.6694127444387732
 20
335.953983846333017
 30
0.0
 40
2.5
  1

  7
GREEKS
  0
TEXT
  5
3FE
  8
VOLL
 10
913.6032197247175191
 20
315.7707231892978825
 30
0.0
 40
1.8
  1

  7
GREEKS
  0
TEXT
  5
3FF
  8
BEM
 10
948.0912845640019668
 20
320.4964475125186141
 30
0.0
 40
2.5
  1

 41
0.8
  7
GREEKS
  0
TEXT
  5
400
  8
BEM
 10
948.0912845640019668
 20
315.8026789584662879
 30
0.0
 40
2.5
  1

 41
0.8
  7
GREEKS
  0
TEXT
  5
401
  8
BEM
 10
948.0912845640019668
 20
310.5648351398028808
 30
0.0
 40
2.5
  1

 41
0.8
  7
GREEKS
  0
TEXT
  5
402
  8
BEM
 10
948.0183400866277452
 20
306.0596461897052905
 30
0.0
 40
1.8
  1

 41
0.8
  7
GREEKS
  0
TEXT
  5
403
  8
BEM
 10
935.3347692070165067
 20
331.6512352859305111
 30
0.0
 40
2.0
  1

 41
0.8
  7
GREEKS
 72
     1
 11
935.3347692070165067
 21
331.6512352859305111
 31
0.0
  0
TEXT
  5
404
  8
TEXT
 10
1245.4354879283100672
 20
321.3289587225235096
 30
0.0
 40
2.5
  1
  
  7
GREEKS
 72
     1
 11
1247.6973926902151106
 21
321.3289587225235096
 31
0.0
  0
TEXT
  5
405
  8
BEM
 10
1489.55520524079202
 20
456.8878407529256833
 30
0.0
 40
2.5
  1
 
 72
     4
 11
1490.6861576217449965
 21
456.8878407529256833
 31
0.0
  0
TEXT
  5
406
  8
VOLL
 10
838.319984120002573
 20
323.2222372512870834
 30
0.0
 40
1.8
  1

  7
GREEKS
  0
TEXT
  5
407
  8
TEXT
 10
1170.1522523235948938
 20
328.7804727845127104
 30
0.0
 40
2.5
  1
  
  7
GREEKS
 72
     1
 11
1172.4141570854999372
 21
328.7804727845127104
 31
0.0
  0
TEXT
  5
408
  8
BEM
 10
1414.2719696360779835
 20
464.3393548149147136
 30
0.0
 40
2.5
  1
 
 72
     4
 11
1415.4029220170300505
 21
464.3393548149147136
 31
0.0
  0
TEXT
  5
409
  8
BEM
 10
993.4595862767986318
 20
343.5556481409636262
 30
0.0
 40
2.5
  1

  7
GREEKS
  0
TEXT
  5
40A
  8
VOLL
 10
979.3933932570771503
 20
323.3723874839284917
 30
0.0
 40
1.8
  1

  7
GREEKS
  0
TEXT
  5
40B
  8
BEM
 10
1013.8814580963610297
 20
328.0981118071492233
 30
0.0
 40
2.5
  1

 41
0.8
  7
GREEKS
  0
TEXT
  5
40C
  8
BEM
 10
1013.8814580963610297
 20
323.4043432530968971
 30
0.0
 40
2.5
  1

 41
0.8
  7
GREEKS
  0
TEXT
  5
40D
  8
BEM
 10
1013.8814580963610297
 20
318.16649943443349
 30
0.0
 40
2.5
  1

 41
0.8
  7
GREEKS
  0
TEXT
  5
40E
  8
BEM
 10
1013.8085136189870354
 20
313.661310484335786
 30
0.0
 40
1.8
  1

 41
0.8
  7
GREEKS
  0
TEXT
  5
40F
  8
BEM
 10
1001.1249427393760243
 20
339.2528995805611203
 30
0.0
 40
2.0
  1

 41
0.8
  7
GREEKS
 72
     1
 11
1001.1249427393760243
 21
339.2528995805611203
 31
0.0
  0
TEXT
  5
410
  8
TEXT
 10
1311.2256614606699259
 20
328.9306230171541188
 30
0.0
 40
2.5
  1
  
  7
GREEKS
 72
     1
 11
1313.4875662225749693
 21
328.9306230171541188
 31
0.0
  0
TEXT
  5
411
  8
BEM
 10
1555.3453787731521061
 20
464.4895050475561789
 30
0.0
 40
2.5
  1
 
 72
     4
 11
1556.4763311541039457
 21
464.4895050475561789
 31
0.0
  0
TEXT
  5
412
  8
VOLL
 10
468.9371244331185267
 20
517.8844667310928571
 30
0.0
 40
1.8
  1

  7
GREEKS
  0
TEXT
  5
413
  8
VOLL
 10
558.6032983587914487
 20
523.1765834468122875
 30
0.0
 40
1.8
  1

  7
GREEKS
  0
TEXT
  5
414
  8
TEXT
 10
890.4355665623845653
 20
528.734818980037744
 30
0.0
 40
2.5
  1
  
  7
GREEKS
 72
     1
 11
892.6974713242892676
 21
528.734818980037744
 31
0.0
  0
TEXT
  5
415
  8
BEM
 10
1134.5552838748669728
 20
664.2937010104400315
 30
0.0
 40
2.5
  1
 
 72
     4
 11
1135.6862362558190398
 21
664.2937010104400315
 31
0.0
  0
TEXT
  5
416
  8
BEM
 10
700.2446280047161054
 20
546.8132976379737329
 30
0.0
 40
2.5
  1

  7
GREEKS
  0
TEXT
  5
417
  8
VOLL
 10
686.1784349849947375
 20
526.6300369809384847
 30
0.0
 40
1.8
  1

  7
GREEKS
  0
TEXT
  5
418
  8
BEM
 10
720.666499824279299
 20
531.3557613041591594
 30
0.0
 40
2.5
  1

 41
0.8
  7
GREEKS
  0
TEXT
  5
419
  8
BEM
 10
720.666499824279299
 20
526.6619927501069469
 30
0.0
 40
2.5
  1

 41
0.8
  7
GREEKS
  0
TEXT
  5
41A
  8
BEM
 10
720.666499824279299
 20
521.4241489314435967
 30
0.0
 40
2.5
  1

 41
0.8
  7
GREEKS
  0
TEXT
  5
41B
  8
BEM
 10
720.59355534690485
 20
516.9189599813457789
 30
0.0
 40
1.8
  1

 41
0.8
  7
GREEKS
  0
TEXT
  5
41C
  8
BEM
 10
707.9099844672937252
 20
542.5105490775712269
 30
0.0
 40
2.0
  1

 41
0.8
  7
GREEKS
 72
     1
 11
707.9099844672937252
 21
542.5105490775712269
 31
0.0
  0
TEXT
  5
41D
  8
TEXT
 10
1018.0107031885869446
 20
532.1882725141640549
 30
0.0
 40
2.5
  1
  
  7
GREEKS
 72
     1
 11
1020.272607950491988
 21
532.1882725141640549
 31
0.0
  0
TEXT
  5
41E
  8
BEM
 10
1262.1304205010690112
 20
667.7471545445663423
 30
0.0
 40
2.5
  1
 
 72
     4
 11
1263.2613728820219876
 21
667.7471545445663423
 31
0.0
  0
TEXT
  5
41F
  8
VOLL
 10
610.8951993802796778
 20
534.0815510429275719
 30
0.0
 40
1.8
  1

  7
GREEKS
  0
TEXT
  5
420
  8
TEXT
 10
942.7274675838726807
 20
539.6397865761532557
 30
0.0
 40
2.5
  1
  
  7
GREEKS
 72
     1
 11
944.9893723457776105
 21
539.6397865761532557
 31
0.0
  0
TEXT
  5
421
  8
BEM
 10
1186.8471848963549746
 20
675.1986686065555432
 30
0.0
 40
2.5
  1
 
 72
     4
 11
1187.9781372773070416
 21
675.1986686065555432
 31
0.0
  0
TEXT
  5
422
  8
BEM
 10
766.0348015370757366
 20
554.4149619326043421
 30
0.0
 40
2.5
  1

  7
GREEKS
  0
TEXT
  5
423
  8
VOLL
 10
751.9686085173542551
 20
534.2317012755692076
 30
0.0
 40
1.8
  1

  7
GREEKS
  0
TEXT
  5
424
  8
BEM
 10
786.4566733566389303
 20
538.9574255987897686
 30
0.0
 40
2.5
  1

 41
0.8
  7
GREEKS
  0
TEXT
  5
425
  8
BEM
 10
786.4566733566389303
 20
534.2636570447376698
 30
0.0
 40
2.5
  1

 41
0.8
  7
GREEKS
  0
TEXT
  5
426
  8
BEM
 10
786.4566733566389303
 20
529.0258132260739785
 30
0.0
 40
2.5
  1

 41
0.8
  7
GREEKS
  0
TEXT
  5
427
  8
BEM
 10
786.3837288792644813
 20
524.5206242759763882
 30
0.0
 40
1.8
  1

 41
0.8
  7
GREEKS
  0
TEXT
  5
428
  8
BEM
 10
773.7001579996533565
 20
550.1122133722018361
 30
0.0
 40
2.0
  1

 41
0.8
  7
GREEKS
 72
     1
 11
773.7001579996533565
 21
550.1122133722018361
 31
0.0
  0
TEXT
  5
429
  8
TEXT
 10
1083.800876720946917
 20
539.7899368087946641
 30
0.0
 40
2.5
  1
  
  7
GREEKS
 72
     1
 11
1086.0627814828519604
 21
539.7899368087946641
 31
0.0
  0
TEXT
  5
42A
  8
BEM
 10
1327.9205940334290972
 20
675.3488188391969516
 30
0.0
 40
2.5
  1
 
 72
     4
 11
1329.0515464143809368
 21
675.3488188391969516
 31
0.0
  0
TEXT
  5
42B
  8
VOLL
 10
546.8729879535234204
 20
522.265841517179183
 30
0.0
 40
1.8
  1

  7
GREEKS
  0
TEXT
  5
42C
  8
TEXT
 10
878.7052561571163096
 20
527.8240770504047532
 30
0.0
 40
2.5
  1
  
  7
GREEKS
 72
     1
 11
880.967160919021012
 21
527.8240770504047532
 31
0.0
  0
TEXT
  5
42D
  8
BEM
 10
1122.8249734695980351
 20
663.3829590808070407
 30
0.0
 40
2.5
  1
 
 72
     4
 11
1123.9559258505510115
 21
663.3829590808070407
 31
0.0
  0
TEXT
  5
42E
  8
BEM
 10
712.2186010331732859
 20
562.4190722157647997
 30
0.0
 40
2.5
  1

  7
GREEKS
  0
TEXT
  5
42F
  8
VOLL
 10
698.1524080134519181
 20
542.2358115587296652
 30
0.0
 40
1.8
  1

  7
GREEKS
  0
TEXT
  5
430
  8
BEM
 10
732.6404728527364796
 20
546.9615358819503399
 30
0.0
 40
2.5
  1

 41
0.8
  7
GREEKS
  0
TEXT
  5
431
  8
BEM
 10
732.6404728527364796
 20
542.2677673278982411
 30
0.0
 40
2.5
  1

 41
0.8
  7
GREEKS
  0
TEXT
  5
432
  8
BEM
 10
732.6404728527364796
 20
537.0299235092346635
 30
0.0
 40
2.5
  1

 41
0.8
  7
GREEKS
  0
TEXT
  5
433
  8
BEM
 10
732.5675283753621443
 20
532.5247345591369594
 30
0.0
 40
1.8
  1

 41
0.8
  7
GREEKS
  0
TEXT
  5
434
  8
BEM
 10
719.8839574957509058
 20
558.1163236553622937
 30
0.0
 40
2.0
  1

 41
0.8
  7
GREEKS
 72
     1
 11
719.8839574957509058
 21
558.1163236553622937
 31
0.0
  0
TEXT
  5
435
  8
TEXT
 10
1029.9846762170450347
 20
547.7940470919553491
 30
0.0
 40
2.5
  1
  
  7
GREEKS
 72
     1
 11
1032.2465809789500781
 21
547.7940470919553491
 31
0.0
  0
TEXT
  5
436
  8
BEM
 10
1274.1043935295269875
 20
683.3529291223575228
 30
0.0
 40
2.5
  1
 
 72
     4
 11
1275.2353459104790545
 21
683.3529291223575228
 31
0.0
  0
TEXT
  5
437
  8
VOLL
 10
330.2300532175565877
 20
506.0703765974071189
 30
0.0
 40
1.8
  1

  7
GREEKS
  0
TEXT
  5
438
  8
TEXT
 10
662.0623214211494769
 20
511.6286121306325754
 30
0.0
 40
2.5
  1
  
  7
GREEKS
 72
     1
 11
664.324226183054293
 21
511.6286121306325754
 31
0.0
  0
TEXT
  5
439
  8
BEM
 10
906.1820387336315434
 20
647.1874941610349197
 30
0.0
 40
2.5
  1
 
 72
     4
 11
907.3129911145839515
 21
647.1874941610349197
 31
0.0
  0
TEXT
  5
44C
  8
VOLL
 10
487.7647702947181756
 20
511.6259322324784193
 30
0.0
 40
1.8
  1

  7
GREEKS
  0
TEXT
  5
44D
  8
BEM
 10
522.2528351340026802
 20
516.3516565556989235
 30
0.0
 40
2.5
  1

 41
0.8
  7
GREEKS
  0
TEXT
  5
44E
  8
BEM
 10
522.2528351340026802
 20
511.6578880016468247
 30
0.0
 40
2.5
  1

 41
0.8
  7
GREEKS
  0
TEXT
  5
44F
  8
BEM
 10
522.2528351340026802
 20
506.4200441829831902
 30
0.0
 40
2.5
  1

 41
0.8
  7
GREEKS
  0
TEXT
  5
450
  8
BEM
 10
522.1798906566283449
 20
501.9148552328855999
 30
0.0
 40
1.8
  1

 41
0.8
  7
GREEKS
  0
TEXT
  5
451
  8
TEXT
 10
819.5970384983111217
 20
517.1841677657039327
 30
0.0
 40
2.5
  1
  
  7
GREEKS
 72
     1
 11
821.8589432602160514
 21
517.1841677657039327
 31
0.0
  0
TEXT
  5
452
  8
BEM
 10
1063.7167558107930745
 20
652.7430497961061064
 30
0.0
 40
2.5
  1
 
 72
     4
 11
1064.8477081917449141
 21
652.7430497961061064
 31
0.0
  0
INSERT
  5
EAB
  8
0
  2
A$C53E40033
 10
0.0000000000002274
 20
-0.0000000000000419
 30
0.0000000000001705
  0
INSERT
  5
EE8
  8
0
  2
A$C782F6426
 10
-1.9541335664389401
 20
83.8578836420958851
 30
2.7467014153265401
  0
VIEWPORT
  5
8FB
 67
     1
  8
0
 10
3.3920280895189752
 20
3.999351404879703
 30
0.0
 40
15.68071775634162
 41
8.3290815138127563
 68
     1
 69
     1
1001
ACAD
1000
MVIEW
1002
{
1070
    16
1010
0.0
1020
0.0
1030
0.0
1010
0.0
1020
0.0
1030
1.0
1040
0.0
1040
8.3290815138127563
1040
3.3920280895189752
1040
3.999351404879703
1040
50.0
1040
0.0
1040
0.0
1070
     0
1070
  1500
1070
     1
1070
     1
1070
     0
1070
     0
1070
     0
1070
     0
1040
0.0
1040
0.0
1040
0.0
1040
10.0
1040
10.0
1040
10.0
1040
10.0
1070
     0
1002
{
1002
}
1002
}
  0
ENDSEC
  0
EOF
