  0
SECTION
  2
HEADER
  9
$ACADVER
  1
AC1009
  9
$INSBASE
 10
509.9391017861535147
 20
-118.0350180316795985
 30
403.1361558984037856
  9
$EXTMIN
 10
-64.9969329833984375
 20
-141.85546875
 30
-0.000000000000042
  9
$EXTMAX
 10
59.0030632019042969
 20
125.0
 30
-0.0000000000000142
  9
$LIMMIN
 10
0.0
 20
0.000000000000008
  9
$LIMMAX
 10
594.0
 20
840.0
  9
$ORTHOMODE
 70
     1
  9
$REGENMODE
 70
     1
  9
$FILLMODE
 70
     1
  9
$QTEXTMODE
 70
     0
  9
$MIRRTEXT
 70
     1
  9
$DRAGMODE
 70
     2
  9
$LTSCALE
 40
20.0
  9
$OSMODE
 70
  3583
  9
$ATTMODE
 70
     1
  9
$TEXTSIZE
 40
2.0
  9
$TRACEWID
 40
1.0
  9
$TEXTSTYLE
  7
STANDARD
  9
$CLAYER
  8
0
  9
$CELTYPE
  6
BYLAYER
  9
$CECOLOR
 62
   256
  9
$DIMSCALE
 40
2.0
  9
$DIMASZ
 40
1.75
  9
$DIMEXO
 40
1.0
  9
$DIMDLI
 40
7.0
  9
$DIMRND
 40
0.0
  9
$DIMDLE
 40
0.0
  9
$DIMEXE
 40
1.0
  9
$DIMTP
 40
0.0
  9
$DIMTM
 40
0.0
  9
$DIMTXT
 40
1.75
  9
$DIMCEN
 40
1.5
  9
$DIMTSZ
 40
0.0
  9
$DIMTOL
 70
     0
  9
$DIMLIM
 70
     0
  9
$DIMTIH
 70
     0
  9
$DIMTOH
 70
     0
  9
$DIMSE1
 70
     0
  9
$DIMSE2
 70
     0
  9
$DIMTAD
 70
     1
  9
$DIMZIN
 70
     8
  9
$DIMBLK
  1

  9
$DIMASO
 70
     1
  9
$DIMSHO
 70
     0
  9
$DIMPOST
  1

  9
$DIMAPOST
  1

  9
$DIMALT
 70
     0
  9
$DIMALTD
 70
     2
  9
$DIMALTF
 40
25.3999999999999986
  9
$DIMLFAC
 40
2.0
  9
$DIMTOFL
 70
     1
  9
$DIMTVP
 40
0.0
  9
$DIMTIX
 70
     0
  9
$DIMSOXD
 70
     0
  9
$DIMSAH
 70
     0
  9
$DIMBLK1
  1

  9
$DIMBLK2
  1

  9
$DIMSTYLE
  2
STANDARD
  9
$DIMCLRD
 70
     0
  9
$DIMCLRE
 70
     0
  9
$DIMCLRT
 70
     1
  9
$DIMTFAC
 40
0.5142857142857143
  9
$DIMGAP
 40
0.75
  9
$LUNITS
 70
     2
  9
$LUPREC
 70
     2
  9
$SKETCHINC
 40
1.0
  9
$FILLETRAD
 40
6.5
  9
$AUNITS
 70
     0
  9
$AUPREC
 70
     0
  9
$MENU
  1
ACAD
  9
$ELEVATION
 40
0.0
  9
$PELEVATION
 40
0.0
  9
$THICKNESS
 40
0.0
  9
$LIMCHECK
 70
     0
  9
$BLIPMODE
 70
     0
  9
$CHAMFERA
 40
0.0
  9
$CHAMFERB
 40
0.0
  9
$SKPOLY
 70
     0
  9
$TDCREATE
 40
2455397.867048610933125
  9
$TDUPDATE
 40
2460803.3002199069596827
  9
$TDINDWG
 40
0.8329930208
  9
$TDUSRTIMER
 40
0.8329930208
  9
$USRTIMER
 70
     1
  9
$ANGBASE
 50
0.0
  9
$ANGDIR
 70
     0
  9
$PDMODE
 70
     0
  9
$PDSIZE
 40
0.0
  9
$PLINEWID
 40
0.0
  9
$COORDS
 70
     1
  9
$SPLFRAME
 70
     0
  9
$SPLINETYPE
 70
     6
  9
$SPLINESEGS
 70
     8
  9
$ATTDIA
 70
     1
  9
$ATTREQ
 70
     1
  9
$HANDLING
 70
     1
  9
$HANDSEED
  5
9530
  9
$SURFTAB1
 70
     6
  9
$SURFTAB2
 70
     6
  9
$SURFTYPE
 70
     6
  9
$SURFU
 70
     6
  9
$SURFV
 70
     6
  9
$UCSNAME
  2

  9
$UCSORG
 10
0.0
 20
0.0
 30
0.0
  9
$UCSXDIR
 10
1.0
 20
0.0
 30
0.0
  9
$UCSYDIR
 10
0.0
 20
1.0
 30
0.0
  9
$PUCSNAME
  2

  9
$PUCSORG
 10
0.0
 20
0.0
 30
0.0
  9
$PUCSXDIR
 10
1.0
 20
0.0
 30
0.0
  9
$PUCSYDIR
 10
0.0
 20
1.0
 30
0.0
  9
$USERI1
 70
     0
  9
$USERI2
 70
     0
  9
$USERI3
 70
     0
  9
$USERI4
 70
     0
  9
$USERI5
 70
     0
  9
$USERR1
 40
0.0
  9
$USERR2
 40
0.0
  9
$USERR3
 40
0.0
  9
$USERR4
 40
0.0
  9
$USERR5
 40
0.0
  9
$WORLDVIEW
 70
     1
  9
$SHADEDGE
 70
     3
  9
$SHADEDIF
 70
    70
  9
$TILEMODE
 70
     1
  9
$MAXACTVP
 70
    16
  9
$PLIMCHECK
 70
     0
  9
$PEXTMIN
 10
1.0000000000000000E+20
 20
1.0000000000000000E+20
 30
1.0000000000000000E+20
  9
$PEXTMAX
 10
-1.0000000000000000E+20
 20
-1.0000000000000000E+20
 30
-1.0000000000000000E+20
  9
$PLIMMIN
 10
-0.2049179077148437
 20
-0.2552490234375
  9
$PLIMMAX
 10
209.7950820922850994
 20
296.7447509765625
  9
$UNITMODE
 70
     0
  9
$VISRETAIN
 70
     0
  9
$PLINEGEN
 70
     0
  9
$PSLTSCALE
 70
     0
  0
ENDSEC
  0
SECTION
  2
TABLES
  0
TABLE
  2
VPORT
 70
     1
  0
VPORT
  2
*ACTIVE
 70
     0
 10
0.0
 20
0.0
 11
1.0
 21
1.0
 12
-65.7673266305031348
 22
-39.927734375
 13
0.0
 23
0.0
 14
1.0
 24
1.0
 15
10.0
 25
10.0
 16
-0.000000000000199
 26
0.0
 36
889.973369185350748
 17
62.7703917397560502
 27
31.5
 37
62.5
 40
268.2405317365917199
 41
1.9004329004328999
 42
49.99999999999946
 43
0.0
 44
0.0
 50
0.0
 51
0.0
 71
     0
 72
  1500
 73
     1
 74
     0
 75
     0
 76
     0
 77
     0
 78
     0
  0
ENDTAB
  0
TABLE
  2
LTYPE
 70
    13
  0
LTYPE
  2
CONTINUOUS
 70
     0
  3
Solid line
 72
    65
 73
     0
 40
0.0
  0
LTYPE
  2
STRICHPUNKT
 70
     0
  3
__ . __ . __ . __ . __ . __ . __ . __ . __ . __
 72
    65
 73
     4
 40
1.0
 49
0.5
 49
-0.25
 49
0.0
 49
-0.25
  0
LTYPE
  2
HIDDEN
 70
     0
  3
Hidden __ __ __ __ __ __ __ __ __ __ __ __ __ __
 72
    65
 73
     2
 40
0.375
 49
0.25
 49
-0.125
  0
LTYPE
  2
PHANTOM2
 70
     0
  3
Phantom (.5x) ___ _ _ ___ _ _ ___ _ _ ___ _ _
 72
    65
 73
     6
 40
1.25
 49
0.625
 49
-0.125
 49
0.125
 49
-0.125
 49
0.125
 49
-0.125
  0
LTYPE
  2
CENTER
 70
     0
  3
Center ____ _ ____ _ ____ _ ____ _ ____ _ ____
 72
    65
 73
     4
 40
2.0
 49
1.25
 49
-0.25
 49
0.25
 49
-0.25
  0
LTYPE
  2
AMCONSTR
 70
     0
  3
_______________________
 72
    65
 73
     2
 40
9999.0
 49
9999.0
 49
0.0
  0
LTYPE
  2
CENTER2
 70
     0
  3
Center (.5x) ___ _ ___ _ ___ _ ___ _ ___ _ ___
 72
    65
 73
     4
 40
1.125
 49
0.75
 49
-0.125
 49
0.125
 49
-0.125
  0
LTYPE
  2
HIDDEN2
 70
     0
  3
Hidden (.5x) _ _ _ _ _ _ _ _ _ _ _ _ _ _ _ _ _
 72
    65
 73
     2
 40
0.1875
 49
0.125
 49
-0.0625
  0
LTYPE
  2
AMZIGZAG2
 70
     0
  3
/\/-/\/-/\/-/\/-/\/-/\/
 72
    65
 73
     2
 40
0.4401
 49
0.0001
 49
-0.4400000000000001
  0
LTYPE
  2
ACANSTGB
 70
     0
  3
__ . . __ . .
 72
    65
 73
     6
 40
0.35433070866
 49
0.15748031496
 49
-0.03937007874
 49
0.03937007874
 49
-0.03937007874
 49
0.03937007874
 49
-0.03937007874
  0
LTYPE
  2
ACANSTGL
 70
     0
  3
_ _ _ _ _
 72
    65
 73
     2
 40
0.11811023622
 49
0.07874015748
 49
-0.03937007874
  0
LTYPE
  2
AUSGEZOGEN
 70
     0
  3
Ausgezogene Linie
 72
    65
 73
     0
 40
0.0
  0
LTYPE
  2
VERDECKT
 70
     0
  3
Verdeckt __ __ __ __ __ __ __ __ __ __ __ __ __
 72
    65
 73
     2
 40
0.375
 49
0.25
 49
-0.125
  0
ENDTAB
  0
TABLE
  2
LAYER
 70
     4
  0
LAYER
  2
0
 70
     0
 62
     7
  6
CONTINUOUS
  0
LAYER
  2
VOLL
 70
     0
 62
     1
  6
CONTINUOUS
  0
LAYER
  2
DEFPOINTS
 70
     0
 62
   255
  6
CONTINUOUS
  0
LAYER
  2
ADSK_ASSOC_ENTITY_BACKUPS
 70
     1
 62
    -7
  6
CONTINUOUS
  0
ENDTAB
  0
TABLE
  2
STYLE
 70
     5
  0
STYLE
  2
STANDARD
 70
     0
 40
0.0
 41
0.8
 50
0.0
 71
     0
 42
2.0
  3
simplex.shx
  4

  0
STYLE
  2
GREEKS
 70
     0
 40
0.0
 41
0.8
 50
0.0
 71
     0
 42
2.5
  3
SIMPLEX.shx
  4

  0
STYLE
  2

 70
     1
 40
0.0
 41
1.0
 50
0.0
 71
     0
 42
2.5
  3
genltshp.shx
  4

  0
STYLE
  2
ACANSGDT
 70
     0
 40
0.0
 41
1.0
 50
0.0
 71
     0
 42
2.5
  3
amgdt.shx
  4

  0
STYLE
  2

 70
     1
 40
0.0
 41
1.0
 50
0.0
 71
     0
 42
2.0
  3
ltypeshp.shx
  4

  0
ENDTAB
  0
TABLE
  2
VIEW
 70
     0
  0
ENDTAB
  0
TABLE
  2
UCS
 70
     0
  0
ENDTAB
  0
TABLE
  2
APPID
 70
    48
  0
APPID
  2
ACAD
 70
     0
  0
APPID
  2
ACAD_NAV_VCDISPLAY
 70
     0
  0
APPID
  2
GRADIENTCOLOR1ACI
 70
     0
  0
APPID
  2
GRADIENTCOLOR2ACI
 70
     0
  0
APPID
  2
ACAD_DSTYLE_DIMRADIAL_EXTENSION
 70
     0
  0
APPID
  2
ACADANNOMONITORALERTICONDI
 70
     0
  0
APPID
  2
ACAD_EXEMPT_FROM_CAD_STANDARDS
 70
     0
  0
APPID
  2
ACAD_MLEADERVER
 70
     0
  0
APPID
  2
ACAD_PSEXT
 70
     0
  0
APPID
  2
ACAECLAYERSTANDARD
 70
     0
  0
APPID
  2
ACCMTRANSPARENCY
 70
     0
  0
APPID
  2
ACAD_OBJECT_CHANGE_GUID
 70
     0
  0
APPID
  2
MCAD_NO_VIS
 70
     0
  0
APPID
  2
ACAD_TEMP_GRAPHIC
 70
     0
  0
APPID
  2
ACATTRIBSERVICES
 70
     0
  0
APPID
  2
DESIGNERASSEMBLIES
 70
     0
  0
APPID
  2
ACAD_DSTYLE_DIMJAG
 70
     0
  0
APPID
  2
ACAD_DSTYLE_DIMBREAK
 70
     0
  0
APPID
  2
GENIUS_GENSCREG_15
 70
     0
  0
APPID
  2
GENIUS_GENOBJ-N-SDF_13
 70
     0
  0
APPID
  2
GENIUS_GENODEF_13
 70
     0
  0
APPID
  2
ACAD_STEPID
 70
     0
  0
APPID
  2
ACAD_DSTYLE_DIMARC_LENGTH_
 70
     0
  0
APPID
  2
ACAD_DSTYLE_DIM_LINETYPE
 70
     0
  0
APPID
  2
ACAD_DSTYLE_DIM_EXT1_LINETYPE
 70
     0
  0
APPID
  2
ACAD_DSTYLE_DIM_EXT2_LINETYPE
 70
     0
  0
APPID
  2
RAK
 70
     0
  0
APPID
  2
ACADANNOPO
 70
     0
  0
APPID
  2
ACSYNERGY
 70
     0
  0
APPID
  2
SYNERGY_BODY_TBR_ID
 70
     0
  0
APPID
  2
ACAD_VIEW_EDGE_ID
 70
     0
  0
APPID
  2
ACSYNERGYSKETCH
 70
     0
  0
APPID
  2
ACAD_MODELDOC_XFORM
 70
     0
  0
APPID
  2
GENIUS_GENDTOL_13
 70
     0
  0
APPID
  2
ACAD_DSTYLE_DIMINSPECT
 70
     0
  0
APPID
  2
ACAD_DSTYLE_DIMANGULAR_EXT
 70
     0
  0
APPID
  2
PLOTTRANSPARENCY
 70
     0
  0
APPID
  2
ACAUTHENVIRON
 70
     0
  0
APPID
  2
ACDBDYNAMICBLOCKTRUENAME
 70
     0
  0
APPID
  2
ACDBDYNAMICBLOCKGUID
 70
     0
  0
APPID
  2
PE_URL
 70
     0
  0
APPID
  2
ACADANNOAV
 70
     0
  0
APPID
  2
ACAD_DSTYLE_DIMTALN
 70
     0
  0
APPID
  2
ACAD_DIMASSOC_CALC_DIMLFAC
 70
     0
  0
APPID
  2
ACAD_DIMASSOC_DIMLFAC
 70
     0
  0
APPID
  2
ACAD_DIMASSOC_OVERRIDDEN_D
 70
     0
  0
APPID
  2
ACADANNOTATIVE
 70
     0
  0
APPID
  2
DCO15
 70
     0
  0
ENDTAB
  0
TABLE
  2
DIMSTYLE
 70
     8
  0
DIMSTYLE
  2
STANDARD
 70
     0
  3

  4

  5

  6

  7

 40
1.0
 41
0.18
 42
0.0625
 43
0.38
 44
0.18
 45
0.0
 46
0.0
 47
0.0
 48
0.0
140
0.18
141
0.09
142
0.0
143
25.3999999999999986
144
1.0
145
0.0
146
1.0
147
0.09
 71
     0
 72
     0
 73
     1
 74
     1
 75
     0
 76
     0
 77
     0
 78
     0
170
     0
171
     2
172
     0
173
     0
174
     0
175
     0
176
     0
177
     0
178
     0
  0
DIMSTYLE
  2
AM_ANSI
 70
     0
  3

  4
mm
  5

  6

  7

 40
1.0
 41
0.12
 42
0.05
 43
0.5
 44
0.1
 45
0.0
 46
0.0
 47
0.1
 48
0.1
140
0.12
141
0.0
142
0.0
143
25.3999999999999986
144
1.0
145
0.0
146
0.71
147
0.06
 71
     0
 72
     0
 73
     1
 74
     1
 75
     0
 76
     0
 77
     0
 78
     7
170
     0
171
     2
172
     0
173
     0
174
     0
175
     0
176
   256
177
   256
178
   255
  0
DIMSTYLE
  2
AM_ANSI$3
 70
     0
  3

  4
mm
  5

  6

  7

 40
1.0
 41
0.12
 42
0.05
 43
0.5
 44
0.1
 45
0.0
 46
0.0
 47
0.1
 48
0.1
140
0.12
141
0.0
142
0.0
143
25.3999999999999986
144
1.0
145
0.0
146
0.71
147
0.06
 71
     0
 72
     0
 73
     1
 74
     1
 75
     0
 76
     0
 77
     0
 78
     7
170
     0
171
     2
172
     0
173
     0
174
     0
175
     0
176
   256
177
   256
178
   255
  0
DIMSTYLE
  2
AM_ANSI$4
 70
     0
  3

  4
mm
  5

  6

  7

 40
1.0
 41
0.12
 42
0.05
 43
0.5
 44
0.1
 45
0.0
 46
0.0
 47
0.1
 48
0.1
140
0.12
141
0.0
142
0.0
143
25.3999999999999986
144
1.0
145
0.0
146
0.71
147
0.06
 71
     0
 72
     0
 73
     1
 74
     1
 75
     0
 76
     0
 77
     0
 78
     7
170
     0
171
     2
172
     0
173
     0
174
     0
175
     0
176
   256
177
   256
178
   255
  0
DIMSTYLE
  2
AM_ANSI$7
 70
     0
  3

  4
mm
  5

  6

  7

 40
1.0
 41
0.12
 42
0.05
 43
0.5
 44
0.1
 45
0.0
 46
0.0
 47
0.1
 48
0.1
140
0.12
141
0.0
142
0.0
143
25.3999999999999986
144
1.0
145
0.0
146
0.71
147
0.06
 71
     0
 72
     0
 73
     1
 74
     1
 75
     0
 76
     0
 77
     0
 78
     7
170
     0
171
     2
172
     0
173
     0
174
     0
175
     0
176
   256
177
   256
178
   255
  0
DIMSTYLE
  2
AM_ANSI$SF
 70
     0
  3

  4
mm
  5

  6

  7

 40
1.0
 41
0.12
 42
0.05
 43
0.5
 44
0.1
 45
0.0
 46
0.0
 47
0.1
 48
0.1
140
0.12
141
0.0
142
0.0
143
25.3999999999999986
144
1.0
145
0.0
146
0.71
147
0.06
 71
     0
 72
     0
 73
     1
 74
     1
 75
     1
 76
     1
 77
     0
 78
     7
170
     0
171
     2
172
     0
173
     0
174
     0
175
     0
176
   256
177
   256
178
   255
  0
DIMSTYLE
  2
AM_ANSI$SH
 70
     0
  3

  4
mm
  5

  6
GENAXEH
  7

 40
1.0
 41
0.12
 42
0.05
 43
0.5
 44
0.1
 45
0.0
 46
0.0
 47
0.1
 48
0.1
140
0.12
141
0.0
142
0.0
143
25.3999999999999986
144
1.0
145
0.0
146
0.71
147
0.06
 71
     0
 72
     0
 73
     1
 74
     1
 75
     1
 76
     1
 77
     0
 78
     7
170
     0
171
     2
172
     0
173
     1
174
     0
175
     0
176
   256
177
   256
178
   255
  0
DIMSTYLE
  2
AM_ANSI$0
 70
     0
  3

  4
"
  5

  6

  7

 40
1.0
 41
3.5
 42
1.0
 43
10.0
 44
1.0
 45
0.0
 46
0.0
 47
0.1
 48
0.1
140
3.5
141
0.0
142
0.0
143
0.0393701
144
1.0
145
0.0
146
0.71
147
1.5
 71
     0
 72
     0
 73
     1
 74
     1
 75
     0
 76
     0
 77
     0
 78
     8
170
     0
171
     2
172
     0
173
     0
174
     0
175
     0
176
   256
177
   256
178
     2
  0
ENDTAB
  0
ENDSEC
  0
SECTION
  2
BLOCKS
  0
BLOCK
  8
0
  2
$MODEL_SPACE
 70
     0
 10
0.0
 20
0.0
 30
0.0
  3
$MODEL_SPACE
  1

  0
ENDBLK
  5
38
  8
0
  0
BLOCK
 67
     1
  8
0
  2
$PAPER_SPACE
 70
     2
 10
0.0
 20
0.0
 30
0.0
  3
$PAPER_SPACE
  1

  0
ENDBLK
  5
36
 67
     1
  8
0
  0
BLOCK
  8
0
  2
GENAXEH
 70
     0
 10
0.0
 20
0.0
 30
0.0
  3
GENAXEH
  1

  0
LINE
  5
1721
  8
0
 10
-1.0
 20
0.0
 30
0.0
 11
1.0
 21
0.0
 31
0.0
  0
ENDBLK
  5
1723
  8
0
  0
BLOCK
  8
0
  2
_ACMFILLEDHALF
 70
     0
 10
0.0
 20
0.0
 30
0.0
  3
_ACMFILLEDHALF
  1

  0
TRACE
  5
1731
  8
DEFPOINTS
 62
     0
 10
-0.8
 20
0.0
 30
0.0
 11
-1.0
 21
0.166666666
 31
0.0
 12
0.0
 22
0.0
 32
0.0
 13
0.0
 23
0.0
 33
0.0
  0
LINE
  5
1732
  8
DEFPOINTS
 62
     0
 10
-1.0
 20
0.0
 30
0.0
 11
-0.8
 21
0.0
 31
0.0
  0
ENDBLK
  5
1730
  8
0
  0
BLOCK
  8
0
  2
*S2
 70
     1
 10
0.0
 20
0.0
 30
0.0
  3
*S2
  1

  0
ENDBLK
  5
2101
  8
0
  0
BLOCK
  8
0
  2
*U3
 70
     1
 10
0.0
 20
0.0
 30
0.0
  3
*U3
  1

  0
ENDBLK
  5
3EBB
  8
0
  0
BLOCK
  8
0
  2
A$CB5B64D2D
 70
     0
 10
0.0
 20
0.0
 30
0.0
  3
A$CB5B64D2D
  1

  0
LINE
  5
94A4
  8
0
  6
CONTINUOUS
 62
     3
 10
-49.9999999999999929
 20
0.0
 30
0.0
 11
50.0
 21
0.0
 31
0.0
210
0.0
220
1.0
230
-0.0000000000000002
  0
LINE
  5
94A5
  8
0
  6
CONTINUOUS
 62
     3
 10
51.0000000000000071
 20
8.0000000000000018
 30
-0.0000000000000018
 11
-51.0000000000000071
 21
8.0000000000000018
 31
-0.0000000000000018
210
0.0
220
1.0
230
-0.0000000000000002
  0
LINE
  5
94A6
  8
0
  6
CONTINUOUS
 62
     3
 10
58.5925913220252568
 20
125.0
 30
-0.0000000000000278
 11
-58.5925913220252426
 21
125.0
 31
-0.0000000000000278
210
0.0
220
1.0
230
-0.0000000000000002
  0
LINE
  5
94A7
  8
0
  6
CONTINUOUS
 62
     3
 10
-50.0
 20
-0.0000000000000018
 30
0.0
 11
-51.0000000000000071
 21
8.0000000000000018
 31
-0.0000000000000018
210
0.0
220
1.0
230
-0.0000000000000002
  0
LINE
  5
94A8
  8
0
  6
CONTINUOUS
 62
     3
 10
50.0
 20
-0.0000000000000018
 30
0.0
 11
51.0000000000000071
 21
8.0000000000000018
 31
-0.0000000000000018
210
0.0
220
1.0
230
-0.0000000000000002
  0
ARC
  5
94A9
  8
0
  6
CONTINUOUS
 62
     3
 10
-37.0000000000000924
 20
112.4000000000000057
 30
0.0
 40
24.9999999999999005
210
0.0
220
-0.0000000000000002
230
-1.0
 50
149.7350073890017939
 51
180.0
  0
ARC
  5
94AA
  8
0
  6
CONTINUOUS
 62
     3
 10
37.0000000000000924
 20
112.4000000000000057
 30
0.0
 40
24.9999999999998899
210
0.0
220
-0.0000000000000002
230
-1.0
 50
360.0
 51
30.2649926109981386
  0
LINE
  5
94AB
  8
0
  6
CONTINUOUS
 62
     3
 10
-51.0
 20
8.0000000000000018
 30
-0.0000000000000018
 11
-51.0
 21
69.0179936244885539
 31
-0.0000000000000153
210
0.0
220
1.0
230
-0.0000000000000002
  0
LINE
  5
94AC
  8
0
  6
CONTINUOUS
 62
     3
 10
51.0
 20
8.0000000000000018
 30
-0.0000000000000018
 11
51.0
 21
69.0179936244885539
 31
-0.0000000000000153
210
0.0
220
1.0
230
-0.0000000000000002
  0
ARC
  5
94AD
  8
0
  6
CONTINUOUS
 62
     3
 10
-64.832819833403704
 20
69.0179936244885681
 30
0.0
 40
13.8328198334037005
210
0.0
220
-0.0000000000000002
230
-1.0
 50
0.0
 51
32.7887115741222175
  0
ARC
  5
94AE
  8
0
  6
CONTINUOUS
 62
     3
 10
64.8328198334037751
 20
69.0179936244885539
 30
0.0
 40
13.8328198334037804
210
0.0
220
-0.0000000000000002
230
-1.0
 50
147.2112884258777967
 51
180.0
  0
LINE
  5
94AF
  8
0
  6
CONTINUOUS
 62
     3
 10
-53.2039373332351317
 20
76.5090547202666329
 30
-0.000000000000017
 11
-58.189587037295702
 21
84.2486170939065033
 31
-0.0000000000000187
210
0.0
220
1.0
230
-0.0000000000000002
  0
LINE
  5
94B0
  8
0
  6
CONTINUOUS
 62
     3
 10
53.2039373332351317
 20
76.5090547202666329
 30
-0.000000000000017
 11
58.189587037295702
 21
84.2486170939065033
 31
-0.0000000000000187
210
0.0
220
1.0
230
-0.0000000000000002
  0
ARC
  5
94B1
  8
0
  6
CONTINUOUS
 62
     3
 10
-38.0842764405716281
 20
97.2000000000000455
 30
0.0
 40
23.9157235594283684
210
0.0
220
-0.0000000000000002
230
-1.0
 50
180.0
 51
212.7887115741220043
  0
ARC
  5
94B2
  8
0
  6
CONTINUOUS
 62
     3
 10
38.0842764405718128
 20
97.1999999999999744
 30
0.0
 40
23.9157235594282014
210
0.0
220
-0.0000000000000002
230
-1.0
 50
327.2112884258777967
 51
0.00000000000007
  0
LINE
  5
94B3
  8
0
  6
CONTINUOUS
 62
     3
 10
-61.9999999999999929
 20
97.2000000000000171
 30
-0.0000000000000216
 11
-61.9999999999999929
 21
112.4000000000000057
 31
-0.000000000000025
210
0.0
220
1.0
230
-0.0000000000000002
  0
LINE
  5
94B4
  8
0
  6
CONTINUOUS
 62
     3
 10
61.9999999999999929
 20
97.2000000000000171
 30
-0.0000000000000216
 11
61.9999999999999929
 21
112.4000000000000057
 31
-0.000000000000025
210
0.0
220
1.0
230
-0.0000000000000002
  0
LINE
  5
94B5
  8
0
  6
VERDECKT
 62
     1
 10
-48.015444246572649
 20
0.248069469178418
 30
-0.0000000000000001
 11
48.0154442465726632
 21
0.248069469178418
 31
-0.0000000000000001
210
0.0
220
1.0
230
-0.0000000000000002
  0
LINE
  5
94B6
  8
0
  6
VERDECKT
 62
     1
 10
56.8651840162632212
 20
123.9920000000000044
 30
-0.0000000000000275
 11
-56.8651840162632212
 21
123.9920000000000044
 31
-0.0000000000000275
210
0.0
220
1.0
230
-0.0000000000000002
  0
LINE
  5
94B7
  8
0
  6
VERDECKT
 62
     1
 10
48.0154442465726632
 20
0.2480694691784177
 30
-0.0000000000000001
 11
50.0
 21
-0.0000000000000006
 31
0.0
210
0.0
220
1.0
230
-0.0000000000000002
  0
LINE
  5
94B8
  8
0
  6
VERDECKT
 62
     1
 10
-48.0154442465726632
 20
0.2480694691784177
 30
-0.0000000000000001
 11
-50.0
 21
-0.0000000000000006
 31
0.0
210
0.0
220
1.0
230
-0.0000000000000002
  0
LINE
  5
94B9
  8
0
  6
VERDECKT
 62
     1
 10
-48.0154442465726632
 20
0.2480694691784189
 30
-0.0000000000000001
 11
-48.9844355629253627
 21
8.0000000000000018
 31
-0.0000000000000018
210
0.0
220
1.0
230
-0.0000000000000002
  0
LINE
  5
94BA
  8
0
  6
VERDECKT
 62
     1
 10
48.0154442465726632
 20
0.2480694691784189
 30
-0.0000000000000001
 11
48.9844355629253627
 21
8.0000000000000018
 31
-0.0000000000000018
210
0.0
220
1.0
230
-0.0000000000000002
  0
LINE
  5
94BB
  8
0
  6
VERDECKT
 62
     1
 10
-56.8651840162632212
 20
123.9920000000000044
 30
-0.0000000000000275
 11
-58.5925913220252497
 21
125.0
 31
-0.0000000000000278
210
0.0
220
1.0
230
-0.0000000000000002
  0
LINE
  5
94BC
  8
0
  6
VERDECKT
 62
     1
 10
56.8651840162632212
 20
123.9920000000000044
 30
-0.0000000000000275
 11
58.5925913220252497
 21
125.0
 31
-0.0000000000000278
210
0.0
220
1.0
230
-0.0000000000000002
  0
ARC
  5
94BD
  8
0
  6
VERDECKT
 62
     1
 10
-37.0000000000000568
 20
112.4000000000000057
 30
0.0
 40
22.9999999999999183
210
0.0
220
-0.0000000000000002
230
-1.0
 50
149.7350073890019075
 51
180.0
  0
ARC
  5
94BE
  8
0
  6
VERDECKT
 62
     1
 10
37.0000000000000568
 20
112.4000000000000057
 30
0.0
 40
22.9999999999999183
210
0.0
220
-0.0000000000000002
230
-1.0
 50
360.0
 51
30.2649926109980996
  0
LINE
  5
94BF
  8
0
  6
VERDECKT
 62
     1
 10
-59.9999999999999929
 20
97.2000000000000171
 30
-0.0000000000000216
 11
-59.9999999999999929
 21
112.4000000000000057
 31
-0.000000000000025
210
0.0
220
1.0
230
-0.0000000000000002
  0
LINE
  5
94C0
  8
0
  6
VERDECKT
 62
     1
 10
59.9999999999999929
 20
97.2000000000000171
 30
-0.0000000000000216
 11
59.9999999999999929
 21
112.4000000000000057
 31
-0.000000000000025
210
0.0
220
1.0
230
-0.0000000000000002
  0
ARC
  5
94C1
  8
0
  6
VERDECKT
 62
     1
 10
-38.0842764405716423
 20
97.2000000000000171
 30
0.0
 40
21.9157235594283399
210
0.0
220
-0.0000000000000002
230
-1.0
 50
180.0
 51
212.7887115741220896
  0
ARC
  5
94C2
  8
0
  6
VERDECKT
 62
     1
 10
38.0842764405715997
 20
97.2000000000000455
 30
0.0
 40
21.9157235594283897
210
0.0
220
-0.0000000000000002
230
-1.0
 50
327.2112884258780241
 51
0.0
  0
LINE
  5
94C3
  8
0
  6
VERDECKT
 62
     1
 10
-51.5225907039546485
 20
77.5921399026079115
 30
-0.0000000000000172
 11
-56.5082404080152472
 21
85.3317022762477535
 31
-0.0000000000000189
210
0.0
220
1.0
230
-0.0000000000000002
  0
LINE
  5
94C4
  8
0
  6
VERDECKT
 62
     1
 10
51.5225907039546485
 20
77.5921399026079115
 30
-0.0000000000000172
 11
56.5082404080152614
 21
85.3317022762477677
 31
-0.0000000000000189
210
0.0
220
1.0
230
-0.0000000000000002
  0
ARC
  5
94C5
  8
0
  6
VERDECKT
 62
     1
 10
-64.8328198334036756
 20
69.0179936244885823
 30
0.0
 40
15.8328198334036703
210
0.0
220
-0.0000000000000002
230
-1.0
 50
359.9999999999998863
 51
32.7887115741222175
  0
ARC
  5
94C6
  8
0
  6
VERDECKT
 62
     1
 10
64.8328198334038461
 20
69.0179936244885397
 30
0.0
 40
15.8328198334038408
210
0.0
220
-0.0000000000000002
230
-1.0
 50
147.2112884258779957
 51
180.0
  0
LINE
  5
94C7
  8
0
  6
VERDECKT
 62
     1
 10
-49.0
 20
8.0000000000000018
 30
-0.0000000000000018
 11
-49.0
 21
69.0179936244885539
 31
-0.0000000000000153
210
0.0
220
1.0
230
-0.0000000000000002
  0
LINE
  5
94C8
  8
0
  6
VERDECKT
 62
     1
 10
49.0
 20
8.0000000000000018
 30
-0.0000000000000018
 11
49.0
 21
69.0179936244885539
 31
-0.0000000000000153
210
0.0
220
1.0
230
-0.0000000000000002
  0
ENDBLK
  5
94CA
  8
0
  0
BLOCK
  8
0
  2
A$C1D2BE317
 70
     0
 10
0.0
 20
0.0
 30
0.0
  3
A$C1D2BE317
  1

  0
CIRCLE
  5
94CE
  8
0
  6
CONTINUOUS
 62
     3
 10
0.0000000000000018
 20
0.0
 30
0.0
 40
48.9844355629253698
  0
CIRCLE
  5
94CF
  8
0
  6
CONTINUOUS
 62
     3
 10
0.0000000000000001
 20
-0.0000000000000005
 30
0.0
 40
48.0154442465726632
  0
CIRCLE
  5
94D0
  8
0
  6
CONTINUOUS
 62
     3
 10
0.0000000000000279
 20
0.0000000000000072
 30
0.0
 40
58.5925913220252426
  0
CIRCLE
  5
94D1
  8
0
  6
CONTINUOUS
 62
     3
 10
0.0000000000000251
 20
0.0000000000000064
 30
0.0
 40
61.9999999999999929
  0
CIRCLE
  5
94D2
  8
0
  6
CONTINUOUS
 62
     3
 10
0.0000000000000277
 20
0.0000000000000071
 30
0.0
 40
56.8651840162632212
  0
CIRCLE
  5
94D3
  8
0
  6
CONTINUOUS
 62
     3
 10
0.0000000000000154
 20
0.0000000000000037
 30
0.0
 40
49.0
  0
CIRCLE
  5
94D4
  8
0
  6
VERDECKT
 62
     1
 10
0.0
 20
-0.0000000000000005
 30
0.0
 40
50.0
  0
CIRCLE
  5
94D5
  8
0
  6
VERDECKT
 62
     1
 10
0.0000000000000251
 20
0.0000000000000064
 30
0.0
 40
59.9999999999999929
  0
CIRCLE
  5
94D6
  8
0
  6
VERDECKT
 62
     1
 10
0.0000000000000154
 20
0.0000000000000037
 30
0.0
 40
51.0
  0
ENDBLK
  5
94D8
  8
0
  0
ENDSEC
  0
SECTION
  2
ENTITIES
  0
TEXT
  5
69BF
  8
VOLL
 10
78.076754716981128
 20
31.025947764705851
 30
0.0
 40
1.8
  1

  7
GREEKS
  0
INSERT
  5
69C0
  8
ADSK_ASSOC_ENTITY_BACKUPS
  2
*S2
 10
0.0
 20
0.0
 30
0.0
  0
INSERT
  5
94CB
  8
0
  2
A$CB5B64D2D
 10
-2.9969354929452399
 20
0.0
 30
-0.0000000000000142
  0
INSERT
  5
94D9
  8
0
  2
A$C1D2BE317
 10
-2.9969354929452399
 20
-80.0
 30
-0.0000000000000142
  0
VIEWPORT
  5
1571
 67
     1
  8
0
 10
104.7950820922850994
 20
148.2447509765625
 30
0.0
 40
567.3581314878892954
 41
298.5415224913494967
 68
     1
 69
     1
1001
ACAD
1000
MVIEW
1002
{
1070
    16
1010
0.0
1020
0.0
1030
0.0
1010
0.0
1020
0.0
1030
1.0
1040
0.0
1040
298.5415224913494967
1040
104.7950820922850994
1040
148.2447509765625
1040
50.0
1040
0.0
1040
0.0
1070
     0
1070
  1500
1070
     1
1070
     1
1070
     0
1070
     0
1070
     0
1070
     0
1040
0.0
1040
0.0
1040
0.0
1040
10.0
1040
10.0
1040
10.0
1040
10.0
1070
     0
1002
{
1002
}
1002
}
1001
GENIUS_GENOBJ-N-SDF_13
1002
{
1000
OWNER
1000
GEN
1002
}
1001
GENIUS_GENODEF_13
1002
{
1000
HIER
1070
     0
1002
}
1002
{
1000
MANEDIT
1070
     0
1002
}
1002
{
1000
NOSEL
1070
     0
1002
}
1002
{
1000
BEHIND
1070
     0
1002
}
1002
{
1000
OTHER
1070
     0
1002
}
1002
{
1000
REACTOR
1002
}
1001
GENIUS_GENSCREG_15
1000
PF
1040
1.0
1000
DF
1040
1.0
1000
MIN
1011
-98.3237311841076007
1021
0.0
1031
0.0
1021
-84.5929851452383446
1031
0.0
1000
MAX
1011
756.7695330154733711
1021
0.0
1031
0.0
1021
339.8977580961391141
1031
0.0
1000
FLAGS
1070
     4
  0
ENDSEC
  0
EOF
