  0
SECTION
  2
HEADER
  9
$ACADVER
  1
AC1009
  9
$INSBASE
 10
0.0
 20
0.0
 30
0.0
  9
$EXTMIN
 10
185.7490539550780966
 20
47.5363922119140625
 30
413.3555297851561932
  9
$EXTMAX
 10
921.87628173828125
 20
437.5167541503905113
 30
413.3555297851561932
  9
$LIMMIN
 10
0.0
 20
0.0
  9
$LIMMAX
 10
419.9999999999998863
 20
594.0
  9
$ORTHOMODE
 70
     1
  9
$REGENMODE
 70
     1
  9
$FILLMODE
 70
     1
  9
$QTEXTMODE
 70
     0
  9
$MIRRTEXT
 70
     1
  9
$DRAGMODE
 70
     2
  9
$LTSCALE
 40
20.0
  9
$OSMODE
 70
  3583
  9
$ATTMODE
 70
     1
  9
$TEXTSIZE
 40
3.5
  9
$TRACEWID
 40
0.5
  9
$TEXTSTYLE
  7
STANDARD
  9
$CLAYER
  8
STEMPEL
  9
$CELTYPE
  6
BYLAYER
  9
$CECOLOR
 62
   256
  9
$DIMSCALE
 40
1.0
  9
$DIMASZ
 40
3.5
  9
$DIMEXO
 40
1.0
  9
$DIMDLI
 40
0.38
  9
$DIMRND
 40
0.0
  9
$DIMDLE
 40
0.0
  9
$DIMEXE
 40
1.0
  9
$DIMTP
 40
0.0
  9
$DIMTM
 40
0.000000001
  9
$DIMTXT
 40
3.5
  9
$DIMCEN
 40
0.09
  9
$DIMTSZ
 40
0.0
  9
$DIMTOL
 70
     0
  9
$DIMLIM
 70
     0
  9
$DIMTIH
 70
     0
  9
$DIMTOH
 70
     0
  9
$DIMSE1
 70
     0
  9
$DIMSE2
 70
     0
  9
$DIMTAD
 70
     1
  9
$DIMZIN
 70
     8
  9
$DIMBLK
  1

  9
$DIMASO
 70
     1
  9
$DIMSHO
 70
     0
  9
$DIMPOST
  1

  9
$DIMAPOST
  1

  9
$DIMALT
 70
     0
  9
$DIMALTD
 70
     2
  9
$DIMALTF
 40
25.3999999999999986
  9
$DIMLFAC
 40
5.0
  9
$DIMTOFL
 70
     1
  9
$DIMTVP
 40
0.0
  9
$DIMTIX
 70
     0
  9
$DIMSOXD
 70
     0
  9
$DIMSAH
 70
     0
  9
$DIMBLK1
  1

  9
$DIMBLK2
  1

  9
$DIMSTYLE
  2
LORO
  9
$DIMCLRD
 70
     0
  9
$DIMCLRE
 70
     0
  9
$DIMCLRT
 70
     1
  9
$DIMTFAC
 40
0.5
  9
$DIMGAP
 40
1.5
  9
$LUNITS
 70
     2
  9
$LUPREC
 70
     2
  9
$SKETCHINC
 40
1.0
  9
$FILLETRAD
 40
0.0
  9
$AUNITS
 70
     0
  9
$AUPREC
 70
     0
  9
$MENU
  1
ACAD
  9
$ELEVATION
 40
0.0
  9
$PELEVATION
 40
0.0
  9
$THICKNESS
 40
0.0
  9
$LIMCHECK
 70
     0
  9
$BLIPMODE
 70
     0
  9
$CHAMFERA
 40
2.0
  9
$CHAMFERB
 40
2.0
  9
$SKPOLY
 70
     0
  9
$TDCREATE
 40
2455397.8646990740671754
  9
$TDUPDATE
 40
2460927.4544560192152858
  9
$TDINDWG
 40
2.2687425230999998
  9
$TDUSRTIMER
 40
2.2687425230999998
  9
$USRTIMER
 70
     1
  9
$ANGBASE
 50
0.0
  9
$ANGDIR
 70
     0
  9
$PDMODE
 70
     0
  9
$PDSIZE
 40
0.0
  9
$PLINEWID
 40
0.0
  9
$COORDS
 70
     1
  9
$SPLFRAME
 70
     0
  9
$SPLINETYPE
 70
     6
  9
$SPLINESEGS
 70
     8
  9
$ATTDIA
 70
     1
  9
$ATTREQ
 70
     1
  9
$HANDLING
 70
     1
  9
$HANDSEED
  5
23F69
  9
$SURFTAB1
 70
     6
  9
$SURFTAB2
 70
     6
  9
$SURFTYPE
 70
     6
  9
$SURFU
 70
     6
  9
$SURFV
 70
     6
  9
$UCSNAME
  2

  9
$UCSORG
 10
0.0
 20
0.0
 30
0.0
  9
$UCSXDIR
 10
1.0
 20
0.0
 30
0.0
  9
$UCSYDIR
 10
0.0
 20
1.0
 30
0.0
  9
$PUCSNAME
  2

  9
$PUCSORG
 10
0.0
 20
0.0
 30
0.0
  9
$PUCSXDIR
 10
1.0
 20
0.0
 30
0.0
  9
$PUCSYDIR
 10
0.0
 20
1.0
 30
0.0
  9
$USERI1
 70
     0
  9
$USERI2
 70
     0
  9
$USERI3
 70
     0
  9
$USERI4
 70
     0
  9
$USERI5
 70
     0
  9
$USERR1
 40
0.0
  9
$USERR2
 40
0.0
  9
$USERR3
 40
0.0
  9
$USERR4
 40
0.0
  9
$USERR5
 40
0.0
  9
$WORLDVIEW
 70
     1
  9
$SHADEDGE
 70
     3
  9
$SHADEDIF
 70
    70
  9
$TILEMODE
 70
     1
  9
$MAXACTVP
 70
    16
  9
$PLIMCHECK
 70
     0
  9
$PEXTMIN
 10
1.0000000000000000E+20
 20
1.0000000000000000E+20
 30
1.0000000000000000E+20
  9
$PEXTMAX
 10
-1.0000000000000000E+20
 20
-1.0000000000000000E+20
 30
-1.0000000000000000E+20
  9
$PLIMMIN
 10
-296.75
 20
-296.7447509765625
  9
$PLIMMAX
 10
123.25
 20
0.2552490234375
  9
$UNITMODE
 70
     0
  9
$VISRETAIN
 70
     0
  9
$PLINEGEN
 70
     0
  9
$PSLTSCALE
 70
     0
  0
ENDSEC
  0
SECTION
  2
TABLES
  0
TABLE
  2
VPORT
 70
     1
  0
VPORT
  2
*ACTIVE
 70
     0
 10
0.0
 20
0.0
 11
1.0
 21
1.0
 12
0.0
 22
0.0
 13
0.0
 23
0.0
 14
1.0
 24
1.0
 15
10.0
 25
10.0
 16
-0.0000000000006821
 26
0.0
 36
1603.4656936758349275
 17
567.4220097456632175
 27
222.5570927503821963
 37
413.3555297851561932
 40
627.2071703425740452
 41
1.9004329004328999
 42
49.9999999999997513
 43
0.0
 44
0.0
 50
0.0
 51
0.0
 71
     0
 72
  1500
 73
     1
 74
     0
 75
     0
 76
     0
 77
     0
 78
     0
  0
ENDTAB
  0
TABLE
  2
LTYPE
 70
     3
  0
LTYPE
  2
CONTINUOUS
 70
     0
  3
Solid line
 72
    65
 73
     0
 40
0.0
  0
LTYPE
  2
STRICHPUNKT
 70
     0
  3
__ . __ . __ . __ . __ . __ . __ . __ . __ . __
 72
    65
 73
     4
 40
1.0
 49
0.5
 49
-0.25
 49
0.0
 49
-0.25
  0
LTYPE
  2
VERDECKT
 70
     0
  3
Verdeckt __ __ __ __ __ __ __ __ __ __ __ __ __
 72
    65
 73
     2
 40
0.375
 49
0.25
 49
-0.125
  0
ENDTAB
  0
TABLE
  2
LAYER
 70
     6
  0
LAYER
  2
0
 70
     0
 62
     7
  6
CONTINUOUS
  0
LAYER
  2
VOLL
 70
     0
 62
     1
  6
CONTINUOUS
  0
LAYER
  2
STEMPEL
 70
     0
 62
     3
  6
CONTINUOUS
  0
LAYER
  2
DEFPOINTS
 70
     0
 62
     7
  6
CONTINUOUS
  0
LAYER
  2
ADSK_ASSOC_ENTITY_BACKUPS
 70
     1
 62
    -7
  6
CONTINUOUS
  0
LAYER
  2
MATERIAL__VERZINKT_
 70
     0
 62
   254
  6
CONTINUOUS
  0
ENDTAB
  0
TABLE
  2
STYLE
 70
     3
  0
STYLE
  2
STANDARD
 70
     0
 40
0.0
 41
0.8
 50
0.0
 71
     0
 42
3.5
  3
simplex.shx
  4

  0
STYLE
  2
GREEKS
 70
     0
 40
0.0
 41
0.8
 50
0.0
 71
     0
 42
2.5
  3
SIMPLEX.shx
  4

  0
STYLE
  2

 70
     1
 40
0.0
 41
1.0
 50
0.0
 71
     0
 42
2.5
  3
ltypeshp.shx
  4

  0
ENDTAB
  0
TABLE
  2
VIEW
 70
     0
  0
ENDTAB
  0
TABLE
  2
UCS
 70
     0
  0
ENDTAB
  0
TABLE
  2
APPID
 70
    30
  0
APPID
  2
ACAD
 70
     0
  0
APPID
  2
ACAD_NAV_VCDISPLAY
 70
     0
  0
APPID
  2
ACAD_MLEADERVER
 70
     0
  0
APPID
  2
ACAD_EXEMPT_FROM_CAD_STANDARDS
 70
     0
  0
APPID
  2
ACAD_PSEXT
 70
     0
  0
APPID
  2
ACAECLAYERSTANDARD
 70
     0
  0
APPID
  2
ACAD_DSTYLE_DIMJAG
 70
     0
  0
APPID
  2
ACAD_DSTYLE_DIMTALN
 70
     0
  0
APPID
  2
ACCMTRANSPARENCY
 70
     0
  0
APPID
  2
ACADANNOMONITORALERTICONDI
 70
     0
  0
APPID
  2
ACAD_DSTYLE_DIMRADIAL_EXTENSION
 70
     0
  0
APPID
  2
GRADIENTCOLOR1ACI
 70
     0
  0
APPID
  2
GRADIENTCOLOR2ACI
 70
     0
  0
APPID
  2
ACAD_OBJECT_CHANGE_GUID
 70
     0
  0
APPID
  2
ACSYNERGY
 70
     0
  0
APPID
  2
SYNERGY_BODY_TBR_ID
 70
     0
  0
APPID
  2
ACAD_VIEW_EDGE_ID
 70
     0
  0
APPID
  2
ACAD_DIMASSOC_CALC_DIMLFAC
 70
     0
  0
APPID
  2
ACAD_DIMASSOC_DIMLFAC
 70
     0
  0
APPID
  2
ACAD_DIMASSOC_OVERRIDDEN_D
 70
     0
  0
APPID
  2
ACSYNERGYSKETCH
 70
     0
  0
APPID
  2
ACAD_MODELDOC_XFORM
 70
     0
  0
APPID
  2
ACDBDYNAMICBLOCKGUID
 70
     0
  0
APPID
  2
ACAD_DSTYLE_DIMBREAK
 70
     0
  0
APPID
  2
ACADANNOPO
 70
     0
  0
APPID
  2
ACAD_STEPID
 70
     0
  0
APPID
  2
SYNERGY_EXCLUDED_FROM_SNAPSHOT
 70
     0
  0
APPID
  2
ACAD_TC
 70
     0
  0
APPID
  2
ACADANNOTATIVE
 70
     0
  0
APPID
  2
PLOTTRANSPARENCY
 70
     0
  0
ENDTAB
  0
TABLE
  2
DIMSTYLE
 70
     2
  0
DIMSTYLE
  2
LORO
 70
     0
  3

  4

  5

  6

  7

 40
1.0
 41
3.5
 42
1.0
 43
0.38
 44
1.0
 45
0.0
 46
0.0
 47
0.0
 48
0.000000001
140
3.5
141
0.09
142
0.0
143
25.3999999999999986
144
1.0
145
0.0
146
0.5
147
1.5
 71
     0
 72
     0
 73
     0
 74
     0
 75
     0
 76
     0
 77
     1
 78
     8
170
     0
171
     2
172
     1
173
     0
174
     0
175
     0
176
     0
177
     0
178
     1
  0
DIMSTYLE
  2
STANDARD
 70
     0
  3

  4

  5

  6

  7

 40
1.0
 41
0.18
 42
0.0625
 43
0.38
 44
0.18
 45
0.0
 46
0.0
 47
0.0
 48
0.0
140
0.18
141
0.09
142
0.0
143
25.3999999999999986
144
1.0
145
0.0
146
1.0
147
0.09
 71
     0
 72
     0
 73
     1
 74
     1
 75
     0
 76
     0
 77
     0
 78
     0
170
     0
171
     2
172
     0
173
     0
174
     0
175
     0
176
     0
177
     0
178
     0
  0
ENDTAB
  0
ENDSEC
  0
SECTION
  2
BLOCKS
  0
BLOCK
  8
0
  2
$MODEL_SPACE
 70
     0
 10
0.0
 20
0.0
 30
0.0
  3
$MODEL_SPACE
  1

  0
ENDBLK
  5
36
  8
0
  0
BLOCK
 67
     1
  8
0
  2
$PAPER_SPACE
 70
     0
 10
0.0
 20
0.0
 30
0.0
  3
$PAPER_SPACE
  1

  0
ENDBLK
  5
34
 67
     1
  8
0
  0
BLOCK
  8
0
  2
*S0
 70
     1
 10
0.0
 20
0.0
 30
0.0
  3
*S0
  1

  0
ENDBLK
  5
18BD
  8
0
  0
BLOCK
  8
0
  2
A$CE31D7583
 70
     0
 10
0.0
 20
0.0
 30
0.0
  3
A$CE31D7583
  1

  0
POLYLINE
  5
231A2
  8
0
  6
CONTINUOUS
 62
     3
 10
-0.0000000000001041
 20
484.090615884841668
 30
-0.0000000000001046
 66
     1
 70
     8
  0
VERTEX
  8
0
  5
23235
 10
-1.04111e-13
 20
484.091
 30
-1.04568e-13
  70
    32
  0
VERTEX
  8
0
  5
23236
 10
-1.61646
 20
484.081
 30
-1.04566e-13
  70
    32
  0
VERTEX
  8
0
  5
23237
 10
-3.23268
 20
484.052
 30
-1.04560e-13
  70
    32
  0
VERTEX
  8
0
  5
23238
 10
-4.84843
 20
484.004
 30
-1.04550e-13
  70
    32
  0
VERTEX
  8
0
  5
23239
 10
-6.46346
 20
483.936
 30
-1.04537e-13
  70
    32
  0
VERTEX
  8
0
  5
2323A
 10
-8.07755
 20
483.849
 30
-1.04520e-13
  70
    32
  0
VERTEX
  8
0
  5
2323B
 10
-9.69044
 20
483.743
 30
-1.04498e-13
  70
    32
  0
VERTEX
  8
0
  5
2323C
 10
-11.3019
 20
483.618
 30
-1.04473e-13
  70
    32
  0
VERTEX
  8
0
  5
2323D
 10
-12.9117
 20
483.473
 30
-1.04444e-13
  70
    32
  0
VERTEX
  8
0
  5
2323E
 10
-14.5196
 20
483.309
 30
-1.04412e-13
  70
    32
  0
VERTEX
  8
0
  5
2323F
 10
-16.1254
 20
483.126
 30
-1.04375e-13
  70
    32
  0
VERTEX
  8
0
  5
23240
 10
-17.7288
 20
482.924
 30
-1.04334e-13
  70
    32
  0
VERTEX
  8
0
  5
23241
 10
-19.3296
 20
482.702
 30
-1.04290e-13
  70
    32
  0
VERTEX
  8
0
  5
23242
 10
-20.9276
 20
482.462
 30
-1.04242e-13
  70
    32
  0
VERTEX
  8
0
  5
23243
 10
-22.5224
 20
482.202
 30
-1.04190e-13
  70
    32
  0
VERTEX
  8
0
  5
23244
 10
-24.1140
 20
481.924
 30
-1.04134e-13
  70
    32
  0
VERTEX
  8
0
  5
23245
 10
-25.7020
 20
481.626
 30
-1.04075e-13
  70
    32
  0
VERTEX
  8
0
  5
23246
 10
-27.2863
 20
481.310
 30
-1.04012e-13
  70
    32
  0
VERTEX
  8
0
  5
23247
 10
-28.8665
 20
480.974
 30
-1.03945e-13
  70
    32
  0
VERTEX
  8
0
  5
23248
 10
-30.4425
 20
480.620
 30
-1.03874e-13
  70
    32
  0
VERTEX
  8
0
  5
23249
 10
-32.0140
 20
480.247
 30
-1.03799e-13
  70
    32
  0
VERTEX
  8
0
  5
2324A
 10
-33.5808
 20
479.855
 30
-1.03721e-13
  70
    32
  0
VERTEX
  8
0
  5
2324B
 10
-35.1426
 20
479.444
 30
-1.03639e-13
  70
    32
  0
VERTEX
  8
0
  5
2324C
 10
-36.6993
 20
479.015
 30
-1.03553e-13
  70
    32
  0
VERTEX
  8
0
  5
2324D
 10
-38.2506
 20
478.567
 30
-1.03463e-13
  70
    32
  0
VERTEX
  8
0
  5
2324E
 10
-39.7963
 20
478.101
 30
-1.03370e-13
  70
    32
  0
VERTEX
  8
0
  5
2324F
 10
-41.3361
 20
477.616
 30
-1.03273e-13
  70
    32
  0
VERTEX
  8
0
  5
23250
 10
-42.8698
 20
477.113
 30
-1.03172e-13
  70
    32
  0
VERTEX
  8
0
  5
23251
 10
-44.3973
 20
476.592
 30
-1.03068e-13
  70
    32
  0
VERTEX
  8
0
  5
23252
 10
-45.9182
 20
476.052
 30
-1.02960e-13
  70
    32
  0
VERTEX
  8
0
  5
23253
 10
-47.4323
 20
475.494
 30
-1.02849e-13
  70
    32
  0
VERTEX
  8
0
  5
23254
 10
-48.9395
 20
474.919
 30
-1.02733e-13
  70
    32
  0
VERTEX
  8
0
  5
23255
 10
-50.4395
 20
474.325
 30
-1.02615e-13
  70
    32
  0
VERTEX
  8
0
  5
23256
 10
-51.9320
 20
473.713
 30
-1.02492e-13
  70
    32
  0
VERTEX
  8
0
  5
23257
 10
-53.4170
 20
473.084
 30
-1.02367e-13
  70
    32
  0
VERTEX
  8
0
  5
23258
 10
-54.8940
 20
472.437
 30
-1.02237e-13
  70
    32
  0
VERTEX
  8
0
  5
23259
 10
-56.3630
 20
471.772
 30
-1.02104e-13
  70
    32
  0
VERTEX
  8
0
  5
2325A
 10
-57.8237
 20
471.090
 30
-1.01968e-13
  70
    32
  0
VERTEX
  8
0
  5
2325B
 10
-59.2759
 20
470.391
 30
-1.01828e-13
  70
    32
  0
VERTEX
  8
0
  5
2325C
 10
-60.7194
 20
469.674
 30
-1.01684e-13
  70
    32
  0
VERTEX
  8
0
  5
2325D
 10
-62.1540
 20
468.940
 30
-1.01538e-13
  70
    32
  0
VERTEX
  8
0
  5
2325E
 10
-63.5794
 20
468.188
 30
-1.01387e-13
  70
    32
  0
VERTEX
  8
0
  5
2325F
 10
-64.9955
 20
467.420
 30
-1.01234e-13
  70
    32
  0
VERTEX
  8
0
  5
23260
 10
-66.4020
 20
466.635
 30
-1.01077e-13
  70
    32
  0
VERTEX
  8
0
  5
23261
 10
-67.7987
 20
465.833
 30
-1.00916e-13
  70
    32
  0
VERTEX
  8
0
  5
23262
 10
-69.1855
 20
465.015
 30
-1.00753e-13
  70
    32
  0
VERTEX
  8
0
  5
23263
 10
-70.5621
 20
464.180
 30
-1.00586e-13
  70
    32
  0
VERTEX
  8
0
  5
23264
 10
-71.9283
 20
463.329
 30
-1.00416e-13
  70
    32
  0
VERTEX
  8
0
  5
23265
 10
-73.2840
 20
462.461
 30
-1.00242e-13
  70
    32
  0
VERTEX
  8
0
  5
23266
 10
-74.6288
 20
461.578
 30
-1.00065e-13
  70
    32
  0
VERTEX
  8
0
  5
23267
 10
-75.9627
 20
460.678
 30
-9.98853e-14
  70
    32
  0
VERTEX
  8
0
  5
23268
 10
-77.2855
 20
459.763
 30
-9.97022e-14
  70
    32
  0
VERTEX
  8
0
  5
23269
 10
-78.5968
 20
458.831
 30
-9.95160e-14
  70
    32
  0
VERTEX
  8
0
  5
2326A
 10
-79.8966
 20
457.884
 30
-9.93266e-14
  70
    32
  0
VERTEX
  8
0
  5
2326B
 10
-81.1847
 20
456.922
 30
-9.91341e-14
  70
    32
  0
VERTEX
  8
0
  5
2326C
 10
-82.4608
 20
455.944
 30
-9.89386e-14
  70
    32
  0
VERTEX
  8
0
  5
2326D
 10
-83.7248
 20
454.951
 30
-9.87400e-14
  70
    32
  0
VERTEX
  8
0
  5
2326E
 10
-84.9764
 20
453.944
 30
-9.85384e-14
  70
    32
  0
VERTEX
  8
0
  5
2326F
 10
-86.2156
 20
452.921
 30
-9.83339e-14
  70
    32
  0
VERTEX
  8
0
  5
23270
 10
-87.4421
 20
451.883
 30
-9.81264e-14
  70
    32
  0
VERTEX
  8
0
  5
23271
 10
-88.6558
 20
450.831
 30
-9.79160e-14
  70
    32
  0
VERTEX
  8
0
  5
23272
 10
-89.8564
 20
449.765
 30
-9.77027e-14
  70
    32
  0
VERTEX
  8
0
  5
23273
 10
-91.0437
 20
448.684
 30
-9.74865e-14
  70
    32
  0
VERTEX
  8
0
  5
23274
 10
-92.2177
 20
447.589
 30
-9.72676e-14
  70
    32
  0
VERTEX
  8
0
  5
23275
 10
-93.3782
 20
446.480
 30
-9.70458e-14
  70
    32
  0
VERTEX
  8
0
  5
23276
 10
-94.5249
 20
445.358
 30
-9.68213e-14
  70
    32
  0
VERTEX
  8
0
  5
23277
 10
-95.6577
 20
444.222
 30
-9.65941e-14
  70
    32
  0
VERTEX
  8
0
  5
23278
 10
-96.7764
 20
443.072
 30
-9.63641e-14
  70
    32
  0
VERTEX
  8
0
  5
23279
 10
-97.8809
 20
441.909
 30
-9.61315e-14
  70
    32
  0
VERTEX
  8
0
  5
2327A
 10
-98.9711
 20
440.733
 30
-9.58963e-14
  70
    32
  0
VERTEX
  8
0
  5
2327B
 10
-100.047
 20
439.544
 30
-9.56585e-14
  70
    32
  0
VERTEX
  8
0
  5
2327C
 10
-101.107
 20
438.342
 30
-9.54182e-14
  70
    32
  0
VERTEX
  8
0
  5
2327D
 10
-102.153
 20
437.128
 30
-9.51753e-14
  70
    32
  0
VERTEX
  8
0
  5
2327E
 10
-103.184
 20
435.901
 30
-9.49300e-14
  70
    32
  0
VERTEX
  8
0
  5
2327F
 10
-104.200
 20
434.662
 30
-9.46822e-14
  70
    32
  0
VERTEX
  8
0
  5
23280
 10
-105.201
 20
433.411
 30
-9.44320e-14
  70
    32
  0
VERTEX
  8
0
  5
23281
 10
-106.186
 20
432.148
 30
-9.41794e-14
  70
    32
  0
VERTEX
  8
0
  5
23282
 10
-107.155
 20
430.874
 30
-9.39245e-14
  70
    32
  0
VERTEX
  8
0
  5
23283
 10
-108.109
 20
429.588
 30
-9.36673e-14
  70
    32
  0
VERTEX
  8
0
  5
23284
 10
-109.046
 20
428.290
 30
-9.34078e-14
  70
    32
  0
VERTEX
  8
0
  5
23285
 10
-109.968
 20
426.982
 30
-9.31461e-14
  70
    32
  0
VERTEX
  8
0
  5
23286
 10
-110.874
 20
425.663
 30
-9.28822e-14
  70
    32
  0
VERTEX
  8
0
  5
23287
 10
-111.763
 20
424.332
 30
-9.26162e-14
  70
    32
  0
VERTEX
  8
0
  5
23288
 10
-112.635
 20
422.992
 30
-9.23481e-14
  70
    32
  0
VERTEX
  8
0
  5
23289
 10
-113.492
 20
421.641
 30
-9.20779e-14
  70
    32
  0
VERTEX
  8
0
  5
2328A
 10
-114.331
 20
420.280
 30
-9.18057e-14
  70
    32
  0
VERTEX
  8
0
  5
2328B
 10
-115.154
 20
418.909
 30
-9.15315e-14
  70
    32
  0
VERTEX
  8
0
  5
2328C
 10
-115.960
 20
417.528
 30
-9.12553e-14
  70
    32
  0
VERTEX
  8
0
  5
2328D
 10
-116.748
 20
416.138
 30
-9.09773e-14
  70
    32
  0
VERTEX
  8
0
  5
2328E
 10
-117.520
 20
414.738
 30
-9.06974e-14
  70
    32
  0
VERTEX
  8
0
  5
2328F
 10
-118.274
 20
413.330
 30
-9.04156e-14
  70
    32
  0
VERTEX
  8
0
  5
23290
 10
-119.011
 20
411.912
 30
-9.01321e-14
  70
    32
  0
VERTEX
  8
0
  5
23291
 10
-119.730
 20
410.486
 30
-8.98469e-14
  70
    32
  0
VERTEX
  8
0
  5
23292
 10
-120.432
 20
409.051
 30
-8.95599e-14
  70
    32
  0
VERTEX
  8
0
  5
23293
 10
-121.116
 20
407.608
 30
-8.92713e-14
  70
    32
  0
VERTEX
  8
0
  5
23294
 10
-121.782
 20
406.157
 30
-8.89810e-14
  70
    32
  0
VERTEX
  8
0
  5
23295
 10
-122.431
 20
404.698
 30
-8.86893e-14
  70
    32
  0
VERTEX
  8
0
  5
23296
 10
-123.061
 20
403.231
 30
-8.83959e-14
  70
    32
  0
VERTEX
  8
0
  5
23297
 10
-123.673
 20
401.757
 30
-8.81011e-14
  70
    32
  0
VERTEX
  8
0
  5
23298
 10
-124.267
 20
400.276
 30
-8.78049e-14
  70
    32
  0
VERTEX
  8
0
  5
23299
 10
-124.843
 20
398.787
 30
-8.75072e-14
  70
    32
  0
VERTEX
  8
0
  5
2329A
 10
-125.401
 20
397.292
 30
-8.72082e-14
  70
    32
  0
VERTEX
  8
0
  5
2329B
 10
-125.940
 20
395.791
 30
-8.69079e-14
  70
    32
  0
VERTEX
  8
0
  5
2329C
 10
-126.460
 20
394.283
 30
-8.66063e-14
  70
    32
  0
VERTEX
  8
0
  5
2329D
 10
-126.962
 20
392.769
 30
-8.63035e-14
  70
    32
  0
VERTEX
  8
0
  5
2329E
 10
-127.445
 20
391.249
 30
-8.59995e-14
  70
    32
  0
VERTEX
  8
0
  5
2329F
 10
-127.909
 20
389.723
 30
-8.56944e-14
  70
    32
  0
VERTEX
  8
0
  5
232A0
 10
-128.355
 20
388.192
 30
-8.53882e-14
  70
    32
  0
VERTEX
  8
0
  5
232A1
 10
-128.782
 20
386.656
 30
-8.50810e-14
  70
    32
  0
VERTEX
  8
0
  5
232A2
 10
-129.190
 20
385.115
 30
-8.47727e-14
  70
    32
  0
VERTEX
  8
0
  5
232A3
 10
-129.579
 20
383.569
 30
-8.44635e-14
  70
    32
  0
VERTEX
  8
0
  5
232A4
 10
-129.948
 20
382.019
 30
-8.41534e-14
  70
    32
  0
VERTEX
  8
0
  5
232A5
 10
-130.299
 20
380.464
 30
-8.38425e-14
  70
    32
  0
VERTEX
  8
0
  5
232A6
 10
-130.630
 20
378.905
 30
-8.35307e-14
  70
    32
  0
VERTEX
  8
0
  5
232A7
 10
-130.943
 20
377.342
 30
-8.32182e-14
  70
    32
  0
VERTEX
  8
0
  5
232A8
 10
-131.236
 20
375.776
 30
-8.29049e-14
  70
    32
  0
VERTEX
  8
0
  5
232A9
 10
-131.509
 20
374.206
 30
-8.25910e-14
  70
    32
  0
VERTEX
  8
0
  5
232AA
 10
-131.764
 20
372.633
 30
-8.22764e-14
  70
    32
  0
VERTEX
  8
0
  5
232AB
 10
-131.999
 20
371.058
 30
-8.19612e-14
  70
    32
  0
VERTEX
  8
0
  5
232AC
 10
-132.214
 20
369.479
 30
-8.16455e-14
  70
    32
  0
VERTEX
  8
0
  5
232AD
 10
-132.411
 20
367.898
 30
-8.13293e-14
  70
    32
  0
VERTEX
  8
0
  5
232AE
 10
-132.587
 20
366.315
 30
-8.10127e-14
  70
    32
  0
VERTEX
  8
0
  5
232AF
 10
-132.744
 20
364.730
 30
-8.06957e-14
  70
    32
  0
VERTEX
  8
0
  5
232B0
 10
-132.882
 20
363.143
 30
-8.03783e-14
  70
    32
  0
VERTEX
  8
0
  5
232B1
 10
-133.000
 20
361.554
 30
-8.00606e-14
  70
    32
  0
VERTEX
  8
0
  5
232B2
 10
-133.099
 20
359.965
 30
-7.97427e-14
  70
    32
  0
VERTEX
  8
0
  5
232B3
 10
-133.178
 20
358.374
 30
-7.94245e-14
  70
    32
  0
VERTEX
  8
0
  5
232B4
 10
-133.237
 20
356.782
 30
-7.91062e-14
  70
    32
  0
VERTEX
  8
0
  5
232B5
 10
-133.277
 20
355.190
 30
-7.87877e-14
  70
    32
  0
SEQEND
  8
0
  5
232B6
  0
POLYLINE
  5
231A3
  8
0
  6
CONTINUOUS
 62
     3
 10
133.2770208773209504
 20
355.1900003851806673
 30
-0.0000000000000788
 66
     1
 70
     8
  0
VERTEX
  8
0
  5
232B7
 10
133.277
 20
355.190
 30
-7.87877e-14
  70
    32
  0
VERTEX
  8
0
  5
232B8
 10
133.237
 20
356.782
 30
-7.91062e-14
  70
    32
  0
VERTEX
  8
0
  5
232B9
 10
133.178
 20
358.374
 30
-7.94245e-14
  70
    32
  0
VERTEX
  8
0
  5
232BA
 10
133.099
 20
359.965
 30
-7.97427e-14
  70
    32
  0
VERTEX
  8
0
  5
232BB
 10
133.000
 20
361.554
 30
-8.00606e-14
  70
    32
  0
VERTEX
  8
0
  5
232BC
 10
132.882
 20
363.143
 30
-8.03783e-14
  70
    32
  0
VERTEX
  8
0
  5
232BD
 10
132.744
 20
364.730
 30
-8.06957e-14
  70
    32
  0
VERTEX
  8
0
  5
232BE
 10
132.587
 20
366.315
 30
-8.10127e-14
  70
    32
  0
VERTEX
  8
0
  5
232BF
 10
132.411
 20
367.898
 30
-8.13293e-14
  70
    32
  0
VERTEX
  8
0
  5
232C0
 10
132.214
 20
369.479
 30
-8.16455e-14
  70
    32
  0
VERTEX
  8
0
  5
232C1
 10
131.999
 20
371.058
 30
-8.19612e-14
  70
    32
  0
VERTEX
  8
0
  5
232C2
 10
131.764
 20
372.633
 30
-8.22764e-14
  70
    32
  0
VERTEX
  8
0
  5
232C3
 10
131.509
 20
374.206
 30
-8.25910e-14
  70
    32
  0
VERTEX
  8
0
  5
232C4
 10
131.236
 20
375.776
 30
-8.29049e-14
  70
    32
  0
VERTEX
  8
0
  5
232C5
 10
130.943
 20
377.342
 30
-8.32182e-14
  70
    32
  0
VERTEX
  8
0
  5
232C6
 10
130.630
 20
378.905
 30
-8.35307e-14
  70
    32
  0
VERTEX
  8
0
  5
232C7
 10
130.299
 20
380.464
 30
-8.38425e-14
  70
    32
  0
VERTEX
  8
0
  5
232C8
 10
129.948
 20
382.019
 30
-8.41534e-14
  70
    32
  0
VERTEX
  8
0
  5
232C9
 10
129.579
 20
383.569
 30
-8.44635e-14
  70
    32
  0
VERTEX
  8
0
  5
232CA
 10
129.190
 20
385.115
 30
-8.47727e-14
  70
    32
  0
VERTEX
  8
0
  5
232CB
 10
128.782
 20
386.656
 30
-8.50810e-14
  70
    32
  0
VERTEX
  8
0
  5
232CC
 10
128.355
 20
388.192
 30
-8.53882e-14
  70
    32
  0
VERTEX
  8
0
  5
232CD
 10
127.909
 20
389.723
 30
-8.56944e-14
  70
    32
  0
VERTEX
  8
0
  5
232CE
 10
127.445
 20
391.249
 30
-8.59995e-14
  70
    32
  0
VERTEX
  8
0
  5
232CF
 10
126.962
 20
392.769
 30
-8.63035e-14
  70
    32
  0
VERTEX
  8
0
  5
232D0
 10
126.460
 20
394.283
 30
-8.66063e-14
  70
    32
  0
VERTEX
  8
0
  5
232D1
 10
125.940
 20
395.791
 30
-8.69079e-14
  70
    32
  0
VERTEX
  8
0
  5
232D2
 10
125.401
 20
397.292
 30
-8.72082e-14
  70
    32
  0
VERTEX
  8
0
  5
232D3
 10
124.843
 20
398.787
 30
-8.75072e-14
  70
    32
  0
VERTEX
  8
0
  5
232D4
 10
124.267
 20
400.276
 30
-8.78049e-14
  70
    32
  0
VERTEX
  8
0
  5
232D5
 10
123.673
 20
401.757
 30
-8.81011e-14
  70
    32
  0
VERTEX
  8
0
  5
232D6
 10
123.061
 20
403.231
 30
-8.83959e-14
  70
    32
  0
VERTEX
  8
0
  5
232D7
 10
122.431
 20
404.698
 30
-8.86893e-14
  70
    32
  0
VERTEX
  8
0
  5
232D8
 10
121.782
 20
406.157
 30
-8.89810e-14
  70
    32
  0
VERTEX
  8
0
  5
232D9
 10
121.116
 20
407.608
 30
-8.92713e-14
  70
    32
  0
VERTEX
  8
0
  5
232DA
 10
120.432
 20
409.051
 30
-8.95599e-14
  70
    32
  0
VERTEX
  8
0
  5
232DB
 10
119.730
 20
410.486
 30
-8.98469e-14
  70
    32
  0
VERTEX
  8
0
  5
232DC
 10
119.011
 20
411.912
 30
-9.01321e-14
  70
    32
  0
VERTEX
  8
0
  5
232DD
 10
118.274
 20
413.330
 30
-9.04156e-14
  70
    32
  0
VERTEX
  8
0
  5
232DE
 10
117.520
 20
414.738
 30
-9.06974e-14
  70
    32
  0
VERTEX
  8
0
  5
232DF
 10
116.748
 20
416.138
 30
-9.09773e-14
  70
    32
  0
VERTEX
  8
0
  5
232E0
 10
115.960
 20
417.528
 30
-9.12553e-14
  70
    32
  0
VERTEX
  8
0
  5
232E1
 10
115.154
 20
418.909
 30
-9.15315e-14
  70
    32
  0
VERTEX
  8
0
  5
232E2
 10
114.331
 20
420.280
 30
-9.18057e-14
  70
    32
  0
VERTEX
  8
0
  5
232E3
 10
113.492
 20
421.641
 30
-9.20779e-14
  70
    32
  0
VERTEX
  8
0
  5
232E4
 10
112.635
 20
422.992
 30
-9.23481e-14
  70
    32
  0
VERTEX
  8
0
  5
232E5
 10
111.763
 20
424.332
 30
-9.26162e-14
  70
    32
  0
VERTEX
  8
0
  5
232E6
 10
110.874
 20
425.663
 30
-9.28822e-14
  70
    32
  0
VERTEX
  8
0
  5
232E7
 10
109.968
 20
426.982
 30
-9.31461e-14
  70
    32
  0
VERTEX
  8
0
  5
232E8
 10
109.046
 20
428.290
 30
-9.34078e-14
  70
    32
  0
VERTEX
  8
0
  5
232E9
 10
108.109
 20
429.588
 30
-9.36673e-14
  70
    32
  0
VERTEX
  8
0
  5
232EA
 10
107.155
 20
430.874
 30
-9.39245e-14
  70
    32
  0
VERTEX
  8
0
  5
232EB
 10
106.186
 20
432.148
 30
-9.41794e-14
  70
    32
  0
VERTEX
  8
0
  5
232EC
 10
105.201
 20
433.411
 30
-9.44320e-14
  70
    32
  0
VERTEX
  8
0
  5
232ED
 10
104.200
 20
434.662
 30
-9.46822e-14
  70
    32
  0
VERTEX
  8
0
  5
232EE
 10
103.184
 20
435.901
 30
-9.49300e-14
  70
    32
  0
VERTEX
  8
0
  5
232EF
 10
102.153
 20
437.128
 30
-9.51753e-14
  70
    32
  0
VERTEX
  8
0
  5
232F0
 10
101.107
 20
438.342
 30
-9.54182e-14
  70
    32
  0
VERTEX
  8
0
  5
232F1
 10
100.047
 20
439.544
 30
-9.56585e-14
  70
    32
  0
VERTEX
  8
0
  5
232F2
 10
98.9711
 20
440.733
 30
-9.58963e-14
  70
    32
  0
VERTEX
  8
0
  5
232F3
 10
97.8809
 20
441.909
 30
-9.61315e-14
  70
    32
  0
VERTEX
  8
0
  5
232F4
 10
96.7764
 20
443.072
 30
-9.63641e-14
  70
    32
  0
VERTEX
  8
0
  5
232F5
 10
95.6577
 20
444.222
 30
-9.65941e-14
  70
    32
  0
VERTEX
  8
0
  5
232F6
 10
94.5249
 20
445.358
 30
-9.68213e-14
  70
    32
  0
VERTEX
  8
0
  5
232F7
 10
93.3782
 20
446.480
 30
-9.70458e-14
  70
    32
  0
VERTEX
  8
0
  5
232F8
 10
92.2177
 20
447.589
 30
-9.72676e-14
  70
    32
  0
VERTEX
  8
0
  5
232F9
 10
91.0437
 20
448.684
 30
-9.74865e-14
  70
    32
  0
VERTEX
  8
0
  5
232FA
 10
89.8564
 20
449.765
 30
-9.77027e-14
  70
    32
  0
VERTEX
  8
0
  5
232FB
 10
88.6558
 20
450.831
 30
-9.79160e-14
  70
    32
  0
VERTEX
  8
0
  5
232FC
 10
87.4421
 20
451.883
 30
-9.81264e-14
  70
    32
  0
VERTEX
  8
0
  5
232FD
 10
86.2156
 20
452.921
 30
-9.83339e-14
  70
    32
  0
VERTEX
  8
0
  5
232FE
 10
84.9764
 20
453.944
 30
-9.85384e-14
  70
    32
  0
VERTEX
  8
0
  5
232FF
 10
83.7248
 20
454.951
 30
-9.87400e-14
  70
    32
  0
VERTEX
  8
0
  5
23300
 10
82.4608
 20
455.944
 30
-9.89386e-14
  70
    32
  0
VERTEX
  8
0
  5
23301
 10
81.1847
 20
456.922
 30
-9.91341e-14
  70
    32
  0
VERTEX
  8
0
  5
23302
 10
79.8966
 20
457.884
 30
-9.93266e-14
  70
    32
  0
VERTEX
  8
0
  5
23303
 10
78.5968
 20
458.831
 30
-9.95160e-14
  70
    32
  0
VERTEX
  8
0
  5
23304
 10
77.2855
 20
459.763
 30
-9.97022e-14
  70
    32
  0
VERTEX
  8
0
  5
23305
 10
75.9627
 20
460.678
 30
-9.98853e-14
  70
    32
  0
VERTEX
  8
0
  5
23306
 10
74.6288
 20
461.578
 30
-1.00065e-13
  70
    32
  0
VERTEX
  8
0
  5
23307
 10
73.2840
 20
462.461
 30
-1.00242e-13
  70
    32
  0
VERTEX
  8
0
  5
23308
 10
71.9283
 20
463.329
 30
-1.00416e-13
  70
    32
  0
VERTEX
  8
0
  5
23309
 10
70.5621
 20
464.180
 30
-1.00586e-13
  70
    32
  0
VERTEX
  8
0
  5
2330A
 10
69.1855
 20
465.015
 30
-1.00753e-13
  70
    32
  0
VERTEX
  8
0
  5
2330B
 10
67.7987
 20
465.833
 30
-1.00916e-13
  70
    32
  0
VERTEX
  8
0
  5
2330C
 10
66.4020
 20
466.635
 30
-1.01077e-13
  70
    32
  0
VERTEX
  8
0
  5
2330D
 10
64.9955
 20
467.420
 30
-1.01234e-13
  70
    32
  0
VERTEX
  8
0
  5
2330E
 10
63.5794
 20
468.188
 30
-1.01387e-13
  70
    32
  0
VERTEX
  8
0
  5
2330F
 10
62.1540
 20
468.940
 30
-1.01538e-13
  70
    32
  0
VERTEX
  8
0
  5
23310
 10
60.7194
 20
469.674
 30
-1.01684e-13
  70
    32
  0
VERTEX
  8
0
  5
23311
 10
59.2759
 20
470.391
 30
-1.01828e-13
  70
    32
  0
VERTEX
  8
0
  5
23312
 10
57.8237
 20
471.090
 30
-1.01968e-13
  70
    32
  0
VERTEX
  8
0
  5
23313
 10
56.3630
 20
471.772
 30
-1.02104e-13
  70
    32
  0
VERTEX
  8
0
  5
23314
 10
54.8940
 20
472.437
 30
-1.02237e-13
  70
    32
  0
VERTEX
  8
0
  5
23315
 10
53.4170
 20
473.084
 30
-1.02367e-13
  70
    32
  0
VERTEX
  8
0
  5
23316
 10
51.9320
 20
473.713
 30
-1.02492e-13
  70
    32
  0
VERTEX
  8
0
  5
23317
 10
50.4395
 20
474.325
 30
-1.02615e-13
  70
    32
  0
VERTEX
  8
0
  5
23318
 10
48.9395
 20
474.919
 30
-1.02733e-13
  70
    32
  0
VERTEX
  8
0
  5
23319
 10
47.4323
 20
475.494
 30
-1.02849e-13
  70
    32
  0
VERTEX
  8
0
  5
2331A
 10
45.9182
 20
476.052
 30
-1.02960e-13
  70
    32
  0
VERTEX
  8
0
  5
2331B
 10
44.3973
 20
476.592
 30
-1.03068e-13
  70
    32
  0
VERTEX
  8
0
  5
2331C
 10
42.8698
 20
477.113
 30
-1.03172e-13
  70
    32
  0
VERTEX
  8
0
  5
2331D
 10
41.3361
 20
477.616
 30
-1.03273e-13
  70
    32
  0
VERTEX
  8
0
  5
2331E
 10
39.7963
 20
478.101
 30
-1.03370e-13
  70
    32
  0
VERTEX
  8
0
  5
2331F
 10
38.2506
 20
478.567
 30
-1.03463e-13
  70
    32
  0
VERTEX
  8
0
  5
23320
 10
36.6993
 20
479.015
 30
-1.03553e-13
  70
    32
  0
VERTEX
  8
0
  5
23321
 10
35.1426
 20
479.444
 30
-1.03639e-13
  70
    32
  0
VERTEX
  8
0
  5
23322
 10
33.5808
 20
479.855
 30
-1.03721e-13
  70
    32
  0
VERTEX
  8
0
  5
23323
 10
32.0140
 20
480.247
 30
-1.03799e-13
  70
    32
  0
VERTEX
  8
0
  5
23324
 10
30.4425
 20
480.620
 30
-1.03874e-13
  70
    32
  0
VERTEX
  8
0
  5
23325
 10
28.8665
 20
480.974
 30
-1.03945e-13
  70
    32
  0
VERTEX
  8
0
  5
23326
 10
27.2863
 20
481.310
 30
-1.04012e-13
  70
    32
  0
VERTEX
  8
0
  5
23327
 10
25.7020
 20
481.626
 30
-1.04075e-13
  70
    32
  0
VERTEX
  8
0
  5
23328
 10
24.1140
 20
481.924
 30
-1.04134e-13
  70
    32
  0
VERTEX
  8
0
  5
23329
 10
22.5224
 20
482.202
 30
-1.04190e-13
  70
    32
  0
VERTEX
  8
0
  5
2332A
 10
20.9276
 20
482.462
 30
-1.04242e-13
  70
    32
  0
VERTEX
  8
0
  5
2332B
 10
19.3296
 20
482.702
 30
-1.04290e-13
  70
    32
  0
VERTEX
  8
0
  5
2332C
 10
17.7288
 20
482.924
 30
-1.04334e-13
  70
    32
  0
VERTEX
  8
0
  5
2332D
 10
16.1254
 20
483.126
 30
-1.04375e-13
  70
    32
  0
VERTEX
  8
0
  5
2332E
 10
14.5196
 20
483.309
 30
-1.04412e-13
  70
    32
  0
VERTEX
  8
0
  5
2332F
 10
12.9117
 20
483.473
 30
-1.04444e-13
  70
    32
  0
VERTEX
  8
0
  5
23330
 10
11.3019
 20
483.618
 30
-1.04473e-13
  70
    32
  0
VERTEX
  8
0
  5
23331
 10
9.69044
 20
483.743
 30
-1.04498e-13
  70
    32
  0
VERTEX
  8
0
  5
23332
 10
8.07755
 20
483.849
 30
-1.04520e-13
  70
    32
  0
VERTEX
  8
0
  5
23333
 10
6.46346
 20
483.936
 30
-1.04537e-13
  70
    32
  0
VERTEX
  8
0
  5
23334
 10
4.84843
 20
484.004
 30
-1.04550e-13
  70
    32
  0
VERTEX
  8
0
  5
23335
 10
3.23268
 20
484.052
 30
-1.04560e-13
  70
    32
  0
VERTEX
  8
0
  5
23336
 10
1.61646
 20
484.081
 30
-1.04566e-13
  70
    32
  0
VERTEX
  8
0
  5
23337
 10
1.03079e-13
 20
484.091
 30
-1.04568e-13
  70
    32
  0
SEQEND
  8
0
  5
23338
  0
POLYLINE
  5
231A4
  8
0
  6
CONTINUOUS
 62
     3
 10
-133.3000000000000114
 20
357.663509049020206
 30
-0.0000000000000794
 66
     1
 70
     8
  0
VERTEX
  8
0
  5
23339
 10
-133.300
 20
357.664
 30
-7.94000e-14
  70
    32
  0
VERTEX
  8
0
  5
2333A
 10
-133.139
 20
364.200
 30
-8.07073e-14
  70
    32
  0
VERTEX
  8
0
  5
2333B
 10
-132.658
 20
370.721
 30
-8.20115e-14
  70
    32
  0
VERTEX
  8
0
  5
2333C
 10
-131.857
 20
377.211
 30
-8.33095e-14
  70
    32
  0
VERTEX
  8
0
  5
2333D
 10
-130.739
 20
383.653
 30
-8.45979e-14
  70
    32
  0
VERTEX
  8
0
  5
2333E
 10
-129.305
 20
390.033
 30
-8.58739e-14
  70
    32
  0
VERTEX
  8
0
  5
2333F
 10
-127.560
 20
396.335
 30
-8.71343e-14
  70
    32
  0
VERTEX
  8
0
  5
23340
 10
-125.508
 20
402.544
 30
-8.83760e-14
  70
    32
  0
VERTEX
  8
0
  5
23341
 10
-123.153
 20
408.644
 30
-8.95961e-14
  70
    32
  0
VERTEX
  8
0
  5
23342
 10
-120.502
 20
414.622
 30
-9.07917e-14
  70
    32
  0
VERTEX
  8
0
  5
23343
 10
-117.560
 20
420.462
 30
-9.19598e-14
  70
    32
  0
VERTEX
  8
0
  5
23344
 10
-114.335
 20
426.152
 30
-9.30976e-14
  70
    32
  0
VERTEX
  8
0
  5
23345
 10
-110.835
 20
431.676
 30
-9.42025e-14
  70
    32
  0
VERTEX
  8
0
  5
23346
 10
-107.068
 20
437.022
 30
-9.52717e-14
  70
    32
  0
VERTEX
  8
0
  5
23347
 10
-103.042
 20
442.177
 30
-9.63026e-14
  70
    32
  0
VERTEX
  8
0
  5
23348
 10
-98.7688
 20
447.128
 30
-9.72929e-14
  70
    32
  0
VERTEX
  8
0
  5
23349
 10
-94.2573
 20
451.863
 30
-9.82400e-14
  70
    32
  0
VERTEX
  8
0
  5
2334A
 10
-89.5188
 20
456.372
 30
-9.91417e-14
  70
    32
  0
VERTEX
  8
0
  5
2334B
 10
-84.5646
 20
460.643
 30
-9.99959e-14
  70
    32
  0
VERTEX
  8
0
  5
2334C
 10
-79.4067
 20
464.666
 30
-1.00800e-13
  70
    32
  0
VERTEX
  8
0
  5
2334D
 10
-74.0575
 20
468.431
 30
-1.01553e-13
  70
    32
  0
VERTEX
  8
0
  5
2334E
 10
-68.5299
 20
471.929
 30
-1.02253e-13
  70
    32
  0
VERTEX
  8
0
  5
2334F
 10
-62.8372
 20
475.152
 30
-1.02898e-13
  70
    32
  0
VERTEX
  8
0
  5
23350
 10
-56.9931
 20
478.092
 30
-1.03486e-13
  70
    32
  0
VERTEX
  8
0
  5
23351
 10
-51.0117
 20
480.742
 30
-1.04016e-13
  70
    32
  0
VERTEX
  8
0
  5
23352
 10
-44.9074
 20
483.095
 30
-1.04486e-13
  70
    32
  0
VERTEX
  8
0
  5
23353
 10
-38.6949
 20
485.146
 30
-1.04896e-13
  70
    32
  0
VERTEX
  8
0
  5
23354
 10
-32.3893
 20
486.890
 30
-1.05245e-13
  70
    32
  0
VERTEX
  8
0
  5
23355
 10
-26.0055
 20
488.323
 30
-1.05532e-13
  70
    32
  0
VERTEX
  8
0
  5
23356
 10
-19.5592
 20
489.440
 30
-1.05755e-13
  70
    32
  0
VERTEX
  8
0
  5
23357
 10
-13.0657
 20
490.241
 30
-1.05915e-13
  70
    32
  0
VERTEX
  8
0
  5
23358
 10
-6.54072
 20
490.722
 30
-1.06012e-13
  70
    32
  0
VERTEX
  8
0
  5
23359
 10
-1.02868e-14
 20
490.882
 30
-1.06044e-13
  70
    32
  0
VERTEX
  8
0
  5
2335A
 10
6.54072
 20
490.722
 30
-1.06012e-13
  70
    32
  0
VERTEX
  8
0
  5
2335B
 10
13.0657
 20
490.241
 30
-1.05915e-13
  70
    32
  0
VERTEX
  8
0
  5
2335C
 10
19.5592
 20
489.440
 30
-1.05755e-13
  70
    32
  0
VERTEX
  8
0
  5
2335D
 10
26.0055
 20
488.323
 30
-1.05532e-13
  70
    32
  0
VERTEX
  8
0
  5
2335E
 10
32.3893
 20
486.890
 30
-1.05245e-13
  70
    32
  0
VERTEX
  8
0
  5
2335F
 10
38.6949
 20
485.146
 30
-1.04896e-13
  70
    32
  0
VERTEX
  8
0
  5
23360
 10
44.9074
 20
483.095
 30
-1.04486e-13
  70
    32
  0
VERTEX
  8
0
  5
23361
 10
51.0117
 20
480.742
 30
-1.04016e-13
  70
    32
  0
VERTEX
  8
0
  5
23362
 10
56.9931
 20
478.092
 30
-1.03486e-13
  70
    32
  0
VERTEX
  8
0
  5
23363
 10
62.8372
 20
475.152
 30
-1.02898e-13
  70
    32
  0
VERTEX
  8
0
  5
23364
 10
68.5299
 20
471.929
 30
-1.02253e-13
  70
    32
  0
VERTEX
  8
0
  5
23365
 10
74.0575
 20
468.431
 30
-1.01553e-13
  70
    32
  0
VERTEX
  8
0
  5
23366
 10
79.4067
 20
464.666
 30
-1.00800e-13
  70
    32
  0
VERTEX
  8
0
  5
23367
 10
84.5646
 20
460.643
 30
-9.99959e-14
  70
    32
  0
VERTEX
  8
0
  5
23368
 10
89.5188
 20
456.372
 30
-9.91417e-14
  70
    32
  0
VERTEX
  8
0
  5
23369
 10
94.2573
 20
451.863
 30
-9.82400e-14
  70
    32
  0
VERTEX
  8
0
  5
2336A
 10
98.7688
 20
447.128
 30
-9.72929e-14
  70
    32
  0
VERTEX
  8
0
  5
2336B
 10
103.042
 20
442.177
 30
-9.63026e-14
  70
    32
  0
VERTEX
  8
0
  5
2336C
 10
107.068
 20
437.022
 30
-9.52717e-14
  70
    32
  0
VERTEX
  8
0
  5
2336D
 10
110.835
 20
431.676
 30
-9.42025e-14
  70
    32
  0
VERTEX
  8
0
  5
2336E
 10
114.335
 20
426.152
 30
-9.30976e-14
  70
    32
  0
VERTEX
  8
0
  5
2336F
 10
117.560
 20
420.462
 30
-9.19598e-14
  70
    32
  0
VERTEX
  8
0
  5
23370
 10
120.502
 20
414.622
 30
-9.07917e-14
  70
    32
  0
VERTEX
  8
0
  5
23371
 10
123.153
 20
408.644
 30
-8.95961e-14
  70
    32
  0
VERTEX
  8
0
  5
23372
 10
125.508
 20
402.544
 30
-8.83760e-14
  70
    32
  0
VERTEX
  8
0
  5
23373
 10
127.560
 20
396.335
 30
-8.71343e-14
  70
    32
  0
VERTEX
  8
0
  5
23374
 10
129.305
 20
390.033
 30
-8.58739e-14
  70
    32
  0
VERTEX
  8
0
  5
23375
 10
130.739
 20
383.653
 30
-8.45979e-14
  70
    32
  0
VERTEX
  8
0
  5
23376
 10
131.857
 20
377.211
 30
-8.33095e-14
  70
    32
  0
VERTEX
  8
0
  5
23377
 10
132.658
 20
370.721
 30
-8.20115e-14
  70
    32
  0
VERTEX
  8
0
  5
23378
 10
133.139
 20
364.200
 30
-8.07073e-14
  70
    32
  0
VERTEX
  8
0
  5
23379
 10
133.300
 20
357.664
 30
-7.94000e-14
  70
    32
  0
VERTEX
  8
0
  5
2337A
 10
133.139
 20
351.127
 30
-7.80927e-14
  70
    32
  0
VERTEX
  8
0
  5
2337B
 10
132.658
 20
344.606
 30
-7.67885e-14
  70
    32
  0
VERTEX
  8
0
  5
2337C
 10
131.857
 20
338.116
 30
-7.54905e-14
  70
    32
  0
VERTEX
  8
0
  5
2337D
 10
130.739
 20
331.674
 30
-7.42021e-14
  70
    32
  0
VERTEX
  8
0
  5
2337E
 10
129.305
 20
325.294
 30
-7.29261e-14
  70
    32
  0
VERTEX
  8
0
  5
2337F
 10
127.560
 20
318.992
 30
-7.16657e-14
  70
    32
  0
VERTEX
  8
0
  5
23380
 10
125.508
 20
312.783
 30
-7.04240e-14
  70
    32
  0
VERTEX
  8
0
  5
23381
 10
123.153
 20
306.683
 30
-6.92039e-14
  70
    32
  0
VERTEX
  8
0
  5
23382
 10
120.502
 20
300.705
 30
-6.80083e-14
  70
    32
  0
VERTEX
  8
0
  5
23383
 10
117.560
 20
294.865
 30
-6.68402e-14
  70
    32
  0
VERTEX
  8
0
  5
23384
 10
114.335
 20
289.175
 30
-6.57024e-14
  70
    32
  0
VERTEX
  8
0
  5
23385
 10
110.835
 20
283.651
 30
-6.45975e-14
  70
    32
  0
VERTEX
  8
0
  5
23386
 10
107.068
 20
278.305
 30
-6.35283e-14
  70
    32
  0
VERTEX
  8
0
  5
23387
 10
103.042
 20
273.150
 30
-6.24974e-14
  70
    32
  0
VERTEX
  8
0
  5
23388
 10
98.7688
 20
268.199
 30
-6.15071e-14
  70
    32
  0
VERTEX
  8
0
  5
23389
 10
94.2573
 20
263.464
 30
-6.05600e-14
  70
    32
  0
VERTEX
  8
0
  5
2338A
 10
89.5188
 20
258.955
 30
-5.96583e-14
  70
    32
  0
VERTEX
  8
0
  5
2338B
 10
84.5646
 20
254.684
 30
-5.88041e-14
  70
    32
  0
VERTEX
  8
0
  5
2338C
 10
79.4067
 20
250.661
 30
-5.79995e-14
  70
    32
  0
VERTEX
  8
0
  5
2338D
 10
74.0575
 20
246.896
 30
-5.72465e-14
  70
    32
  0
VERTEX
  8
0
  5
2338E
 10
68.5299
 20
243.398
 30
-5.65469e-14
  70
    32
  0
VERTEX
  8
0
  5
2338F
 10
62.8372
 20
240.175
 30
-5.59023e-14
  70
    32
  0
VERTEX
  8
0
  5
23390
 10
56.9931
 20
237.235
 30
-5.53143e-14
  70
    32
  0
VERTEX
  8
0
  5
23391
 10
51.0117
 20
234.585
 30
-5.47844e-14
  70
    32
  0
VERTEX
  8
0
  5
23392
 10
44.9074
 20
232.232
 30
-5.43137e-14
  70
    32
  0
VERTEX
  8
0
  5
23393
 10
38.6949
 20
230.181
 30
-5.39035e-14
  70
    32
  0
VERTEX
  8
0
  5
23394
 10
32.3893
 20
228.437
 30
-5.35547e-14
  70
    32
  0
VERTEX
  8
0
  5
23395
 10
26.0055
 20
227.004
 30
-5.32682e-14
  70
    32
  0
VERTEX
  8
0
  5
23396
 10
19.5592
 20
225.887
 30
-5.30446e-14
  70
    32
  0
VERTEX
  8
0
  5
23397
 10
13.0657
 20
225.086
 30
-5.28845e-14
  70
    32
  0
VERTEX
  8
0
  5
23398
 10
6.54072
 20
224.605
 30
-5.27883e-14
  70
    32
  0
VERTEX
  8
0
  5
23399
 10
2.23623e-14
 20
224.445
 30
-5.27562e-14
  70
    32
  0
VERTEX
  8
0
  5
2339A
 10
-6.54072
 20
224.605
 30
-5.27883e-14
  70
    32
  0
VERTEX
  8
0
  5
2339B
 10
-13.0657
 20
225.086
 30
-5.28845e-14
  70
    32
  0
VERTEX
  8
0
  5
2339C
 10
-19.5592
 20
225.887
 30
-5.30446e-14
  70
    32
  0
VERTEX
  8
0
  5
2339D
 10
-26.0055
 20
227.004
 30
-5.32682e-14
  70
    32
  0
VERTEX
  8
0
  5
2339E
 10
-32.3893
 20
228.437
 30
-5.35547e-14
  70
    32
  0
VERTEX
  8
0
  5
2339F
 10
-38.6949
 20
230.181
 30
-5.39035e-14
  70
    32
  0
VERTEX
  8
0
  5
233A0
 10
-44.9074
 20
232.232
 30
-5.43137e-14
  70
    32
  0
VERTEX
  8
0
  5
233A1
 10
-51.0117
 20
234.585
 30
-5.47844e-14
  70
    32
  0
VERTEX
  8
0
  5
233A2
 10
-56.9931
 20
237.235
 30
-5.53143e-14
  70
    32
  0
VERTEX
  8
0
  5
233A3
 10
-62.8372
 20
240.175
 30
-5.59023e-14
  70
    32
  0
VERTEX
  8
0
  5
233A4
 10
-68.5299
 20
243.398
 30
-5.65469e-14
  70
    32
  0
VERTEX
  8
0
  5
233A5
 10
-74.0575
 20
246.896
 30
-5.72465e-14
  70
    32
  0
VERTEX
  8
0
  5
233A6
 10
-79.4067
 20
250.661
 30
-5.79995e-14
  70
    32
  0
VERTEX
  8
0
  5
233A7
 10
-84.5646
 20
254.684
 30
-5.88041e-14
  70
    32
  0
VERTEX
  8
0
  5
233A8
 10
-89.5188
 20
258.955
 30
-5.96583e-14
  70
    32
  0
VERTEX
  8
0
  5
233A9
 10
-94.2573
 20
263.464
 30
-6.05600e-14
  70
    32
  0
VERTEX
  8
0
  5
233AA
 10
-98.7688
 20
268.199
 30
-6.15071e-14
  70
    32
  0
VERTEX
  8
0
  5
233AB
 10
-103.042
 20
273.150
 30
-6.24974e-14
  70
    32
  0
VERTEX
  8
0
  5
233AC
 10
-107.068
 20
278.305
 30
-6.35283e-14
  70
    32
  0
VERTEX
  8
0
  5
233AD
 10
-110.835
 20
283.651
 30
-6.45975e-14
  70
    32
  0
VERTEX
  8
0
  5
233AE
 10
-114.335
 20
289.175
 30
-6.57024e-14
  70
    32
  0
VERTEX
  8
0
  5
233AF
 10
-117.560
 20
294.865
 30
-6.68402e-14
  70
    32
  0
VERTEX
  8
0
  5
233B0
 10
-120.502
 20
300.705
 30
-6.80083e-14
  70
    32
  0
VERTEX
  8
0
  5
233B1
 10
-123.153
 20
306.683
 30
-6.92039e-14
  70
    32
  0
VERTEX
  8
0
  5
233B2
 10
-125.508
 20
312.783
 30
-7.04240e-14
  70
    32
  0
VERTEX
  8
0
  5
233B3
 10
-127.560
 20
318.992
 30
-7.16657e-14
  70
    32
  0
VERTEX
  8
0
  5
233B4
 10
-129.305
 20
325.294
 30
-7.29261e-14
  70
    32
  0
VERTEX
  8
0
  5
233B5
 10
-130.739
 20
331.674
 30
-7.42021e-14
  70
    32
  0
VERTEX
  8
0
  5
233B6
 10
-131.857
 20
338.116
 30
-7.54905e-14
  70
    32
  0
VERTEX
  8
0
  5
233B7
 10
-132.658
 20
344.606
 30
-7.67885e-14
  70
    32
  0
VERTEX
  8
0
  5
233B8
 10
-133.139
 20
351.127
 30
-7.80927e-14
  70
    32
  0
VERTEX
  8
0
  5
233B9
 10
-133.300
 20
357.664
 30
-7.94000e-14
  70
    32
  0
SEQEND
  8
0
  5
233BA
  0
POLYLINE
  5
231A5
  8
0
  6
CONTINUOUS
 62
     3
 10
0.0000000000000866
 20
494.080356937126794
 30
-0.0000000000001067
 66
     1
 70
     8
  0
VERTEX
  8
0
  5
233BB
 10
8.65719e-14
 20
494.080
 30
-1.06683e-13
  70
    32
  0
VERTEX
  8
0
  5
233BC
 10
6.69774
 20
493.916
 30
-1.06651e-13
  70
    32
  0
VERTEX
  8
0
  5
233BD
 10
13.3793
 20
493.423
 30
-1.06552e-13
  70
    32
  0
VERTEX
  8
0
  5
233BE
 10
20.0287
 20
492.604
 30
-1.06388e-13
  70
    32
  0
VERTEX
  8
0
  5
233BF
 10
26.6298
 20
491.459
 30
-1.06159e-13
  70
    32
  0
VERTEX
  8
0
  5
233C0
 10
33.1668
 20
489.992
 30
-1.05866e-13
  70
    32
  0
VERTEX
  8
0
  5
233C1
 10
39.6239
 20
488.206
 30
-1.05509e-13
  70
    32
  0
VERTEX
  8
0
  5
233C2
 10
45.9855
 20
486.106
 30
-1.05088e-13
  70
    32
  0
VERTEX
  8
0
  5
233C3
 10
52.2363
 20
483.696
 30
-1.04607e-13
  70
    32
  0
VERTEX
  8
0
  5
233C4
 10
58.3613
 20
480.983
 30
-1.04064e-13
  70
    32
  0
VERTEX
  8
0
  5
233C5
 10
64.3457
 20
477.972
 30
-1.03462e-13
  70
    32
  0
VERTEX
  8
0
  5
233C6
 10
70.1750
 20
474.672
 30
-1.02802e-13
  70
    32
  0
VERTEX
  8
0
  5
233C7
 10
75.8353
 20
471.090
 30
-1.02085e-13
  70
    32
  0
VERTEX
  8
0
  5
233C8
 10
81.3130
 20
467.235
 30
-1.01314e-13
  70
    32
  0
VERTEX
  8
0
  5
233C9
 10
86.5947
 20
463.115
 30
-1.00490e-13
  70
    32
  0
VERTEX
  8
0
  5
233CA
 10
91.6678
 20
458.742
 30
-9.96156e-14
  70
    32
  0
VERTEX
  8
0
  5
233CB
 10
96.5201
 20
454.125
 30
-9.86923e-14
  70
    32
  0
VERTEX
  8
0
  5
233CC
 10
101.140
 20
449.275
 30
-9.77224e-14
  70
    32
  0
VERTEX
  8
0
  5
233CD
 10
105.516
 20
444.205
 30
-9.67084e-14
  70
    32
  0
VERTEX
  8
0
  5
233CE
 10
109.638
 20
438.927
 30
-9.56527e-14
  70
    32
  0
VERTEX
  8
0
  5
233CF
 10
113.496
 20
433.453
 30
-9.45578e-14
  70
    32
  0
VERTEX
  8
0
  5
233D0
 10
117.080
 20
427.796
 30
-9.34265e-14
  70
    32
  0
VERTEX
  8
0
  5
233D1
 10
120.382
 20
421.970
 30
-9.22613e-14
  70
    32
  0
VERTEX
  8
0
  5
233D2
 10
123.395
 20
415.989
 30
-9.10651e-14
  70
    32
  0
VERTEX
  8
0
  5
233D3
 10
126.110
 20
409.868
 30
-8.98409e-14
  70
    32
  0
VERTEX
  8
0
  5
233D4
 10
128.521
 20
403.621
 30
-8.85915e-14
  70
    32
  0
VERTEX
  8
0
  5
233D5
 10
130.622
 20
397.263
 30
-8.73199e-14
  70
    32
  0
VERTEX
  8
0
  5
233D6
 10
132.409
 20
390.810
 30
-8.60293e-14
  70
    32
  0
VERTEX
  8
0
  5
233D7
 10
133.877
 20
384.277
 30
-8.47227e-14
  70
    32
  0
VERTEX
  8
0
  5
233D8
 10
135.023
 20
377.680
 30
-8.34033e-14
  70
    32
  0
VERTEX
  8
0
  5
233D9
 10
135.843
 20
371.035
 30
-8.20742e-14
  70
    32
  0
VERTEX
  8
0
  5
233DA
 10
136.336
 20
364.357
 30
-8.07387e-14
  70
    32
  0
VERTEX
  8
0
  5
233DB
 10
136.500
 20
357.664
 30
-7.94000e-14
  70
    32
  0
VERTEX
  8
0
  5
233DC
 10
136.336
 20
350.970
 30
-7.80613e-14
  70
    32
  0
VERTEX
  8
0
  5
233DD
 10
135.843
 20
344.292
 30
-7.67258e-14
  70
    32
  0
VERTEX
  8
0
  5
233DE
 10
135.023
 20
337.647
 30
-7.53967e-14
  70
    32
  0
VERTEX
  8
0
  5
233DF
 10
133.877
 20
331.050
 30
-7.40773e-14
  70
    32
  0
VERTEX
  8
0
  5
233E0
 10
132.409
 20
324.517
 30
-7.27707e-14
  70
    32
  0
VERTEX
  8
0
  5
233E1
 10
130.622
 20
318.064
 30
-7.14801e-14
  70
    32
  0
VERTEX
  8
0
  5
233E2
 10
128.521
 20
311.706
 30
-7.02085e-14
  70
    32
  0
VERTEX
  8
0
  5
233E3
 10
126.110
 20
305.459
 30
-6.89591e-14
  70
    32
  0
VERTEX
  8
0
  5
233E4
 10
123.395
 20
299.338
 30
-6.77349e-14
  70
    32
  0
VERTEX
  8
0
  5
233E5
 10
120.382
 20
293.357
 30
-6.65387e-14
  70
    32
  0
VERTEX
  8
0
  5
233E6
 10
117.080
 20
287.531
 30
-6.53735e-14
  70
    32
  0
VERTEX
  8
0
  5
233E7
 10
113.496
 20
281.874
 30
-6.42422e-14
  70
    32
  0
VERTEX
  8
0
  5
233E8
 10
109.638
 20
276.400
 30
-6.31473e-14
  70
    32
  0
VERTEX
  8
0
  5
233E9
 10
105.516
 20
271.122
 30
-6.20916e-14
  70
    32
  0
VERTEX
  8
0
  5
233EA
 10
101.140
 20
266.052
 30
-6.10776e-14
  70
    32
  0
VERTEX
  8
0
  5
233EB
 10
96.5201
 20
261.202
 30
-6.01077e-14
  70
    32
  0
VERTEX
  8
0
  5
233EC
 10
91.6678
 20
256.585
 30
-5.91844e-14
  70
    32
  0
VERTEX
  8
0
  5
233ED
 10
86.5947
 20
252.212
 30
-5.83097e-14
  70
    32
  0
VERTEX
  8
0
  5
233EE
 10
81.3130
 20
248.092
 30
-5.74858e-14
  70
    32
  0
VERTEX
  8
0
  5
233EF
 10
75.8353
 20
244.237
 30
-5.67147e-14
  70
    32
  0
VERTEX
  8
0
  5
233F0
 10
70.1750
 20
240.655
 30
-5.59983e-14
  70
    32
  0
VERTEX
  8
0
  5
233F1
 10
64.3457
 20
237.355
 30
-5.53382e-14
  70
    32
  0
VERTEX
  8
0
  5
233F2
 10
58.3613
 20
234.344
 30
-5.47361e-14
  70
    32
  0
VERTEX
  8
0
  5
233F3
 10
52.2363
 20
231.631
 30
-5.41935e-14
  70
    32
  0
VERTEX
  8
0
  5
233F4
 10
45.9855
 20
229.221
 30
-5.37115e-14
  70
    32
  0
VERTEX
  8
0
  5
233F5
 10
39.6239
 20
227.121
 30
-5.32914e-14
  70
    32
  0
VERTEX
  8
0
  5
233F6
 10
33.1668
 20
225.335
 30
-5.29343e-14
  70
    32
  0
VERTEX
  8
0
  5
233F7
 10
26.6298
 20
223.868
 30
-5.26409e-14
  70
    32
  0
VERTEX
  8
0
  5
233F8
 10
20.0287
 20
222.723
 30
-5.24119e-14
  70
    32
  0
VERTEX
  8
0
  5
233F9
 10
13.3793
 20
221.904
 30
-5.22480e-14
  70
    32
  0
VERTEX
  8
0
  5
233FA
 10
6.69774
 20
221.411
 30
-5.21495e-14
  70
    32
  0
VERTEX
  8
0
  5
233FB
 10
-5.87792e-14
 20
221.247
 30
-5.21166e-14
  70
    32
  0
VERTEX
  8
0
  5
233FC
 10
-6.69774
 20
221.411
 30
-5.21495e-14
  70
    32
  0
VERTEX
  8
0
  5
233FD
 10
-13.3793
 20
221.904
 30
-5.22480e-14
  70
    32
  0
VERTEX
  8
0
  5
233FE
 10
-20.0287
 20
222.723
 30
-5.24119e-14
  70
    32
  0
VERTEX
  8
0
  5
233FF
 10
-26.6298
 20
223.868
 30
-5.26409e-14
  70
    32
  0
VERTEX
  8
0
  5
23400
 10
-33.1668
 20
225.335
 30
-5.29343e-14
  70
    32
  0
VERTEX
  8
0
  5
23401
 10
-39.6239
 20
227.121
 30
-5.32914e-14
  70
    32
  0
VERTEX
  8
0
  5
23402
 10
-45.9855
 20
229.221
 30
-5.37115e-14
  70
    32
  0
VERTEX
  8
0
  5
23403
 10
-52.2363
 20
231.631
 30
-5.41935e-14
  70
    32
  0
VERTEX
  8
0
  5
23404
 10
-58.3613
 20
234.344
 30
-5.47361e-14
  70
    32
  0
VERTEX
  8
0
  5
23405
 10
-64.3457
 20
237.355
 30
-5.53382e-14
  70
    32
  0
VERTEX
  8
0
  5
23406
 10
-70.1750
 20
240.655
 30
-5.59983e-14
  70
    32
  0
VERTEX
  8
0
  5
23407
 10
-75.8353
 20
244.237
 30
-5.67147e-14
  70
    32
  0
VERTEX
  8
0
  5
23408
 10
-81.3130
 20
248.092
 30
-5.74858e-14
  70
    32
  0
VERTEX
  8
0
  5
23409
 10
-86.5947
 20
252.212
 30
-5.83097e-14
  70
    32
  0
VERTEX
  8
0
  5
2340A
 10
-91.6678
 20
256.585
 30
-5.91844e-14
  70
    32
  0
VERTEX
  8
0
  5
2340B
 10
-96.5201
 20
261.202
 30
-6.01077e-14
  70
    32
  0
VERTEX
  8
0
  5
2340C
 10
-101.140
 20
266.052
 30
-6.10776e-14
  70
    32
  0
VERTEX
  8
0
  5
2340D
 10
-105.516
 20
271.122
 30
-6.20916e-14
  70
    32
  0
VERTEX
  8
0
  5
2340E
 10
-109.638
 20
276.400
 30
-6.31473e-14
  70
    32
  0
VERTEX
  8
0
  5
2340F
 10
-113.496
 20
281.874
 30
-6.42422e-14
  70
    32
  0
VERTEX
  8
0
  5
23410
 10
-117.080
 20
287.531
 30
-6.53735e-14
  70
    32
  0
VERTEX
  8
0
  5
23411
 10
-120.382
 20
293.357
 30
-6.65387e-14
  70
    32
  0
VERTEX
  8
0
  5
23412
 10
-123.395
 20
299.338
 30
-6.77349e-14
  70
    32
  0
VERTEX
  8
0
  5
23413
 10
-126.110
 20
305.459
 30
-6.89591e-14
  70
    32
  0
VERTEX
  8
0
  5
23414
 10
-128.521
 20
311.706
 30
-7.02085e-14
  70
    32
  0
VERTEX
  8
0
  5
23415
 10
-130.622
 20
318.064
 30
-7.14801e-14
  70
    32
  0
VERTEX
  8
0
  5
23416
 10
-132.409
 20
324.517
 30
-7.27707e-14
  70
    32
  0
VERTEX
  8
0
  5
23417
 10
-133.877
 20
331.050
 30
-7.40773e-14
  70
    32
  0
VERTEX
  8
0
  5
23418
 10
-135.023
 20
337.647
 30
-7.53967e-14
  70
    32
  0
VERTEX
  8
0
  5
23419
 10
-135.843
 20
344.292
 30
-7.67258e-14
  70
    32
  0
VERTEX
  8
0
  5
2341A
 10
-136.336
 20
350.970
 30
-7.80613e-14
  70
    32
  0
VERTEX
  8
0
  5
2341B
 10
-136.500
 20
357.664
 30
-7.94000e-14
  70
    32
  0
VERTEX
  8
0
  5
2341C
 10
-136.336
 20
364.357
 30
-8.07387e-14
  70
    32
  0
VERTEX
  8
0
  5
2341D
 10
-135.843
 20
371.035
 30
-8.20742e-14
  70
    32
  0
VERTEX
  8
0
  5
2341E
 10
-135.023
 20
377.680
 30
-8.34033e-14
  70
    32
  0
VERTEX
  8
0
  5
2341F
 10
-133.877
 20
384.277
 30
-8.47227e-14
  70
    32
  0
VERTEX
  8
0
  5
23420
 10
-132.409
 20
390.810
 30
-8.60293e-14
  70
    32
  0
VERTEX
  8
0
  5
23421
 10
-130.622
 20
397.263
 30
-8.73199e-14
  70
    32
  0
VERTEX
  8
0
  5
23422
 10
-128.521
 20
403.621
 30
-8.85915e-14
  70
    32
  0
VERTEX
  8
0
  5
23423
 10
-126.110
 20
409.868
 30
-8.98409e-14
  70
    32
  0
VERTEX
  8
0
  5
23424
 10
-123.395
 20
415.989
 30
-9.10651e-14
  70
    32
  0
VERTEX
  8
0
  5
23425
 10
-120.382
 20
421.970
 30
-9.22613e-14
  70
    32
  0
VERTEX
  8
0
  5
23426
 10
-117.080
 20
427.796
 30
-9.34265e-14
  70
    32
  0
VERTEX
  8
0
  5
23427
 10
-113.496
 20
433.453
 30
-9.45578e-14
  70
    32
  0
VERTEX
  8
0
  5
23428
 10
-109.638
 20
438.927
 30
-9.56527e-14
  70
    32
  0
VERTEX
  8
0
  5
23429
 10
-105.516
 20
444.205
 30
-9.67084e-14
  70
    32
  0
VERTEX
  8
0
  5
2342A
 10
-101.140
 20
449.275
 30
-9.77224e-14
  70
    32
  0
VERTEX
  8
0
  5
2342B
 10
-96.5201
 20
454.125
 30
-9.86923e-14
  70
    32
  0
VERTEX
  8
0
  5
2342C
 10
-91.6678
 20
458.742
 30
-9.96156e-14
  70
    32
  0
VERTEX
  8
0
  5
2342D
 10
-86.5947
 20
463.115
 30
-1.00490e-13
  70
    32
  0
VERTEX
  8
0
  5
2342E
 10
-81.3130
 20
467.235
 30
-1.01314e-13
  70
    32
  0
VERTEX
  8
0
  5
2342F
 10
-75.8353
 20
471.090
 30
-1.02085e-13
  70
    32
  0
VERTEX
  8
0
  5
23430
 10
-70.1750
 20
474.672
 30
-1.02802e-13
  70
    32
  0
VERTEX
  8
0
  5
23431
 10
-64.3457
 20
477.972
 30
-1.03462e-13
  70
    32
  0
VERTEX
  8
0
  5
23432
 10
-58.3613
 20
480.983
 30
-1.04064e-13
  70
    32
  0
VERTEX
  8
0
  5
23433
 10
-52.2363
 20
483.696
 30
-1.04607e-13
  70
    32
  0
VERTEX
  8
0
  5
23434
 10
-45.9855
 20
486.106
 30
-1.05088e-13
  70
    32
  0
VERTEX
  8
0
  5
23435
 10
-39.6239
 20
488.206
 30
-1.05509e-13
  70
    32
  0
VERTEX
  8
0
  5
23436
 10
-33.1668
 20
489.992
 30
-1.05866e-13
  70
    32
  0
VERTEX
  8
0
  5
23437
 10
-26.6298
 20
491.459
 30
-1.06159e-13
  70
    32
  0
VERTEX
  8
0
  5
23438
 10
-20.0287
 20
492.604
 30
-1.06388e-13
  70
    32
  0
VERTEX
  8
0
  5
23439
 10
-13.3793
 20
493.423
 30
-1.06552e-13
  70
    32
  0
VERTEX
  8
0
  5
2343A
 10
-6.69774
 20
493.916
 30
-1.06651e-13
  70
    32
  0
VERTEX
  8
0
  5
2343B
 10
8.65719e-14
 20
494.080
 30
-1.06683e-13
  70
    32
  0
SEQEND
  8
0
  5
2343C
  0
POLYLINE
  5
231A6
  8
0
  6
CONTINUOUS
 62
     3
 10
0.0000000000001255
 20
218.2592349154917599
 30
-0.0000000000000514
 66
     1
 70
     8
  0
VERTEX
  8
0
  5
2343D
 10
1.25529e-13
 20
218.259
 30
-5.14016e-14
  70
    32
  0
VERTEX
  8
0
  5
2343E
 10
1.67506
 20
218.269
 30
-5.14036e-14
  70
    32
  0
VERTEX
  8
0
  5
2343F
 10
3.34988
 20
218.300
 30
-5.14097e-14
  70
    32
  0
VERTEX
  8
0
  5
23440
 10
5.02419
 20
218.350
 30
-5.14198e-14
  70
    32
  0
VERTEX
  8
0
  5
23441
 10
6.69774
 20
218.421
 30
-5.14340e-14
  70
    32
  0
VERTEX
  8
0
  5
23442
 10
8.37028
 20
218.512
 30
-5.14522e-14
  70
    32
  0
VERTEX
  8
0
  5
23443
 10
10.0416
 20
218.624
 30
-5.14745e-14
  70
    32
  0
VERTEX
  8
0
  5
23444
 10
11.7113
 20
218.755
 30
-5.15008e-14
  70
    32
  0
VERTEX
  8
0
  5
23445
 10
13.3793
 20
218.907
 30
-5.15311e-14
  70
    32
  0
VERTEX
  8
0
  5
23446
 10
15.0453
 20
219.079
 30
-5.15655e-14
  70
    32
  0
VERTEX
  8
0
  5
23447
 10
16.7091
 20
219.271
 30
-5.16039e-14
  70
    32
  0
VERTEX
  8
0
  5
23448
 10
18.3703
 20
219.483
 30
-5.16463e-14
  70
    32
  0
VERTEX
  8
0
  5
23449
 10
20.0287
 20
219.715
 30
-5.16927e-14
  70
    32
  0
VERTEX
  8
0
  5
2344A
 10
21.6841
 20
219.967
 30
-5.17431e-14
  70
    32
  0
VERTEX
  8
0
  5
2344B
 10
23.3363
 20
220.239
 30
-5.17976e-14
  70
    32
  0
VERTEX
  8
0
  5
2344C
 10
24.9849
 20
220.531
 30
-5.18560e-14
  70
    32
  0
VERTEX
  8
0
  5
2344D
 10
26.6298
 20
220.843
 30
-5.19184e-14
  70
    32
  0
VERTEX
  8
0
  5
2344E
 10
28.2707
 20
221.175
 30
-5.19848e-14
  70
    32
  0
VERTEX
  8
0
  5
2344F
 10
29.9073
 20
221.527
 30
-5.20551e-14
  70
    32
  0
VERTEX
  8
0
  5
23450
 10
31.5394
 20
221.899
 30
-5.21294e-14
  70
    32
  0
VERTEX
  8
0
  5
23451
 10
33.1668
 20
222.290
 30
-5.22077e-14
  70
    32
  0
VERTEX
  8
0
  5
23452
 10
34.7892
 20
222.701
 30
-5.22899e-14
  70
    32
  0
VERTEX
  8
0
  5
23453
 10
36.4063
 20
223.131
 30
-5.23759e-14
  70
    32
  0
VERTEX
  8
0
  5
23454
 10
38.0179
 20
223.581
 30
-5.24659e-14
  70
    32
  0
VERTEX
  8
0
  5
23455
 10
39.6239
 20
224.050
 30
-5.25598e-14
  70
    32
  0
VERTEX
  8
0
  5
23456
 10
41.2238
 20
224.539
 30
-5.26576e-14
  70
    32
  0
VERTEX
  8
0
  5
23457
 10
42.8176
 20
225.047
 30
-5.27592e-14
  70
    32
  0
VERTEX
  8
0
  5
23458
 10
44.4049
 20
225.575
 30
-5.28646e-14
  70
    32
  0
VERTEX
  8
0
  5
23459
 10
45.9855
 20
226.121
 30
-5.29739e-14
  70
    32
  0
VERTEX
  8
0
  5
2345A
 10
47.5591
 20
226.687
 30
-5.30871e-14
  70
    32
  0
VERTEX
  8
0
  5
2345B
 10
49.1257
 20
227.271
 30
-5.32040e-14
  70
    32
  0
VERTEX
  8
0
  5
2345C
 10
50.6848
 20
227.875
 30
-5.33246e-14
  70
    32
  0
VERTEX
  8
0
  5
2345D
 10
52.2363
 20
228.497
 30
-5.34491e-14
  70
    32
  0
VERTEX
  8
0
  5
2345E
 10
53.7799
 20
229.138
 30
-5.35773e-14
  70
    32
  0
VERTEX
  8
0
  5
2345F
 10
55.3154
 20
229.797
 30
-5.37092e-14
  70
    32
  0
VERTEX
  8
0
  5
23460
 10
56.8426
 20
230.475
 30
-5.38448e-14
  70
    32
  0
VERTEX
  8
0
  5
23461
 10
58.3613
 20
231.172
 30
-5.39841e-14
  70
    32
  0
VERTEX
  8
0
  5
23462
 10
59.8711
 20
231.887
 30
-5.41271e-14
  70
    32
  0
VERTEX
  8
0
  5
23463
 10
61.3719
 20
232.620
 30
-5.42737e-14
  70
    32
  0
VERTEX
  8
0
  5
23464
 10
62.8635
 20
233.371
 30
-5.44239e-14
  70
    32
  0
VERTEX
  8
0
  5
23465
 10
64.3457
 20
234.140
 30
-5.45777e-14
  70
    32
  0
VERTEX
  8
0
  5
23466
 10
65.8181
 20
234.927
 30
-5.47351e-14
  70
    32
  0
VERTEX
  8
0
  5
23467
 10
67.2806
 20
235.732
 30
-5.48960e-14
  70
    32
  0
VERTEX
  8
0
  5
23468
 10
68.7330
 20
236.554
 30
-5.50605e-14
  70
    32
  0
VERTEX
  8
0
  5
23469
 10
70.1750
 20
237.394
 30
-5.52284e-14
  70
    32
  0
VERTEX
  8
0
  5
2346A
 10
71.6065
 20
238.251
 30
-5.53999e-14
  70
    32
  0
VERTEX
  8
0
  5
2346B
 10
73.0272
 20
239.125
 30
-5.55748e-14
  70
    32
  0
VERTEX
  8
0
  5
2346C
 10
74.4369
 20
240.017
 30
-5.57531e-14
  70
    32
  0
VERTEX
  8
0
  5
2346D
 10
75.8353
 20
240.925
 30
-5.59348e-14
  70
    32
  0
VERTEX
  8
0
  5
2346E
 10
77.2224
 20
241.851
 30
-5.61198e-14
  70
    32
  0
VERTEX
  8
0
  5
2346F
 10
78.5978
 20
242.793
 30
-5.63083e-14
  70
    32
  0
VERTEX
  8
0
  5
23470
 10
79.9614
 20
243.751
 30
-5.65000e-14
  70
    32
  0
VERTEX
  8
0
  5
23471
 10
81.3130
 20
244.726
 30
-5.66950e-14
  70
    32
  0
VERTEX
  8
0
  5
23472
 10
82.6523
 20
245.718
 30
-5.68932e-14
  70
    32
  0
VERTEX
  8
0
  5
23473
 10
83.9791
 20
246.725
 30
-5.70947e-14
  70
    32
  0
VERTEX
  8
0
  5
23474
 10
85.2933
 20
247.748
 30
-5.72994e-14
  70
    32
  0
VERTEX
  8
0
  5
23475
 10
86.5947
 20
248.788
 30
-5.75072e-14
  70
    32
  0
VERTEX
  8
0
  5
23476
 10
87.8830
 20
249.842
 30
-5.77182e-14
  70
    32
  0
VERTEX
  8
0
  5
23477
 10
89.1581
 20
250.913
 30
-5.79323e-14
  70
    32
  0
VERTEX
  8
0
  5
23478
 10
90.4198
 20
251.998
 30
-5.81494e-14
  70
    32
  0
VERTEX
  8
0
  5
23479
 10
91.6678
 20
253.099
 30
-5.83696e-14
  70
    32
  0
VERTEX
  8
0
  5
2347A
 10
92.9020
 20
254.215
 30
-5.85927e-14
  70
    32
  0
VERTEX
  8
0
  5
2347B
 10
94.1223
 20
255.346
 30
-5.88189e-14
  70
    32
  0
VERTEX
  8
0
  5
2347C
 10
95.3284
 20
256.491
 30
-5.90480e-14
  70
    32
  0
VERTEX
  8
0
  5
2347D
 10
96.5201
 20
257.651
 30
-5.92799e-14
  70
    32
  0
VERTEX
  8
0
  5
2347E
 10
97.6973
 20
258.825
 30
-5.95148e-14
  70
    32
  0
VERTEX
  8
0
  5
2347F
 10
98.8597
 20
260.014
 30
-5.97524e-14
  70
    32
  0
VERTEX
  8
0
  5
23480
 10
100.007
 20
261.216
 30
-5.99929e-14
  70
    32
  0
VERTEX
  8
0
  5
23481
 10
101.140
 20
262.432
 30
-6.02361e-14
  70
    32
  0
VERTEX
  8
0
  5
23482
 10
102.257
 20
263.662
 30
-6.04821e-14
  70
    32
  0
VERTEX
  8
0
  5
23483
 10
103.359
 20
264.905
 30
-6.07307e-14
  70
    32
  0
VERTEX
  8
0
  5
23484
 10
104.445
 20
266.161
 30
-6.09819e-14
  70
    32
  0
VERTEX
  8
0
  5
23485
 10
105.516
 20
267.430
 30
-6.12358e-14
  70
    32
  0
VERTEX
  8
0
  5
23486
 10
106.571
 20
268.713
 30
-6.14923e-14
  70
    32
  0
VERTEX
  8
0
  5
23487
 10
107.609
 20
270.008
 30
-6.17512e-14
  70
    32
  0
VERTEX
  8
0
  5
23488
 10
108.632
 20
271.315
 30
-6.20127e-14
  70
    32
  0
VERTEX
  8
0
  5
23489
 10
109.638
 20
272.635
 30
-6.22766e-14
  70
    32
  0
VERTEX
  8
0
  5
2348A
 10
110.627
 20
273.966
 30
-6.25430e-14
  70
    32
  0
VERTEX
  8
0
  5
2348B
 10
111.600
 20
275.310
 30
-6.28117e-14
  70
    32
  0
VERTEX
  8
0
  5
2348C
 10
112.556
 20
276.665
 30
-6.30827e-14
  70
    32
  0
VERTEX
  8
0
  5
2348D
 10
113.496
 20
278.032
 30
-6.33560e-14
  70
    32
  0
VERTEX
  8
0
  5
2348E
 10
114.418
 20
279.409
 30
-6.36316e-14
  70
    32
  0
VERTEX
  8
0
  5
2348F
 10
115.323
 20
280.798
 30
-6.39094e-14
  70
    32
  0
VERTEX
  8
0
  5
23490
 10
116.210
 20
282.198
 30
-6.41894e-14
  70
    32
  0
VERTEX
  8
0
  5
23491
 10
117.080
 20
283.609
 30
-6.44714e-14
  70
    32
  0
VERTEX
  8
0
  5
23492
 10
117.932
 20
285.029
 30
-6.47556e-14
  70
    32
  0
VERTEX
  8
0
  5
23493
 10
118.767
 20
286.460
 30
-6.50418e-14
  70
    32
  0
VERTEX
  8
0
  5
23494
 10
119.584
 20
287.901
 30
-6.53300e-14
  70
    32
  0
VERTEX
  8
0
  5
23495
 10
120.382
 20
289.352
 30
-6.56202e-14
  70
    32
  0
VERTEX
  8
0
  5
23496
 10
121.163
 20
290.813
 30
-6.59122e-14
  70
    32
  0
VERTEX
  8
0
  5
23497
 10
121.925
 20
292.282
 30
-6.62062e-14
  70
    32
  0
VERTEX
  8
0
  5
23498
 10
122.669
 20
293.761
 30
-6.65019e-14
  70
    32
  0
VERTEX
  8
0
  5
23499
 10
123.395
 20
295.249
 30
-6.67994e-14
  70
    32
  0
VERTEX
  8
0
  5
2349A
 10
124.101
 20
296.745
 30
-6.70987e-14
  70
    32
  0
VERTEX
  8
0
  5
2349B
 10
124.790
 20
298.250
 30
-6.73996e-14
  70
    32
  0
VERTEX
  8
0
  5
2349C
 10
125.459
 20
299.763
 30
-6.77022e-14
  70
    32
  0
VERTEX
  8
0
  5
2349D
 10
126.110
 20
301.283
 30
-6.80064e-14
  70
    32
  0
VERTEX
  8
0
  5
2349E
 10
126.741
 20
302.812
 30
-6.83122e-14
  70
    32
  0
VERTEX
  8
0
  5
2349F
 10
127.354
 20
304.348
 30
-6.86194e-14
  70
    32
  0
VERTEX
  8
0
  5
234A0
 10
127.947
 20
305.892
 30
-6.89281e-14
  70
    32
  0
VERTEX
  8
0
  5
234A1
 10
128.521
 20
307.442
 30
-6.92382e-14
  70
    32
  0
VERTEX
  8
0
  5
234A2
 10
129.075
 20
309.000
 30
-6.95497e-14
  70
    32
  0
VERTEX
  8
0
  5
234A3
 10
129.611
 20
310.564
 30
-6.98625e-14
  70
    32
  0
VERTEX
  8
0
  5
234A4
 10
130.126
 20
312.134
 30
-7.01765e-14
  70
    32
  0
VERTEX
  8
0
  5
234A5
 10
130.622
 20
313.710
 30
-7.04918e-14
  70
    32
  0
VERTEX
  8
0
  5
234A6
 10
131.099
 20
315.293
 30
-7.08083e-14
  70
    32
  0
VERTEX
  8
0
  5
234A7
 10
131.555
 20
316.881
 30
-7.11258e-14
  70
    32
  0
VERTEX
  8
0
  5
234A8
 10
131.992
 20
318.474
 30
-7.14445e-14
  70
    32
  0
VERTEX
  8
0
  5
234A9
 10
132.409
 20
320.072
 30
-7.17642e-14
  70
    32
  0
VERTEX
  8
0
  5
234AA
 10
132.806
 20
321.676
 30
-7.20849e-14
  70
    32
  0
VERTEX
  8
0
  5
234AB
 10
133.183
 20
323.284
 30
-7.24065e-14
  70
    32
  0
VERTEX
  8
0
  5
234AC
 10
133.540
 20
324.897
 30
-7.27290e-14
  70
    32
  0
VERTEX
  8
0
  5
234AD
 10
133.877
 20
326.513
 30
-7.30524e-14
  70
    32
  0
VERTEX
  8
0
  5
234AE
 10
134.194
 20
328.134
 30
-7.33765e-14
  70
    32
  0
VERTEX
  8
0
  5
234AF
 10
134.490
 20
329.758
 30
-7.37014e-14
  70
    32
  0
VERTEX
  8
0
  5
234B0
 10
134.767
 20
331.386
 30
-7.40270e-14
  70
    32
  0
VERTEX
  8
0
  5
234B1
 10
135.023
 20
333.017
 30
-7.43532e-14
  70
    32
  0
VERTEX
  8
0
  5
234B2
 10
135.258
 20
334.651
 30
-7.46800e-14
  70
    32
  0
VERTEX
  8
0
  5
234B3
 10
135.473
 20
336.288
 30
-7.50073e-14
  70
    32
  0
VERTEX
  8
0
  5
234B4
 10
135.668
 20
337.927
 30
-7.53352e-14
  70
    32
  0
VERTEX
  8
0
  5
234B5
 10
135.843
 20
339.569
 30
-7.56635e-14
  70
    32
  0
VERTEX
  8
0
  5
234B6
 10
135.997
 20
341.212
 30
-7.59922e-14
  70
    32
  0
VERTEX
  8
0
  5
234B7
 10
136.130
 20
342.858
 30
-7.63212e-14
  70
    32
  0
VERTEX
  8
0
  5
234B8
 10
136.243
 20
344.504
 30
-7.66506e-14
  70
    32
  0
VERTEX
  8
0
  5
234B9
 10
136.336
 20
346.152
 30
-7.69802e-14
  70
    32
  0
VERTEX
  8
0
  5
234BA
 10
136.408
 20
347.801
 30
-7.73099e-14
  70
    32
  0
VERTEX
  8
0
  5
234BB
 10
136.459
 20
349.451
 30
-7.76399e-14
  70
    32
  0
VERTEX
  8
0
  5
234BC
 10
136.490
 20
351.101
 30
-7.79699e-14
  70
    32
  0
VERTEX
  8
0
  5
234BD
 10
136.500
 20
352.751
 30
-7.83000e-14
  70
    32
  0
SEQEND
  8
0
  5
234BE
  0
POLYLINE
  5
231A7
  8
0
  6
CONTINUOUS
 62
     3
 10
-136.5
 20
352.7513902243070447
 30
-0.0000000000000783
 66
     1
 70
     8
  0
VERTEX
  8
0
  5
234BF
 10
-136.500
 20
352.751
 30
-7.83000e-14
  70
    32
  0
VERTEX
  8
0
  5
234C0
 10
-136.490
 20
351.101
 30
-7.79699e-14
  70
    32
  0
VERTEX
  8
0
  5
234C1
 10
-136.459
 20
349.451
 30
-7.76399e-14
  70
    32
  0
VERTEX
  8
0
  5
234C2
 10
-136.408
 20
347.801
 30
-7.73099e-14
  70
    32
  0
VERTEX
  8
0
  5
234C3
 10
-136.336
 20
346.152
 30
-7.69802e-14
  70
    32
  0
VERTEX
  8
0
  5
234C4
 10
-136.243
 20
344.504
 30
-7.66506e-14
  70
    32
  0
VERTEX
  8
0
  5
234C5
 10
-136.130
 20
342.858
 30
-7.63212e-14
  70
    32
  0
VERTEX
  8
0
  5
234C6
 10
-135.997
 20
341.212
 30
-7.59922e-14
  70
    32
  0
VERTEX
  8
0
  5
234C7
 10
-135.843
 20
339.569
 30
-7.56635e-14
  70
    32
  0
VERTEX
  8
0
  5
234C8
 10
-135.668
 20
337.927
 30
-7.53352e-14
  70
    32
  0
VERTEX
  8
0
  5
234C9
 10
-135.473
 20
336.288
 30
-7.50073e-14
  70
    32
  0
VERTEX
  8
0
  5
234CA
 10
-135.258
 20
334.651
 30
-7.46800e-14
  70
    32
  0
VERTEX
  8
0
  5
234CB
 10
-135.023
 20
333.017
 30
-7.43532e-14
  70
    32
  0
VERTEX
  8
0
  5
234CC
 10
-134.767
 20
331.386
 30
-7.40270e-14
  70
    32
  0
VERTEX
  8
0
  5
234CD
 10
-134.490
 20
329.758
 30
-7.37014e-14
  70
    32
  0
VERTEX
  8
0
  5
234CE
 10
-134.194
 20
328.134
 30
-7.33765e-14
  70
    32
  0
VERTEX
  8
0
  5
234CF
 10
-133.877
 20
326.513
 30
-7.30524e-14
  70
    32
  0
VERTEX
  8
0
  5
234D0
 10
-133.540
 20
324.897
 30
-7.27290e-14
  70
    32
  0
VERTEX
  8
0
  5
234D1
 10
-133.183
 20
323.284
 30
-7.24065e-14
  70
    32
  0
VERTEX
  8
0
  5
234D2
 10
-132.806
 20
321.676
 30
-7.20849e-14
  70
    32
  0
VERTEX
  8
0
  5
234D3
 10
-132.409
 20
320.072
 30
-7.17642e-14
  70
    32
  0
VERTEX
  8
0
  5
234D4
 10
-131.992
 20
318.474
 30
-7.14445e-14
  70
    32
  0
VERTEX
  8
0
  5
234D5
 10
-131.555
 20
316.881
 30
-7.11258e-14
  70
    32
  0
VERTEX
  8
0
  5
234D6
 10
-131.099
 20
315.293
 30
-7.08083e-14
  70
    32
  0
VERTEX
  8
0
  5
234D7
 10
-130.622
 20
313.710
 30
-7.04918e-14
  70
    32
  0
VERTEX
  8
0
  5
234D8
 10
-130.126
 20
312.134
 30
-7.01765e-14
  70
    32
  0
VERTEX
  8
0
  5
234D9
 10
-129.611
 20
310.564
 30
-6.98625e-14
  70
    32
  0
VERTEX
  8
0
  5
234DA
 10
-129.075
 20
309.000
 30
-6.95497e-14
  70
    32
  0
VERTEX
  8
0
  5
234DB
 10
-128.521
 20
307.442
 30
-6.92382e-14
  70
    32
  0
VERTEX
  8
0
  5
234DC
 10
-127.947
 20
305.892
 30
-6.89281e-14
  70
    32
  0
VERTEX
  8
0
  5
234DD
 10
-127.354
 20
304.348
 30
-6.86194e-14
  70
    32
  0
VERTEX
  8
0
  5
234DE
 10
-126.741
 20
302.812
 30
-6.83122e-14
  70
    32
  0
VERTEX
  8
0
  5
234DF
 10
-126.110
 20
301.283
 30
-6.80064e-14
  70
    32
  0
VERTEX
  8
0
  5
234E0
 10
-125.459
 20
299.763
 30
-6.77022e-14
  70
    32
  0
VERTEX
  8
0
  5
234E1
 10
-124.790
 20
298.250
 30
-6.73996e-14
  70
    32
  0
VERTEX
  8
0
  5
234E2
 10
-124.101
 20
296.745
 30
-6.70987e-14
  70
    32
  0
VERTEX
  8
0
  5
234E3
 10
-123.395
 20
295.249
 30
-6.67994e-14
  70
    32
  0
VERTEX
  8
0
  5
234E4
 10
-122.669
 20
293.761
 30
-6.65019e-14
  70
    32
  0
VERTEX
  8
0
  5
234E5
 10
-121.925
 20
292.282
 30
-6.62062e-14
  70
    32
  0
VERTEX
  8
0
  5
234E6
 10
-121.163
 20
290.813
 30
-6.59122e-14
  70
    32
  0
VERTEX
  8
0
  5
234E7
 10
-120.382
 20
289.352
 30
-6.56202e-14
  70
    32
  0
VERTEX
  8
0
  5
234E8
 10
-119.584
 20
287.901
 30
-6.53300e-14
  70
    32
  0
VERTEX
  8
0
  5
234E9
 10
-118.767
 20
286.460
 30
-6.50418e-14
  70
    32
  0
VERTEX
  8
0
  5
234EA
 10
-117.932
 20
285.029
 30
-6.47556e-14
  70
    32
  0
VERTEX
  8
0
  5
234EB
 10
-117.080
 20
283.609
 30
-6.44714e-14
  70
    32
  0
VERTEX
  8
0
  5
234EC
 10
-116.210
 20
282.198
 30
-6.41894e-14
  70
    32
  0
VERTEX
  8
0
  5
234ED
 10
-115.323
 20
280.798
 30
-6.39094e-14
  70
    32
  0
VERTEX
  8
0
  5
234EE
 10
-114.418
 20
279.409
 30
-6.36316e-14
  70
    32
  0
VERTEX
  8
0
  5
234EF
 10
-113.496
 20
278.032
 30
-6.33560e-14
  70
    32
  0
VERTEX
  8
0
  5
234F0
 10
-112.556
 20
276.665
 30
-6.30827e-14
  70
    32
  0
VERTEX
  8
0
  5
234F1
 10
-111.600
 20
275.310
 30
-6.28117e-14
  70
    32
  0
VERTEX
  8
0
  5
234F2
 10
-110.627
 20
273.966
 30
-6.25430e-14
  70
    32
  0
VERTEX
  8
0
  5
234F3
 10
-109.638
 20
272.635
 30
-6.22766e-14
  70
    32
  0
VERTEX
  8
0
  5
234F4
 10
-108.632
 20
271.315
 30
-6.20127e-14
  70
    32
  0
VERTEX
  8
0
  5
234F5
 10
-107.609
 20
270.008
 30
-6.17512e-14
  70
    32
  0
VERTEX
  8
0
  5
234F6
 10
-106.571
 20
268.713
 30
-6.14923e-14
  70
    32
  0
VERTEX
  8
0
  5
234F7
 10
-105.516
 20
267.430
 30
-6.12358e-14
  70
    32
  0
VERTEX
  8
0
  5
234F8
 10
-104.445
 20
266.161
 30
-6.09819e-14
  70
    32
  0
VERTEX
  8
0
  5
234F9
 10
-103.359
 20
264.905
 30
-6.07307e-14
  70
    32
  0
VERTEX
  8
0
  5
234FA
 10
-102.257
 20
263.662
 30
-6.04821e-14
  70
    32
  0
VERTEX
  8
0
  5
234FB
 10
-101.140
 20
262.432
 30
-6.02361e-14
  70
    32
  0
VERTEX
  8
0
  5
234FC
 10
-100.007
 20
261.216
 30
-5.99929e-14
  70
    32
  0
VERTEX
  8
0
  5
234FD
 10
-98.8597
 20
260.014
 30
-5.97524e-14
  70
    32
  0
VERTEX
  8
0
  5
234FE
 10
-97.6973
 20
258.825
 30
-5.95148e-14
  70
    32
  0
VERTEX
  8
0
  5
234FF
 10
-96.5201
 20
257.651
 30
-5.92799e-14
  70
    32
  0
VERTEX
  8
0
  5
23500
 10
-95.3284
 20
256.491
 30
-5.90480e-14
  70
    32
  0
VERTEX
  8
0
  5
23501
 10
-94.1223
 20
255.346
 30
-5.88189e-14
  70
    32
  0
VERTEX
  8
0
  5
23502
 10
-92.9020
 20
254.215
 30
-5.85927e-14
  70
    32
  0
VERTEX
  8
0
  5
23503
 10
-91.6678
 20
253.099
 30
-5.83696e-14
  70
    32
  0
VERTEX
  8
0
  5
23504
 10
-90.4198
 20
251.998
 30
-5.81494e-14
  70
    32
  0
VERTEX
  8
0
  5
23505
 10
-89.1581
 20
250.913
 30
-5.79323e-14
  70
    32
  0
VERTEX
  8
0
  5
23506
 10
-87.8830
 20
249.842
 30
-5.77182e-14
  70
    32
  0
VERTEX
  8
0
  5
23507
 10
-86.5947
 20
248.788
 30
-5.75072e-14
  70
    32
  0
VERTEX
  8
0
  5
23508
 10
-85.2933
 20
247.748
 30
-5.72994e-14
  70
    32
  0
VERTEX
  8
0
  5
23509
 10
-83.9791
 20
246.725
 30
-5.70947e-14
  70
    32
  0
VERTEX
  8
0
  5
2350A
 10
-82.6523
 20
245.718
 30
-5.68932e-14
  70
    32
  0
VERTEX
  8
0
  5
2350B
 10
-81.3130
 20
244.726
 30
-5.66950e-14
  70
    32
  0
VERTEX
  8
0
  5
2350C
 10
-79.9614
 20
243.751
 30
-5.65000e-14
  70
    32
  0
VERTEX
  8
0
  5
2350D
 10
-78.5978
 20
242.793
 30
-5.63083e-14
  70
    32
  0
VERTEX
  8
0
  5
2350E
 10
-77.2224
 20
241.851
 30
-5.61198e-14
  70
    32
  0
VERTEX
  8
0
  5
2350F
 10
-75.8353
 20
240.925
 30
-5.59348e-14
  70
    32
  0
VERTEX
  8
0
  5
23510
 10
-74.4369
 20
240.017
 30
-5.57531e-14
  70
    32
  0
VERTEX
  8
0
  5
23511
 10
-73.0272
 20
239.125
 30
-5.55748e-14
  70
    32
  0
VERTEX
  8
0
  5
23512
 10
-71.6065
 20
238.251
 30
-5.53999e-14
  70
    32
  0
VERTEX
  8
0
  5
23513
 10
-70.1750
 20
237.394
 30
-5.52284e-14
  70
    32
  0
VERTEX
  8
0
  5
23514
 10
-68.7330
 20
236.554
 30
-5.50605e-14
  70
    32
  0
VERTEX
  8
0
  5
23515
 10
-67.2806
 20
235.732
 30
-5.48960e-14
  70
    32
  0
VERTEX
  8
0
  5
23516
 10
-65.8181
 20
234.927
 30
-5.47351e-14
  70
    32
  0
VERTEX
  8
0
  5
23517
 10
-64.3457
 20
234.140
 30
-5.45777e-14
  70
    32
  0
VERTEX
  8
0
  5
23518
 10
-62.8635
 20
233.371
 30
-5.44239e-14
  70
    32
  0
VERTEX
  8
0
  5
23519
 10
-61.3719
 20
232.620
 30
-5.42737e-14
  70
    32
  0
VERTEX
  8
0
  5
2351A
 10
-59.8711
 20
231.887
 30
-5.41271e-14
  70
    32
  0
VERTEX
  8
0
  5
2351B
 10
-58.3613
 20
231.172
 30
-5.39841e-14
  70
    32
  0
VERTEX
  8
0
  5
2351C
 10
-56.8426
 20
230.475
 30
-5.38448e-14
  70
    32
  0
VERTEX
  8
0
  5
2351D
 10
-55.3154
 20
229.797
 30
-5.37092e-14
  70
    32
  0
VERTEX
  8
0
  5
2351E
 10
-53.7799
 20
229.138
 30
-5.35773e-14
  70
    32
  0
VERTEX
  8
0
  5
2351F
 10
-52.2363
 20
228.497
 30
-5.34491e-14
  70
    32
  0
VERTEX
  8
0
  5
23520
 10
-50.6848
 20
227.875
 30
-5.33246e-14
  70
    32
  0
VERTEX
  8
0
  5
23521
 10
-49.1257
 20
227.271
 30
-5.32040e-14
  70
    32
  0
VERTEX
  8
0
  5
23522
 10
-47.5591
 20
226.687
 30
-5.30871e-14
  70
    32
  0
VERTEX
  8
0
  5
23523
 10
-45.9855
 20
226.121
 30
-5.29739e-14
  70
    32
  0
VERTEX
  8
0
  5
23524
 10
-44.4049
 20
225.575
 30
-5.28646e-14
  70
    32
  0
VERTEX
  8
0
  5
23525
 10
-42.8176
 20
225.047
 30
-5.27592e-14
  70
    32
  0
VERTEX
  8
0
  5
23526
 10
-41.2238
 20
224.539
 30
-5.26576e-14
  70
    32
  0
VERTEX
  8
0
  5
23527
 10
-39.6239
 20
224.050
 30
-5.25598e-14
  70
    32
  0
VERTEX
  8
0
  5
23528
 10
-38.0179
 20
223.581
 30
-5.24659e-14
  70
    32
  0
VERTEX
  8
0
  5
23529
 10
-36.4063
 20
223.131
 30
-5.23759e-14
  70
    32
  0
VERTEX
  8
0
  5
2352A
 10
-34.7892
 20
222.701
 30
-5.22899e-14
  70
    32
  0
VERTEX
  8
0
  5
2352B
 10
-33.1668
 20
222.290
 30
-5.22077e-14
  70
    32
  0
VERTEX
  8
0
  5
2352C
 10
-31.5394
 20
221.899
 30
-5.21294e-14
  70
    32
  0
VERTEX
  8
0
  5
2352D
 10
-29.9073
 20
221.527
 30
-5.20551e-14
  70
    32
  0
VERTEX
  8
0
  5
2352E
 10
-28.2707
 20
221.175
 30
-5.19848e-14
  70
    32
  0
VERTEX
  8
0
  5
2352F
 10
-26.6298
 20
220.843
 30
-5.19184e-14
  70
    32
  0
VERTEX
  8
0
  5
23530
 10
-24.9849
 20
220.531
 30
-5.18560e-14
  70
    32
  0
VERTEX
  8
0
  5
23531
 10
-23.3363
 20
220.239
 30
-5.17976e-14
  70
    32
  0
VERTEX
  8
0
  5
23532
 10
-21.6841
 20
219.967
 30
-5.17431e-14
  70
    32
  0
VERTEX
  8
0
  5
23533
 10
-20.0287
 20
219.715
 30
-5.16927e-14
  70
    32
  0
VERTEX
  8
0
  5
23534
 10
-18.3703
 20
219.483
 30
-5.16463e-14
  70
    32
  0
VERTEX
  8
0
  5
23535
 10
-16.7091
 20
219.271
 30
-5.16039e-14
  70
    32
  0
VERTEX
  8
0
  5
23536
 10
-15.0453
 20
219.079
 30
-5.15655e-14
  70
    32
  0
VERTEX
  8
0
  5
23537
 10
-13.3793
 20
218.907
 30
-5.15311e-14
  70
    32
  0
VERTEX
  8
0
  5
23538
 10
-11.7113
 20
218.755
 30
-5.15008e-14
  70
    32
  0
VERTEX
  8
0
  5
23539
 10
-10.0416
 20
218.624
 30
-5.14745e-14
  70
    32
  0
VERTEX
  8
0
  5
2353A
 10
-8.37028
 20
218.512
 30
-5.14522e-14
  70
    32
  0
VERTEX
  8
0
  5
2353B
 10
-6.69774
 20
218.421
 30
-5.14340e-14
  70
    32
  0
VERTEX
  8
0
  5
2353C
 10
-5.02419
 20
218.350
 30
-5.14198e-14
  70
    32
  0
VERTEX
  8
0
  5
2353D
 10
-3.34988
 20
218.300
 30
-5.14097e-14
  70
    32
  0
VERTEX
  8
0
  5
2353E
 10
-1.67506
 20
218.269
 30
-5.14036e-14
  70
    32
  0
VERTEX
  8
0
  5
2353F
 10
1.25529e-13
 20
218.259
 30
-5.14016e-14
  70
    32
  0
SEQEND
  8
0
  5
23540
  0
LINE
  5
231A8
  8
0
  6
CONTINUOUS
 62
     3
 10
136.5
 20
357.6635090490200923
 30
-0.0000000000000794
 11
136.5
 21
352.751390224298973
 31
-0.0000000000000783
210
0.0
220
1.0
230
-0.0000000000000002
  0
LINE
  5
231A9
  8
0
  6
CONTINUOUS
 62
     3
 10
-136.5
 20
357.6635090490200923
 30
-0.0000000000000794
 11
-136.5
 21
352.751390224298973
 31
-0.0000000000000783
210
0.0
220
1.0
230
-0.0000000000000002
  0
POLYLINE
  5
231AA
  8
0
  6
CONTINUOUS
 62
     3
 10
-106.3353632058043843
 20
277.3278982193059505
 30
-0.0000000000000609
 66
     1
 70
     8
  0
VERTEX
  8
0
  5
23541
 10
-106.335
 20
277.328
 30
-6.08955e-14
  70
    32
  0
VERTEX
  8
0
  5
23542
 10
-105.164
 20
277.944
 30
-6.10188e-14
  70
    32
  0
VERTEX
  8
0
  5
23543
 10
-103.972
 20
278.554
 30
-6.11407e-14
  70
    32
  0
VERTEX
  8
0
  5
23544
 10
-102.757
 20
279.157
 30
-6.12613e-14
  70
    32
  0
VERTEX
  8
0
  5
23545
 10
-101.521
 20
279.752
 30
-6.13803e-14
  70
    32
  0
VERTEX
  8
0
  5
23546
 10
-100.264
 20
280.340
 30
-6.14980e-14
  70
    32
  0
VERTEX
  8
0
  5
23547
 10
-98.9863
 20
280.921
 30
-6.16142e-14
  70
    32
  0
VERTEX
  8
0
  5
23548
 10
-97.6877
 20
281.494
 30
-6.17288e-14
  70
    32
  0
VERTEX
  8
0
  5
23549
 10
-96.3689
 20
282.060
 30
-6.18420e-14
  70
    32
  0
VERTEX
  8
0
  5
2354A
 10
-95.0300
 20
282.618
 30
-6.19535e-14
  70
    32
  0
VERTEX
  8
0
  5
2354B
 10
-93.6713
 20
283.168
 30
-6.20636e-14
  70
    32
  0
VERTEX
  8
0
  5
2354C
 10
-92.2931
 20
283.710
 30
-6.21720e-14
  70
    32
  0
VERTEX
  8
0
  5
2354D
 10
-90.8956
 20
284.244
 30
-6.22788e-14
  70
    32
  0
VERTEX
  8
0
  5
2354E
 10
-89.4793
 20
284.770
 30
-6.23839e-14
  70
    32
  0
VERTEX
  8
0
  5
2354F
 10
-88.0443
 20
285.288
 30
-6.24874e-14
  70
    32
  0
VERTEX
  8
0
  5
23550
 10
-86.5910
 20
285.797
 30
-6.25892e-14
  70
    32
  0
VERTEX
  8
0
  5
23551
 10
-85.1197
 20
286.297
 30
-6.26893e-14
  70
    32
  0
VERTEX
  8
0
  5
23552
 10
-83.6306
 20
286.789
 30
-6.27877e-14
  70
    32
  0
VERTEX
  8
0
  5
23553
 10
-82.1241
 20
287.272
 30
-6.28844e-14
  70
    32
  0
VERTEX
  8
0
  5
23554
 10
-80.6006
 20
287.747
 30
-6.29792e-14
  70
    32
  0
VERTEX
  8
0
  5
23555
 10
-79.0602
 20
288.212
 30
-6.30723e-14
  70
    32
  0
VERTEX
  8
0
  5
23556
 10
-77.5034
 20
288.668
 30
-6.31636e-14
  70
    32
  0
VERTEX
  8
0
  5
23557
 10
-75.9304
 20
289.116
 30
-6.32530e-14
  70
    32
  0
VERTEX
  8
0
  5
23558
 10
-74.3417
 20
289.554
 30
-6.33407e-14
  70
    32
  0
VERTEX
  8
0
  5
23559
 10
-72.7374
 20
289.982
 30
-6.34264e-14
  70
    32
  0
VERTEX
  8
0
  5
2355A
 10
-71.1180
 20
290.402
 30
-6.35103e-14
  70
    32
  0
VERTEX
  8
0
  5
2355B
 10
-69.4838
 20
290.812
 30
-6.35922e-14
  70
    32
  0
VERTEX
  8
0
  5
2355C
 10
-67.8352
 20
291.212
 30
-6.36723e-14
  70
    32
  0
VERTEX
  8
0
  5
2355D
 10
-66.1724
 20
291.603
 30
-6.37504e-14
  70
    32
  0
VERTEX
  8
0
  5
2355E
 10
-64.4958
 20
291.983
 30
-6.38266e-14
  70
    32
  0
VERTEX
  8
0
  5
2355F
 10
-62.8058
 20
292.355
 30
-6.39008e-14
  70
    32
  0
VERTEX
  8
0
  5
23560
 10
-61.1028
 20
292.716
 30
-6.39731e-14
  70
    32
  0
VERTEX
  8
0
  5
23561
 10
-59.3870
 20
293.067
 30
-6.40433e-14
  70
    32
  0
VERTEX
  8
0
  5
23562
 10
-57.6588
 20
293.408
 30
-6.41116e-14
  70
    32
  0
VERTEX
  8
0
  5
23563
 10
-55.9187
 20
293.739
 30
-6.41778e-14
  70
    32
  0
VERTEX
  8
0
  5
23564
 10
-54.1669
 20
294.060
 30
-6.42419e-14
  70
    32
  0
VERTEX
  8
0
  5
23565
 10
-52.4038
 20
294.371
 30
-6.43041e-14
  70
    32
  0
VERTEX
  8
0
  5
23566
 10
-50.6298
 20
294.671
 30
-6.43641e-14
  70
    32
  0
VERTEX
  8
0
  5
23567
 10
-48.8452
 20
294.961
 30
-6.44221e-14
  70
    32
  0
VERTEX
  8
0
  5
23568
 10
-47.0505
 20
295.241
 30
-6.44780e-14
  70
    32
  0
VERTEX
  8
0
  5
23569
 10
-45.2460
 20
295.510
 30
-6.45319e-14
  70
    32
  0
VERTEX
  8
0
  5
2356A
 10
-43.4321
 20
295.768
 30
-6.45836e-14
  70
    32
  0
VERTEX
  8
0
  5
2356B
 10
-41.6091
 20
296.016
 30
-6.46331e-14
  70
    32
  0
VERTEX
  8
0
  5
2356C
 10
-39.7775
 20
296.253
 30
-6.46806e-14
  70
    32
  0
VERTEX
  8
0
  5
2356D
 10
-37.9376
 20
296.480
 30
-6.47259e-14
  70
    32
  0
VERTEX
  8
0
  5
2356E
 10
-36.0898
 20
296.696
 30
-6.47691e-14
  70
    32
  0
VERTEX
  8
0
  5
2356F
 10
-34.2345
 20
296.901
 30
-6.48101e-14
  70
    32
  0
VERTEX
  8
0
  5
23570
 10
-32.3720
 20
297.095
 30
-6.48489e-14
  70
    32
  0
VERTEX
  8
0
  5
23571
 10
-30.5028
 20
297.278
 30
-6.48855e-14
  70
    32
  0
VERTEX
  8
0
  5
23572
 10
-28.6273
 20
297.450
 30
-6.49200e-14
  70
    32
  0
VERTEX
  8
0
  5
23573
 10
-26.7458
 20
297.612
 30
-6.49523e-14
  70
    32
  0
VERTEX
  8
0
  5
23574
 10
-24.8587
 20
297.762
 30
-6.49824e-14
  70
    32
  0
VERTEX
  8
0
  5
23575
 10
-22.9665
 20
297.902
 30
-6.50103e-14
  70
    32
  0
VERTEX
  8
0
  5
23576
 10
-21.0694
 20
298.030
 30
-6.50359e-14
  70
    32
  0
VERTEX
  8
0
  5
23577
 10
-19.1680
 20
298.147
 30
-6.50594e-14
  70
    32
  0
VERTEX
  8
0
  5
23578
 10
-17.2626
 20
298.254
 30
-6.50806e-14
  70
    32
  0
VERTEX
  8
0
  5
23579
 10
-15.3536
 20
298.349
 30
-6.50997e-14
  70
    32
  0
VERTEX
  8
0
  5
2357A
 10
-13.4414
 20
298.433
 30
-6.51164e-14
  70
    32
  0
VERTEX
  8
0
  5
2357B
 10
-11.5264
 20
298.505
 30
-6.51310e-14
  70
    32
  0
VERTEX
  8
0
  5
2357C
 10
-9.60900
 20
298.567
 30
-6.51433e-14
  70
    32
  0
VERTEX
  8
0
  5
2357D
 10
-7.68960
 20
298.617
 30
-6.51534e-14
  70
    32
  0
VERTEX
  8
0
  5
2357E
 10
-5.76860
 20
298.657
 30
-6.51612e-14
  70
    32
  0
VERTEX
  8
0
  5
2357F
 10
-3.84640
 20
298.685
 30
-6.51669e-14
  70
    32
  0
VERTEX
  8
0
  5
23580
 10
-1.92340
 20
298.702
 30
-6.51702e-14
  70
    32
  0
VERTEX
  8
0
  5
23581
 10
4.57825e-14
 20
298.707
 30
-6.51713e-14
  70
    32
  0
VERTEX
  8
0
  5
23582
 10
1.92340
 20
298.702
 30
-6.51702e-14
  70
    32
  0
VERTEX
  8
0
  5
23583
 10
3.84640
 20
298.685
 30
-6.51669e-14
  70
    32
  0
VERTEX
  8
0
  5
23584
 10
5.76860
 20
298.657
 30
-6.51612e-14
  70
    32
  0
VERTEX
  8
0
  5
23585
 10
7.68960
 20
298.617
 30
-6.51534e-14
  70
    32
  0
VERTEX
  8
0
  5
23586
 10
9.60900
 20
298.567
 30
-6.51433e-14
  70
    32
  0
VERTEX
  8
0
  5
23587
 10
11.5264
 20
298.505
 30
-6.51310e-14
  70
    32
  0
VERTEX
  8
0
  5
23588
 10
13.4414
 20
298.433
 30
-6.51164e-14
  70
    32
  0
VERTEX
  8
0
  5
23589
 10
15.3536
 20
298.349
 30
-6.50997e-14
  70
    32
  0
VERTEX
  8
0
  5
2358A
 10
17.2626
 20
298.254
 30
-6.50806e-14
  70
    32
  0
VERTEX
  8
0
  5
2358B
 10
19.1680
 20
298.147
 30
-6.50594e-14
  70
    32
  0
VERTEX
  8
0
  5
2358C
 10
21.0694
 20
298.030
 30
-6.50359e-14
  70
    32
  0
VERTEX
  8
0
  5
2358D
 10
22.9665
 20
297.902
 30
-6.50103e-14
  70
    32
  0
VERTEX
  8
0
  5
2358E
 10
24.8587
 20
297.762
 30
-6.49824e-14
  70
    32
  0
VERTEX
  8
0
  5
2358F
 10
26.7458
 20
297.612
 30
-6.49523e-14
  70
    32
  0
VERTEX
  8
0
  5
23590
 10
28.6273
 20
297.450
 30
-6.49200e-14
  70
    32
  0
VERTEX
  8
0
  5
23591
 10
30.5028
 20
297.278
 30
-6.48855e-14
  70
    32
  0
VERTEX
  8
0
  5
23592
 10
32.3720
 20
297.095
 30
-6.48489e-14
  70
    32
  0
VERTEX
  8
0
  5
23593
 10
34.2345
 20
296.901
 30
-6.48101e-14
  70
    32
  0
VERTEX
  8
0
  5
23594
 10
36.0898
 20
296.696
 30
-6.47691e-14
  70
    32
  0
VERTEX
  8
0
  5
23595
 10
37.9376
 20
296.480
 30
-6.47259e-14
  70
    32
  0
VERTEX
  8
0
  5
23596
 10
39.7775
 20
296.253
 30
-6.46806e-14
  70
    32
  0
VERTEX
  8
0
  5
23597
 10
41.6091
 20
296.016
 30
-6.46331e-14
  70
    32
  0
VERTEX
  8
0
  5
23598
 10
43.4321
 20
295.768
 30
-6.45836e-14
  70
    32
  0
VERTEX
  8
0
  5
23599
 10
45.2460
 20
295.510
 30
-6.45319e-14
  70
    32
  0
VERTEX
  8
0
  5
2359A
 10
47.0505
 20
295.241
 30
-6.44780e-14
  70
    32
  0
VERTEX
  8
0
  5
2359B
 10
48.8452
 20
294.961
 30
-6.44221e-14
  70
    32
  0
VERTEX
  8
0
  5
2359C
 10
50.6298
 20
294.671
 30
-6.43641e-14
  70
    32
  0
VERTEX
  8
0
  5
2359D
 10
52.4038
 20
294.371
 30
-6.43041e-14
  70
    32
  0
VERTEX
  8
0
  5
2359E
 10
54.1669
 20
294.060
 30
-6.42419e-14
  70
    32
  0
VERTEX
  8
0
  5
2359F
 10
55.9187
 20
293.739
 30
-6.41778e-14
  70
    32
  0
VERTEX
  8
0
  5
235A0
 10
57.6588
 20
293.408
 30
-6.41116e-14
  70
    32
  0
VERTEX
  8
0
  5
235A1
 10
59.3870
 20
293.067
 30
-6.40433e-14
  70
    32
  0
VERTEX
  8
0
  5
235A2
 10
61.1028
 20
292.716
 30
-6.39731e-14
  70
    32
  0
VERTEX
  8
0
  5
235A3
 10
62.8058
 20
292.355
 30
-6.39008e-14
  70
    32
  0
VERTEX
  8
0
  5
235A4
 10
64.4958
 20
291.983
 30
-6.38266e-14
  70
    32
  0
VERTEX
  8
0
  5
235A5
 10
66.1724
 20
291.603
 30
-6.37504e-14
  70
    32
  0
VERTEX
  8
0
  5
235A6
 10
67.8352
 20
291.212
 30
-6.36723e-14
  70
    32
  0
VERTEX
  8
0
  5
235A7
 10
69.4838
 20
290.812
 30
-6.35922e-14
  70
    32
  0
VERTEX
  8
0
  5
235A8
 10
71.1180
 20
290.402
 30
-6.35103e-14
  70
    32
  0
VERTEX
  8
0
  5
235A9
 10
72.7374
 20
289.982
 30
-6.34264e-14
  70
    32
  0
VERTEX
  8
0
  5
235AA
 10
74.3417
 20
289.554
 30
-6.33407e-14
  70
    32
  0
VERTEX
  8
0
  5
235AB
 10
75.9304
 20
289.116
 30
-6.32530e-14
  70
    32
  0
VERTEX
  8
0
  5
235AC
 10
77.5034
 20
288.668
 30
-6.31636e-14
  70
    32
  0
VERTEX
  8
0
  5
235AD
 10
79.0602
 20
288.212
 30
-6.30723e-14
  70
    32
  0
VERTEX
  8
0
  5
235AE
 10
80.6006
 20
287.747
 30
-6.29792e-14
  70
    32
  0
VERTEX
  8
0
  5
235AF
 10
82.1241
 20
287.272
 30
-6.28844e-14
  70
    32
  0
VERTEX
  8
0
  5
235B0
 10
83.6306
 20
286.789
 30
-6.27877e-14
  70
    32
  0
VERTEX
  8
0
  5
235B1
 10
85.1197
 20
286.297
 30
-6.26893e-14
  70
    32
  0
VERTEX
  8
0
  5
235B2
 10
86.5910
 20
285.797
 30
-6.25892e-14
  70
    32
  0
VERTEX
  8
0
  5
235B3
 10
88.0443
 20
285.288
 30
-6.24874e-14
  70
    32
  0
VERTEX
  8
0
  5
235B4
 10
89.4793
 20
284.770
 30
-6.23839e-14
  70
    32
  0
VERTEX
  8
0
  5
235B5
 10
90.8956
 20
284.244
 30
-6.22788e-14
  70
    32
  0
VERTEX
  8
0
  5
235B6
 10
92.2931
 20
283.710
 30
-6.21720e-14
  70
    32
  0
VERTEX
  8
0
  5
235B7
 10
93.6713
 20
283.168
 30
-6.20636e-14
  70
    32
  0
VERTEX
  8
0
  5
235B8
 10
95.0300
 20
282.618
 30
-6.19535e-14
  70
    32
  0
VERTEX
  8
0
  5
235B9
 10
96.3689
 20
282.060
 30
-6.18420e-14
  70
    32
  0
VERTEX
  8
0
  5
235BA
 10
97.6877
 20
281.494
 30
-6.17288e-14
  70
    32
  0
VERTEX
  8
0
  5
235BB
 10
98.9863
 20
280.921
 30
-6.16142e-14
  70
    32
  0
VERTEX
  8
0
  5
235BC
 10
100.264
 20
280.340
 30
-6.14980e-14
  70
    32
  0
VERTEX
  8
0
  5
235BD
 10
101.521
 20
279.752
 30
-6.13803e-14
  70
    32
  0
VERTEX
  8
0
  5
235BE
 10
102.757
 20
279.157
 30
-6.12613e-14
  70
    32
  0
VERTEX
  8
0
  5
235BF
 10
103.972
 20
278.554
 30
-6.11407e-14
  70
    32
  0
VERTEX
  8
0
  5
235C0
 10
105.164
 20
277.944
 30
-6.10188e-14
  70
    32
  0
VERTEX
  8
0
  5
235C1
 10
106.335
 20
277.328
 30
-6.08955e-14
  70
    32
  0
SEQEND
  8
0
  5
235C2
  0
LINE
  5
231AB
  8
0
  6
CONTINUOUS
 62
     3
 10
136.4999999999998863
 20
104.0999999999999943
 30
-0.0000000000000231
 11
-136.4999999999998863
 21
104.0999999999999943
 31
-0.0000000000000231
210
0.0
220
1.0
230
-0.0000000000000002
  0
POLYLINE
  5
231AC
  8
0
  6
CONTINUOUS
 62
     3
 10
-0.0000000000000695
 20
189.7008403470023552
 30
-0.0000000000000434
 66
     1
 70
     8
  0
VERTEX
  8
0
  5
235C3
 10
-6.94882e-14
 20
189.701
 30
-4.33701e-14
  70
    32
  0
VERTEX
  8
0
  5
235C4
 10
-1.67506
 20
189.705
 30
-4.33709e-14
  70
    32
  0
VERTEX
  8
0
  5
235C5
 10
-3.34988
 20
189.717
 30
-4.33734e-14
  70
    32
  0
VERTEX
  8
0
  5
235C6
 10
-5.02419
 20
189.738
 30
-4.33776e-14
  70
    32
  0
VERTEX
  8
0
  5
235C7
 10
-6.69774
 20
189.767
 30
-4.33834e-14
  70
    32
  0
VERTEX
  8
0
  5
235C8
 10
-8.37028
 20
189.805
 30
-4.33908e-14
  70
    32
  0
VERTEX
  8
0
  5
235C9
 10
-10.0416
 20
189.850
 30
-4.34000e-14
  70
    32
  0
VERTEX
  8
0
  5
235CA
 10
-11.7113
 20
189.904
 30
-4.34108e-14
  70
    32
  0
VERTEX
  8
0
  5
235CB
 10
-13.3793
 20
189.966
 30
-4.34232e-14
  70
    32
  0
VERTEX
  8
0
  5
235CC
 10
-15.0453
 20
190.037
 30
-4.34373e-14
  70
    32
  0
VERTEX
  8
0
  5
235CD
 10
-16.7091
 20
190.116
 30
-4.34530e-14
  70
    32
  0
VERTEX
  8
0
  5
235CE
 10
-18.3703
 20
190.203
 30
-4.34704e-14
  70
    32
  0
VERTEX
  8
0
  5
235CF
 10
-20.0287
 20
190.298
 30
-4.34895e-14
  70
    32
  0
VERTEX
  8
0
  5
235D0
 10
-21.6841
 20
190.401
 30
-4.35101e-14
  70
    32
  0
VERTEX
  8
0
  5
235D1
 10
-23.3363
 20
190.513
 30
-4.35325e-14
  70
    32
  0
VERTEX
  8
0
  5
235D2
 10
-24.9849
 20
190.633
 30
-4.35564e-14
  70
    32
  0
VERTEX
  8
0
  5
235D3
 10
-26.6298
 20
190.761
 30
-4.35820e-14
  70
    32
  0
VERTEX
  8
0
  5
235D4
 10
-28.2707
 20
190.897
 30
-4.36092e-14
  70
    32
  0
VERTEX
  8
0
  5
235D5
 10
-29.9073
 20
191.041
 30
-4.36381e-14
  70
    32
  0
VERTEX
  8
0
  5
235D6
 10
-31.5394
 20
191.193
 30
-4.36686e-14
  70
    32
  0
VERTEX
  8
0
  5
235D7
 10
-33.1668
 20
191.354
 30
-4.37006e-14
  70
    32
  0
VERTEX
  8
0
  5
235D8
 10
-34.7892
 20
191.522
 30
-4.37343e-14
  70
    32
  0
VERTEX
  8
0
  5
235D9
 10
-36.4063
 20
191.699
 30
-4.37696e-14
  70
    32
  0
VERTEX
  8
0
  5
235DA
 10
-38.0179
 20
191.883
 30
-4.38065e-14
  70
    32
  0
VERTEX
  8
0
  5
235DB
 10
-39.6239
 20
192.076
 30
-4.38450e-14
  70
    32
  0
VERTEX
  8
0
  5
235DC
 10
-41.2238
 20
192.276
 30
-4.38851e-14
  70
    32
  0
VERTEX
  8
0
  5
235DD
 10
-42.8176
 20
192.484
 30
-4.39268e-14
  70
    32
  0
VERTEX
  8
0
  5
235DE
 10
-44.4049
 20
192.701
 30
-4.39700e-14
  70
    32
  0
VERTEX
  8
0
  5
235DF
 10
-45.9855
 20
192.925
 30
-4.40148e-14
  70
    32
  0
VERTEX
  8
0
  5
235E0
 10
-47.5591
 20
193.157
 30
-4.40612e-14
  70
    32
  0
VERTEX
  8
0
  5
235E1
 10
-49.1257
 20
193.396
 30
-4.41092e-14
  70
    32
  0
VERTEX
  8
0
  5
235E2
 10
-50.6848
 20
193.644
 30
-4.41587e-14
  70
    32
  0
VERTEX
  8
0
  5
235E3
 10
-52.2363
 20
193.899
 30
-4.42097e-14
  70
    32
  0
VERTEX
  8
0
  5
235E4
 10
-53.7799
 20
194.162
 30
-4.42623e-14
  70
    32
  0
VERTEX
  8
0
  5
235E5
 10
-55.3154
 20
194.432
 30
-4.43163e-14
  70
    32
  0
VERTEX
  8
0
  5
235E6
 10
-56.8426
 20
194.710
 30
-4.43720e-14
  70
    32
  0
VERTEX
  8
0
  5
235E7
 10
-58.3613
 20
194.996
 30
-4.44291e-14
  70
    32
  0
VERTEX
  8
0
  5
235E8
 10
-59.8711
 20
195.289
 30
-4.44877e-14
  70
    32
  0
VERTEX
  8
0
  5
235E9
 10
-61.3719
 20
195.589
 30
-4.45478e-14
  70
    32
  0
VERTEX
  8
0
  5
235EA
 10
-62.8635
 20
195.897
 30
-4.46094e-14
  70
    32
  0
VERTEX
  8
0
  5
235EB
 10
-64.3457
 20
196.213
 30
-4.46725e-14
  70
    32
  0
VERTEX
  8
0
  5
235EC
 10
-65.8181
 20
196.536
 30
-4.47370e-14
  70
    32
  0
VERTEX
  8
0
  5
235ED
 10
-67.2806
 20
196.865
 30
-4.48030e-14
  70
    32
  0
VERTEX
  8
0
  5
235EE
 10
-68.7330
 20
197.203
 30
-4.48705e-14
  70
    32
  0
VERTEX
  8
0
  5
235EF
 10
-70.1750
 20
197.547
 30
-4.49393e-14
  70
    32
  0
VERTEX
  8
0
  5
235F0
 10
-71.6065
 20
197.899
 30
-4.50096e-14
  70
    32
  0
VERTEX
  8
0
  5
235F1
 10
-73.0272
 20
198.257
 30
-4.50813e-14
  70
    32
  0
VERTEX
  8
0
  5
235F2
 10
-74.4369
 20
198.623
 30
-4.51545e-14
  70
    32
  0
VERTEX
  8
0
  5
235F3
 10
-75.8353
 20
198.995
 30
-4.52290e-14
  70
    32
  0
VERTEX
  8
0
  5
235F4
 10
-77.2224
 20
199.375
 30
-4.53048e-14
  70
    32
  0
VERTEX
  8
0
  5
235F5
 10
-78.5978
 20
199.761
 30
-4.53821e-14
  70
    32
  0
VERTEX
  8
0
  5
235F6
 10
-79.9614
 20
200.154
 30
-4.54607e-14
  70
    32
  0
VERTEX
  8
0
  5
235F7
 10
-81.3130
 20
200.554
 30
-4.55407e-14
  70
    32
  0
VERTEX
  8
0
  5
235F8
 10
-82.6523
 20
200.960
 30
-4.56220e-14
  70
    32
  0
VERTEX
  8
0
  5
235F9
 10
-83.9791
 20
201.373
 30
-4.57046e-14
  70
    32
  0
VERTEX
  8
0
  5
235FA
 10
-85.2933
 20
201.793
 30
-4.57885e-14
  70
    32
  0
VERTEX
  8
0
  5
235FB
 10
-86.5947
 20
202.219
 30
-4.58738e-14
  70
    32
  0
VERTEX
  8
0
  5
235FC
 10
-87.8830
 20
202.652
 30
-4.59603e-14
  70
    32
  0
VERTEX
  8
0
  5
235FD
 10
-89.1581
 20
203.091
 30
-4.60481e-14
  70
    32
  0
VERTEX
  8
0
  5
235FE
 10
-90.4198
 20
203.536
 30
-4.61371e-14
  70
    32
  0
VERTEX
  8
0
  5
235FF
 10
-91.6678
 20
203.987
 30
-4.62274e-14
  70
    32
  0
VERTEX
  8
0
  5
23600
 10
-92.9020
 20
204.445
 30
-4.63189e-14
  70
    32
  0
VERTEX
  8
0
  5
23601
 10
-94.1223
 20
204.908
 30
-4.64116e-14
  70
    32
  0
VERTEX
  8
0
  5
23602
 10
-95.3284
 20
205.378
 30
-4.65055e-14
  70
    32
  0
VERTEX
  8
0
  5
23603
 10
-96.5201
 20
205.854
 30
-4.66007e-14
  70
    32
  0
VERTEX
  8
0
  5
23604
 10
-97.6973
 20
206.335
 30
-4.66970e-14
  70
    32
  0
VERTEX
  8
0
  5
23605
 10
-98.8597
 20
206.823
 30
-4.67944e-14
  70
    32
  0
VERTEX
  8
0
  5
23606
 10
-100.007
 20
207.316
 30
-4.68930e-14
  70
    32
  0
VERTEX
  8
0
  5
23607
 10
-101.140
 20
207.814
 30
-4.69928e-14
  70
    32
  0
VERTEX
  8
0
  5
23608
 10
-102.257
 20
208.318
 30
-4.70936e-14
  70
    32
  0
VERTEX
  8
0
  5
23609
 10
-103.359
 20
208.828
 30
-4.71956e-14
  70
    32
  0
VERTEX
  8
0
  5
2360A
 10
-104.445
 20
209.343
 30
-4.72986e-14
  70
    32
  0
VERTEX
  8
0
  5
2360B
 10
-105.516
 20
209.864
 30
-4.74027e-14
  70
    32
  0
VERTEX
  8
0
  5
2360C
 10
-106.571
 20
210.390
 30
-4.75079e-14
  70
    32
  0
VERTEX
  8
0
  5
2360D
 10
-107.609
 20
210.921
 30
-4.76140e-14
  70
    32
  0
VERTEX
  8
0
  5
2360E
 10
-108.632
 20
211.457
 30
-4.77213e-14
  70
    32
  0
VERTEX
  8
0
  5
2360F
 10
-109.638
 20
211.998
 30
-4.78295e-14
  70
    32
  0
VERTEX
  8
0
  5
23610
 10
-110.627
 20
212.544
 30
-4.79387e-14
  70
    32
  0
VERTEX
  8
0
  5
23611
 10
-111.600
 20
213.095
 30
-4.80489e-14
  70
    32
  0
VERTEX
  8
0
  5
23612
 10
-112.556
 20
213.651
 30
-4.81600e-14
  70
    32
  0
VERTEX
  8
0
  5
23613
 10
-113.496
 20
214.211
 30
-4.82721e-14
  70
    32
  0
VERTEX
  8
0
  5
23614
 10
-114.418
 20
214.776
 30
-4.83851e-14
  70
    32
  0
VERTEX
  8
0
  5
23615
 10
-115.323
 20
215.346
 30
-4.84990e-14
  70
    32
  0
VERTEX
  8
0
  5
23616
 10
-116.210
 20
215.920
 30
-4.86138e-14
  70
    32
  0
VERTEX
  8
0
  5
23617
 10
-117.080
 20
216.498
 30
-4.87295e-14
  70
    32
  0
VERTEX
  8
0
  5
23618
 10
-117.932
 20
217.080
 30
-4.88460e-14
  70
    32
  0
VERTEX
  8
0
  5
23619
 10
-118.767
 20
217.667
 30
-4.89634e-14
  70
    32
  0
VERTEX
  8
0
  5
2361A
 10
-119.584
 20
218.258
 30
-4.90816e-14
  70
    32
  0
VERTEX
  8
0
  5
2361B
 10
-120.382
 20
218.853
 30
-4.92005e-14
  70
    32
  0
VERTEX
  8
0
  5
2361C
 10
-121.163
 20
219.452
 30
-4.93203e-14
  70
    32
  0
VERTEX
  8
0
  5
2361D
 10
-121.925
 20
220.055
 30
-4.94408e-14
  70
    32
  0
VERTEX
  8
0
  5
2361E
 10
-122.669
 20
220.661
 30
-4.95621e-14
  70
    32
  0
VERTEX
  8
0
  5
2361F
 10
-123.395
 20
221.271
 30
-4.96841e-14
  70
    32
  0
VERTEX
  8
0
  5
23620
 10
-124.101
 20
221.885
 30
-4.98068e-14
  70
    32
  0
VERTEX
  8
0
  5
23621
 10
-124.790
 20
222.502
 30
-4.99302e-14
  70
    32
  0
VERTEX
  8
0
  5
23622
 10
-125.459
 20
223.122
 30
-5.00543e-14
  70
    32
  0
VERTEX
  8
0
  5
23623
 10
-126.110
 20
223.746
 30
-5.01790e-14
  70
    32
  0
VERTEX
  8
0
  5
23624
 10
-126.741
 20
224.372
 30
-5.03044e-14
  70
    32
  0
VERTEX
  8
0
  5
23625
 10
-127.354
 20
225.002
 30
-5.04304e-14
  70
    32
  0
VERTEX
  8
0
  5
23626
 10
-127.947
 20
225.635
 30
-5.05570e-14
  70
    32
  0
VERTEX
  8
0
  5
23627
 10
-128.521
 20
226.271
 30
-5.06841e-14
  70
    32
  0
VERTEX
  8
0
  5
23628
 10
-129.075
 20
226.910
 30
-5.08119e-14
  70
    32
  0
VERTEX
  8
0
  5
23629
 10
-129.611
 20
227.551
 30
-5.09401e-14
  70
    32
  0
VERTEX
  8
0
  5
2362A
 10
-130.126
 20
228.195
 30
-5.10689e-14
  70
    32
  0
VERTEX
  8
0
  5
2362B
 10
-130.622
 20
228.841
 30
-5.11982e-14
  70
    32
  0
VERTEX
  8
0
  5
2362C
 10
-131.099
 20
229.490
 30
-5.13280e-14
  70
    32
  0
VERTEX
  8
0
  5
2362D
 10
-131.555
 20
230.141
 30
-5.14582e-14
  70
    32
  0
VERTEX
  8
0
  5
2362E
 10
-131.992
 20
230.795
 30
-5.15889e-14
  70
    32
  0
VERTEX
  8
0
  5
2362F
 10
-132.409
 20
231.450
 30
-5.17199e-14
  70
    32
  0
VERTEX
  8
0
  5
23630
 10
-132.806
 20
232.108
 30
-5.18514e-14
  70
    32
  0
VERTEX
  8
0
  5
23631
 10
-133.183
 20
232.767
 30
-5.19833e-14
  70
    32
  0
VERTEX
  8
0
  5
23632
 10
-133.540
 20
233.428
 30
-5.21156e-14
  70
    32
  0
VERTEX
  8
0
  5
23633
 10
-133.877
 20
234.091
 30
-5.22482e-14
  70
    32
  0
VERTEX
  8
0
  5
23634
 10
-134.194
 20
234.756
 30
-5.23811e-14
  70
    32
  0
VERTEX
  8
0
  5
23635
 10
-134.490
 20
235.422
 30
-5.25143e-14
  70
    32
  0
VERTEX
  8
0
  5
23636
 10
-134.767
 20
236.089
 30
-5.26478e-14
  70
    32
  0
VERTEX
  8
0
  5
23637
 10
-135.023
 20
236.758
 30
-5.27816e-14
  70
    32
  0
VERTEX
  8
0
  5
23638
 10
-135.258
 20
237.428
 30
-5.29156e-14
  70
    32
  0
VERTEX
  8
0
  5
23639
 10
-135.473
 20
238.100
 30
-5.30498e-14
  70
    32
  0
VERTEX
  8
0
  5
2363A
 10
-135.668
 20
238.772
 30
-5.31843e-14
  70
    32
  0
VERTEX
  8
0
  5
2363B
 10
-135.843
 20
239.445
 30
-5.33189e-14
  70
    32
  0
VERTEX
  8
0
  5
2363C
 10
-135.997
 20
240.119
 30
-5.34537e-14
  70
    32
  0
VERTEX
  8
0
  5
2363D
 10
-136.130
 20
240.793
 30
-5.35886e-14
  70
    32
  0
VERTEX
  8
0
  5
2363E
 10
-136.243
 20
241.469
 30
-5.37236e-14
  70
    32
  0
VERTEX
  8
0
  5
2363F
 10
-136.336
 20
242.144
 30
-5.38588e-14
  70
    32
  0
VERTEX
  8
0
  5
23640
 10
-136.408
 20
242.821
 30
-5.39940e-14
  70
    32
  0
VERTEX
  8
0
  5
23641
 10
-136.459
 20
243.497
 30
-5.41293e-14
  70
    32
  0
VERTEX
  8
0
  5
23642
 10
-136.490
 20
244.174
 30
-5.42646e-14
  70
    32
  0
VERTEX
  8
0
  5
23643
 10
-136.500
 20
244.850
 30
-5.44000e-14
  70
    32
  0
SEQEND
  8
0
  5
23644
  0
POLYLINE
  5
231AD
  8
0
  6
CONTINUOUS
 62
     3
 10
136.5000000000000284
 20
244.8504201735012202
 30
-0.0000000000000544
 66
     1
 70
     8
  0
VERTEX
  8
0
  5
23645
 10
136.500
 20
244.850
 30
-5.44000e-14
  70
    32
  0
VERTEX
  8
0
  5
23646
 10
136.490
 20
244.174
 30
-5.42646e-14
  70
    32
  0
VERTEX
  8
0
  5
23647
 10
136.459
 20
243.497
 30
-5.41293e-14
  70
    32
  0
VERTEX
  8
0
  5
23648
 10
136.408
 20
242.821
 30
-5.39940e-14
  70
    32
  0
VERTEX
  8
0
  5
23649
 10
136.336
 20
242.144
 30
-5.38588e-14
  70
    32
  0
VERTEX
  8
0
  5
2364A
 10
136.243
 20
241.469
 30
-5.37236e-14
  70
    32
  0
VERTEX
  8
0
  5
2364B
 10
136.130
 20
240.793
 30
-5.35886e-14
  70
    32
  0
VERTEX
  8
0
  5
2364C
 10
135.997
 20
240.119
 30
-5.34537e-14
  70
    32
  0
VERTEX
  8
0
  5
2364D
 10
135.843
 20
239.445
 30
-5.33189e-14
  70
    32
  0
VERTEX
  8
0
  5
2364E
 10
135.668
 20
238.772
 30
-5.31843e-14
  70
    32
  0
VERTEX
  8
0
  5
2364F
 10
135.473
 20
238.100
 30
-5.30498e-14
  70
    32
  0
VERTEX
  8
0
  5
23650
 10
135.258
 20
237.428
 30
-5.29156e-14
  70
    32
  0
VERTEX
  8
0
  5
23651
 10
135.023
 20
236.758
 30
-5.27816e-14
  70
    32
  0
VERTEX
  8
0
  5
23652
 10
134.767
 20
236.089
 30
-5.26478e-14
  70
    32
  0
VERTEX
  8
0
  5
23653
 10
134.490
 20
235.422
 30
-5.25143e-14
  70
    32
  0
VERTEX
  8
0
  5
23654
 10
134.194
 20
234.756
 30
-5.23811e-14
  70
    32
  0
VERTEX
  8
0
  5
23655
 10
133.877
 20
234.091
 30
-5.22482e-14
  70
    32
  0
VERTEX
  8
0
  5
23656
 10
133.540
 20
233.428
 30
-5.21156e-14
  70
    32
  0
VERTEX
  8
0
  5
23657
 10
133.183
 20
232.767
 30
-5.19833e-14
  70
    32
  0
VERTEX
  8
0
  5
23658
 10
132.806
 20
232.108
 30
-5.18514e-14
  70
    32
  0
VERTEX
  8
0
  5
23659
 10
132.409
 20
231.450
 30
-5.17199e-14
  70
    32
  0
VERTEX
  8
0
  5
2365A
 10
131.992
 20
230.795
 30
-5.15889e-14
  70
    32
  0
VERTEX
  8
0
  5
2365B
 10
131.555
 20
230.141
 30
-5.14582e-14
  70
    32
  0
VERTEX
  8
0
  5
2365C
 10
131.099
 20
229.490
 30
-5.13280e-14
  70
    32
  0
VERTEX
  8
0
  5
2365D
 10
130.622
 20
228.841
 30
-5.11982e-14
  70
    32
  0
VERTEX
  8
0
  5
2365E
 10
130.126
 20
228.195
 30
-5.10689e-14
  70
    32
  0
VERTEX
  8
0
  5
2365F
 10
129.611
 20
227.551
 30
-5.09401e-14
  70
    32
  0
VERTEX
  8
0
  5
23660
 10
129.075
 20
226.910
 30
-5.08119e-14
  70
    32
  0
VERTEX
  8
0
  5
23661
 10
128.521
 20
226.271
 30
-5.06841e-14
  70
    32
  0
VERTEX
  8
0
  5
23662
 10
127.947
 20
225.635
 30
-5.05570e-14
  70
    32
  0
VERTEX
  8
0
  5
23663
 10
127.354
 20
225.002
 30
-5.04304e-14
  70
    32
  0
VERTEX
  8
0
  5
23664
 10
126.741
 20
224.372
 30
-5.03044e-14
  70
    32
  0
VERTEX
  8
0
  5
23665
 10
126.110
 20
223.746
 30
-5.01790e-14
  70
    32
  0
VERTEX
  8
0
  5
23666
 10
125.459
 20
223.122
 30
-5.00543e-14
  70
    32
  0
VERTEX
  8
0
  5
23667
 10
124.790
 20
222.502
 30
-4.99302e-14
  70
    32
  0
VERTEX
  8
0
  5
23668
 10
124.101
 20
221.885
 30
-4.98068e-14
  70
    32
  0
VERTEX
  8
0
  5
23669
 10
123.395
 20
221.271
 30
-4.96841e-14
  70
    32
  0
VERTEX
  8
0
  5
2366A
 10
122.669
 20
220.661
 30
-4.95621e-14
  70
    32
  0
VERTEX
  8
0
  5
2366B
 10
121.925
 20
220.055
 30
-4.94408e-14
  70
    32
  0
VERTEX
  8
0
  5
2366C
 10
121.163
 20
219.452
 30
-4.93203e-14
  70
    32
  0
VERTEX
  8
0
  5
2366D
 10
120.382
 20
218.853
 30
-4.92005e-14
  70
    32
  0
VERTEX
  8
0
  5
2366E
 10
119.584
 20
218.258
 30
-4.90816e-14
  70
    32
  0
VERTEX
  8
0
  5
2366F
 10
118.767
 20
217.667
 30
-4.89634e-14
  70
    32
  0
VERTEX
  8
0
  5
23670
 10
117.932
 20
217.080
 30
-4.88460e-14
  70
    32
  0
VERTEX
  8
0
  5
23671
 10
117.080
 20
216.498
 30
-4.87295e-14
  70
    32
  0
VERTEX
  8
0
  5
23672
 10
116.210
 20
215.920
 30
-4.86138e-14
  70
    32
  0
VERTEX
  8
0
  5
23673
 10
115.323
 20
215.346
 30
-4.84990e-14
  70
    32
  0
VERTEX
  8
0
  5
23674
 10
114.418
 20
214.776
 30
-4.83851e-14
  70
    32
  0
VERTEX
  8
0
  5
23675
 10
113.496
 20
214.211
 30
-4.82721e-14
  70
    32
  0
VERTEX
  8
0
  5
23676
 10
112.556
 20
213.651
 30
-4.81600e-14
  70
    32
  0
VERTEX
  8
0
  5
23677
 10
111.600
 20
213.095
 30
-4.80489e-14
  70
    32
  0
VERTEX
  8
0
  5
23678
 10
110.627
 20
212.544
 30
-4.79387e-14
  70
    32
  0
VERTEX
  8
0
  5
23679
 10
109.638
 20
211.998
 30
-4.78295e-14
  70
    32
  0
VERTEX
  8
0
  5
2367A
 10
108.632
 20
211.457
 30
-4.77213e-14
  70
    32
  0
VERTEX
  8
0
  5
2367B
 10
107.609
 20
210.921
 30
-4.76140e-14
  70
    32
  0
VERTEX
  8
0
  5
2367C
 10
106.571
 20
210.390
 30
-4.75079e-14
  70
    32
  0
VERTEX
  8
0
  5
2367D
 10
105.516
 20
209.864
 30
-4.74027e-14
  70
    32
  0
VERTEX
  8
0
  5
2367E
 10
104.445
 20
209.343
 30
-4.72986e-14
  70
    32
  0
VERTEX
  8
0
  5
2367F
 10
103.359
 20
208.828
 30
-4.71956e-14
  70
    32
  0
VERTEX
  8
0
  5
23680
 10
102.257
 20
208.318
 30
-4.70936e-14
  70
    32
  0
VERTEX
  8
0
  5
23681
 10
101.140
 20
207.814
 30
-4.69928e-14
  70
    32
  0
VERTEX
  8
0
  5
23682
 10
100.007
 20
207.316
 30
-4.68930e-14
  70
    32
  0
VERTEX
  8
0
  5
23683
 10
98.8597
 20
206.823
 30
-4.67944e-14
  70
    32
  0
VERTEX
  8
0
  5
23684
 10
97.6973
 20
206.335
 30
-4.66970e-14
  70
    32
  0
VERTEX
  8
0
  5
23685
 10
96.5201
 20
205.854
 30
-4.66007e-14
  70
    32
  0
VERTEX
  8
0
  5
23686
 10
95.3284
 20
205.378
 30
-4.65055e-14
  70
    32
  0
VERTEX
  8
0
  5
23687
 10
94.1223
 20
204.908
 30
-4.64116e-14
  70
    32
  0
VERTEX
  8
0
  5
23688
 10
92.9020
 20
204.445
 30
-4.63189e-14
  70
    32
  0
VERTEX
  8
0
  5
23689
 10
91.6678
 20
203.987
 30
-4.62274e-14
  70
    32
  0
VERTEX
  8
0
  5
2368A
 10
90.4198
 20
203.536
 30
-4.61371e-14
  70
    32
  0
VERTEX
  8
0
  5
2368B
 10
89.1581
 20
203.091
 30
-4.60481e-14
  70
    32
  0
VERTEX
  8
0
  5
2368C
 10
87.8830
 20
202.652
 30
-4.59603e-14
  70
    32
  0
VERTEX
  8
0
  5
2368D
 10
86.5947
 20
202.219
 30
-4.58738e-14
  70
    32
  0
VERTEX
  8
0
  5
2368E
 10
85.2933
 20
201.793
 30
-4.57885e-14
  70
    32
  0
VERTEX
  8
0
  5
2368F
 10
83.9791
 20
201.373
 30
-4.57046e-14
  70
    32
  0
VERTEX
  8
0
  5
23690
 10
82.6523
 20
200.960
 30
-4.56220e-14
  70
    32
  0
VERTEX
  8
0
  5
23691
 10
81.3130
 20
200.554
 30
-4.55407e-14
  70
    32
  0
VERTEX
  8
0
  5
23692
 10
79.9614
 20
200.154
 30
-4.54607e-14
  70
    32
  0
VERTEX
  8
0
  5
23693
 10
78.5978
 20
199.761
 30
-4.53821e-14
  70
    32
  0
VERTEX
  8
0
  5
23694
 10
77.2224
 20
199.375
 30
-4.53048e-14
  70
    32
  0
VERTEX
  8
0
  5
23695
 10
75.8353
 20
198.995
 30
-4.52290e-14
  70
    32
  0
VERTEX
  8
0
  5
23696
 10
74.4369
 20
198.623
 30
-4.51545e-14
  70
    32
  0
VERTEX
  8
0
  5
23697
 10
73.0272
 20
198.257
 30
-4.50813e-14
  70
    32
  0
VERTEX
  8
0
  5
23698
 10
71.6065
 20
197.899
 30
-4.50096e-14
  70
    32
  0
VERTEX
  8
0
  5
23699
 10
70.1750
 20
197.547
 30
-4.49393e-14
  70
    32
  0
VERTEX
  8
0
  5
2369A
 10
68.7330
 20
197.203
 30
-4.48705e-14
  70
    32
  0
VERTEX
  8
0
  5
2369B
 10
67.2806
 20
196.865
 30
-4.48030e-14
  70
    32
  0
VERTEX
  8
0
  5
2369C
 10
65.8181
 20
196.536
 30
-4.47370e-14
  70
    32
  0
VERTEX
  8
0
  5
2369D
 10
64.3457
 20
196.213
 30
-4.46725e-14
  70
    32
  0
VERTEX
  8
0
  5
2369E
 10
62.8635
 20
195.897
 30
-4.46094e-14
  70
    32
  0
VERTEX
  8
0
  5
2369F
 10
61.3719
 20
195.589
 30
-4.45478e-14
  70
    32
  0
VERTEX
  8
0
  5
236A0
 10
59.8711
 20
195.289
 30
-4.44877e-14
  70
    32
  0
VERTEX
  8
0
  5
236A1
 10
58.3613
 20
194.996
 30
-4.44291e-14
  70
    32
  0
VERTEX
  8
0
  5
236A2
 10
56.8426
 20
194.710
 30
-4.43720e-14
  70
    32
  0
VERTEX
  8
0
  5
236A3
 10
55.3154
 20
194.432
 30
-4.43163e-14
  70
    32
  0
VERTEX
  8
0
  5
236A4
 10
53.7799
 20
194.162
 30
-4.42623e-14
  70
    32
  0
VERTEX
  8
0
  5
236A5
 10
52.2363
 20
193.899
 30
-4.42097e-14
  70
    32
  0
VERTEX
  8
0
  5
236A6
 10
50.6848
 20
193.644
 30
-4.41587e-14
  70
    32
  0
VERTEX
  8
0
  5
236A7
 10
49.1257
 20
193.396
 30
-4.41092e-14
  70
    32
  0
VERTEX
  8
0
  5
236A8
 10
47.5591
 20
193.157
 30
-4.40612e-14
  70
    32
  0
VERTEX
  8
0
  5
236A9
 10
45.9855
 20
192.925
 30
-4.40148e-14
  70
    32
  0
VERTEX
  8
0
  5
236AA
 10
44.4049
 20
192.701
 30
-4.39700e-14
  70
    32
  0
VERTEX
  8
0
  5
236AB
 10
42.8176
 20
192.484
 30
-4.39268e-14
  70
    32
  0
VERTEX
  8
0
  5
236AC
 10
41.2238
 20
192.276
 30
-4.38851e-14
  70
    32
  0
VERTEX
  8
0
  5
236AD
 10
39.6239
 20
192.076
 30
-4.38450e-14
  70
    32
  0
VERTEX
  8
0
  5
236AE
 10
38.0179
 20
191.883
 30
-4.38065e-14
  70
    32
  0
VERTEX
  8
0
  5
236AF
 10
36.4063
 20
191.699
 30
-4.37696e-14
  70
    32
  0
VERTEX
  8
0
  5
236B0
 10
34.7892
 20
191.522
 30
-4.37343e-14
  70
    32
  0
VERTEX
  8
0
  5
236B1
 10
33.1668
 20
191.354
 30
-4.37006e-14
  70
    32
  0
VERTEX
  8
0
  5
236B2
 10
31.5394
 20
191.193
 30
-4.36686e-14
  70
    32
  0
VERTEX
  8
0
  5
236B3
 10
29.9073
 20
191.041
 30
-4.36381e-14
  70
    32
  0
VERTEX
  8
0
  5
236B4
 10
28.2707
 20
190.897
 30
-4.36092e-14
  70
    32
  0
VERTEX
  8
0
  5
236B5
 10
26.6298
 20
190.761
 30
-4.35820e-14
  70
    32
  0
VERTEX
  8
0
  5
236B6
 10
24.9849
 20
190.633
 30
-4.35564e-14
  70
    32
  0
VERTEX
  8
0
  5
236B7
 10
23.3363
 20
190.513
 30
-4.35325e-14
  70
    32
  0
VERTEX
  8
0
  5
236B8
 10
21.6841
 20
190.401
 30
-4.35101e-14
  70
    32
  0
VERTEX
  8
0
  5
236B9
 10
20.0287
 20
190.298
 30
-4.34895e-14
  70
    32
  0
VERTEX
  8
0
  5
236BA
 10
18.3703
 20
190.203
 30
-4.34704e-14
  70
    32
  0
VERTEX
  8
0
  5
236BB
 10
16.7091
 20
190.116
 30
-4.34530e-14
  70
    32
  0
VERTEX
  8
0
  5
236BC
 10
15.0453
 20
190.037
 30
-4.34373e-14
  70
    32
  0
VERTEX
  8
0
  5
236BD
 10
13.3793
 20
189.966
 30
-4.34232e-14
  70
    32
  0
VERTEX
  8
0
  5
236BE
 10
11.7113
 20
189.904
 30
-4.34108e-14
  70
    32
  0
VERTEX
  8
0
  5
236BF
 10
10.0416
 20
189.850
 30
-4.34000e-14
  70
    32
  0
VERTEX
  8
0
  5
236C0
 10
8.37028
 20
189.805
 30
-4.33908e-14
  70
    32
  0
VERTEX
  8
0
  5
236C1
 10
6.69774
 20
189.767
 30
-4.33834e-14
  70
    32
  0
VERTEX
  8
0
  5
236C2
 10
5.02419
 20
189.738
 30
-4.33776e-14
  70
    32
  0
VERTEX
  8
0
  5
236C3
 10
3.34988
 20
189.717
 30
-4.33734e-14
  70
    32
  0
VERTEX
  8
0
  5
236C4
 10
1.67506
 20
189.705
 30
-4.33709e-14
  70
    32
  0
VERTEX
  8
0
  5
236C5
 10
-6.94882e-14
 20
189.701
 30
-4.33701e-14
  70
    32
  0
SEQEND
  8
0
  5
236C6
  0
LINE
  5
231AE
  8
0
  6
CONTINUOUS
 62
     3
 10
-136.4999999999998863
 20
104.0999999999999943
 30
-0.0000000000000231
 11
-136.4999999999998863
 21
244.8504201735011918
 31
-0.0000000000000544
210
0.0
220
1.0
230
-0.0000000000000002
  0
LINE
  5
231AF
  8
0
  6
CONTINUOUS
 62
     3
 10
136.5
 20
104.0999999999999943
 30
-0.0000000000000231
 11
136.5
 21
244.8504201735011918
 31
-0.0000000000000544
210
0.0
220
1.0
230
-0.0000000000000002
  0
POLYLINE
  5
231B0
  8
0
  6
CONTINUOUS
 62
     3
 10
106.3353632058044269
 20
277.3278982193060074
 30
-0.0000000000000609
 66
     1
 70
     8
  0
VERTEX
  8
0
  5
236C7
 10
106.335
 20
277.328
 30
-6.08955e-14
  70
    32
  0
VERTEX
  8
0
  5
236C8
 10
105.164
 20
277.944
 30
-6.10188e-14
  70
    32
  0
VERTEX
  8
0
  5
236C9
 10
103.972
 20
278.554
 30
-6.11407e-14
  70
    32
  0
VERTEX
  8
0
  5
236CA
 10
102.757
 20
279.157
 30
-6.12613e-14
  70
    32
  0
VERTEX
  8
0
  5
236CB
 10
101.521
 20
279.752
 30
-6.13803e-14
  70
    32
  0
VERTEX
  8
0
  5
236CC
 10
100.264
 20
280.340
 30
-6.14980e-14
  70
    32
  0
VERTEX
  8
0
  5
236CD
 10
98.9863
 20
280.921
 30
-6.16142e-14
  70
    32
  0
VERTEX
  8
0
  5
236CE
 10
97.6877
 20
281.494
 30
-6.17288e-14
  70
    32
  0
VERTEX
  8
0
  5
236CF
 10
96.3689
 20
282.060
 30
-6.18420e-14
  70
    32
  0
VERTEX
  8
0
  5
236D0
 10
95.0300
 20
282.618
 30
-6.19535e-14
  70
    32
  0
VERTEX
  8
0
  5
236D1
 10
93.6713
 20
283.168
 30
-6.20636e-14
  70
    32
  0
VERTEX
  8
0
  5
236D2
 10
92.2931
 20
283.710
 30
-6.21720e-14
  70
    32
  0
VERTEX
  8
0
  5
236D3
 10
90.8956
 20
284.244
 30
-6.22788e-14
  70
    32
  0
VERTEX
  8
0
  5
236D4
 10
89.4793
 20
284.770
 30
-6.23839e-14
  70
    32
  0
VERTEX
  8
0
  5
236D5
 10
88.0443
 20
285.288
 30
-6.24874e-14
  70
    32
  0
VERTEX
  8
0
  5
236D6
 10
86.5910
 20
285.797
 30
-6.25892e-14
  70
    32
  0
VERTEX
  8
0
  5
236D7
 10
85.1197
 20
286.297
 30
-6.26893e-14
  70
    32
  0
VERTEX
  8
0
  5
236D8
 10
83.6306
 20
286.789
 30
-6.27877e-14
  70
    32
  0
VERTEX
  8
0
  5
236D9
 10
82.1241
 20
287.272
 30
-6.28844e-14
  70
    32
  0
VERTEX
  8
0
  5
236DA
 10
80.6006
 20
287.747
 30
-6.29792e-14
  70
    32
  0
VERTEX
  8
0
  5
236DB
 10
79.0602
 20
288.212
 30
-6.30723e-14
  70
    32
  0
VERTEX
  8
0
  5
236DC
 10
77.5034
 20
288.668
 30
-6.31636e-14
  70
    32
  0
VERTEX
  8
0
  5
236DD
 10
75.9304
 20
289.116
 30
-6.32530e-14
  70
    32
  0
VERTEX
  8
0
  5
236DE
 10
74.3417
 20
289.554
 30
-6.33407e-14
  70
    32
  0
VERTEX
  8
0
  5
236DF
 10
72.7374
 20
289.982
 30
-6.34264e-14
  70
    32
  0
VERTEX
  8
0
  5
236E0
 10
71.1180
 20
290.402
 30
-6.35103e-14
  70
    32
  0
VERTEX
  8
0
  5
236E1
 10
69.4838
 20
290.812
 30
-6.35922e-14
  70
    32
  0
VERTEX
  8
0
  5
236E2
 10
67.8352
 20
291.212
 30
-6.36723e-14
  70
    32
  0
VERTEX
  8
0
  5
236E3
 10
66.1724
 20
291.603
 30
-6.37504e-14
  70
    32
  0
VERTEX
  8
0
  5
236E4
 10
64.4958
 20
291.983
 30
-6.38266e-14
  70
    32
  0
VERTEX
  8
0
  5
236E5
 10
62.8058
 20
292.355
 30
-6.39008e-14
  70
    32
  0
VERTEX
  8
0
  5
236E6
 10
61.1028
 20
292.716
 30
-6.39731e-14
  70
    32
  0
VERTEX
  8
0
  5
236E7
 10
59.3870
 20
293.067
 30
-6.40433e-14
  70
    32
  0
VERTEX
  8
0
  5
236E8
 10
57.6588
 20
293.408
 30
-6.41116e-14
  70
    32
  0
VERTEX
  8
0
  5
236E9
 10
55.9187
 20
293.739
 30
-6.41778e-14
  70
    32
  0
VERTEX
  8
0
  5
236EA
 10
54.1669
 20
294.060
 30
-6.42419e-14
  70
    32
  0
VERTEX
  8
0
  5
236EB
 10
52.4038
 20
294.371
 30
-6.43041e-14
  70
    32
  0
VERTEX
  8
0
  5
236EC
 10
50.6298
 20
294.671
 30
-6.43641e-14
  70
    32
  0
VERTEX
  8
0
  5
236ED
 10
48.8452
 20
294.961
 30
-6.44221e-14
  70
    32
  0
VERTEX
  8
0
  5
236EE
 10
47.0505
 20
295.241
 30
-6.44780e-14
  70
    32
  0
VERTEX
  8
0
  5
236EF
 10
45.2460
 20
295.510
 30
-6.45319e-14
  70
    32
  0
VERTEX
  8
0
  5
236F0
 10
43.4321
 20
295.768
 30
-6.45836e-14
  70
    32
  0
VERTEX
  8
0
  5
236F1
 10
41.6091
 20
296.016
 30
-6.46331e-14
  70
    32
  0
VERTEX
  8
0
  5
236F2
 10
39.7775
 20
296.253
 30
-6.46806e-14
  70
    32
  0
VERTEX
  8
0
  5
236F3
 10
37.9376
 20
296.480
 30
-6.47259e-14
  70
    32
  0
VERTEX
  8
0
  5
236F4
 10
36.0898
 20
296.696
 30
-6.47691e-14
  70
    32
  0
VERTEX
  8
0
  5
236F5
 10
34.2345
 20
296.901
 30
-6.48101e-14
  70
    32
  0
VERTEX
  8
0
  5
236F6
 10
32.3720
 20
297.095
 30
-6.48489e-14
  70
    32
  0
VERTEX
  8
0
  5
236F7
 10
30.5028
 20
297.278
 30
-6.48855e-14
  70
    32
  0
VERTEX
  8
0
  5
236F8
 10
28.6273
 20
297.450
 30
-6.49200e-14
  70
    32
  0
VERTEX
  8
0
  5
236F9
 10
26.7458
 20
297.612
 30
-6.49523e-14
  70
    32
  0
VERTEX
  8
0
  5
236FA
 10
24.8587
 20
297.762
 30
-6.49824e-14
  70
    32
  0
VERTEX
  8
0
  5
236FB
 10
22.9665
 20
297.902
 30
-6.50103e-14
  70
    32
  0
VERTEX
  8
0
  5
236FC
 10
21.0694
 20
298.030
 30
-6.50359e-14
  70
    32
  0
VERTEX
  8
0
  5
236FD
 10
19.1680
 20
298.147
 30
-6.50594e-14
  70
    32
  0
VERTEX
  8
0
  5
236FE
 10
17.2626
 20
298.254
 30
-6.50806e-14
  70
    32
  0
VERTEX
  8
0
  5
236FF
 10
15.3536
 20
298.349
 30
-6.50997e-14
  70
    32
  0
VERTEX
  8
0
  5
23700
 10
13.4414
 20
298.433
 30
-6.51164e-14
  70
    32
  0
VERTEX
  8
0
  5
23701
 10
11.5264
 20
298.505
 30
-6.51310e-14
  70
    32
  0
VERTEX
  8
0
  5
23702
 10
9.60900
 20
298.567
 30
-6.51433e-14
  70
    32
  0
VERTEX
  8
0
  5
23703
 10
7.68960
 20
298.617
 30
-6.51534e-14
  70
    32
  0
VERTEX
  8
0
  5
23704
 10
5.76860
 20
298.657
 30
-6.51612e-14
  70
    32
  0
VERTEX
  8
0
  5
23705
 10
3.84640
 20
298.685
 30
-6.51669e-14
  70
    32
  0
VERTEX
  8
0
  5
23706
 10
1.92340
 20
298.702
 30
-6.51702e-14
  70
    32
  0
VERTEX
  8
0
  5
23707
 10
4.11950e-14
 20
298.707
 30
-6.51713e-14
  70
    32
  0
VERTEX
  8
0
  5
23708
 10
-1.92340
 20
298.702
 30
-6.51702e-14
  70
    32
  0
VERTEX
  8
0
  5
23709
 10
-3.84640
 20
298.685
 30
-6.51669e-14
  70
    32
  0
VERTEX
  8
0
  5
2370A
 10
-5.76860
 20
298.657
 30
-6.51612e-14
  70
    32
  0
VERTEX
  8
0
  5
2370B
 10
-7.68960
 20
298.617
 30
-6.51534e-14
  70
    32
  0
VERTEX
  8
0
  5
2370C
 10
-9.60900
 20
298.567
 30
-6.51433e-14
  70
    32
  0
VERTEX
  8
0
  5
2370D
 10
-11.5264
 20
298.505
 30
-6.51310e-14
  70
    32
  0
VERTEX
  8
0
  5
2370E
 10
-13.4414
 20
298.433
 30
-6.51164e-14
  70
    32
  0
VERTEX
  8
0
  5
2370F
 10
-15.3536
 20
298.349
 30
-6.50997e-14
  70
    32
  0
VERTEX
  8
0
  5
23710
 10
-17.2626
 20
298.254
 30
-6.50806e-14
  70
    32
  0
VERTEX
  8
0
  5
23711
 10
-19.1680
 20
298.147
 30
-6.50594e-14
  70
    32
  0
VERTEX
  8
0
  5
23712
 10
-21.0694
 20
298.030
 30
-6.50359e-14
  70
    32
  0
VERTEX
  8
0
  5
23713
 10
-22.9665
 20
297.902
 30
-6.50103e-14
  70
    32
  0
VERTEX
  8
0
  5
23714
 10
-24.8587
 20
297.762
 30
-6.49824e-14
  70
    32
  0
VERTEX
  8
0
  5
23715
 10
-26.7458
 20
297.612
 30
-6.49523e-14
  70
    32
  0
VERTEX
  8
0
  5
23716
 10
-28.6273
 20
297.450
 30
-6.49200e-14
  70
    32
  0
VERTEX
  8
0
  5
23717
 10
-30.5028
 20
297.278
 30
-6.48855e-14
  70
    32
  0
VERTEX
  8
0
  5
23718
 10
-32.3720
 20
297.095
 30
-6.48489e-14
  70
    32
  0
VERTEX
  8
0
  5
23719
 10
-34.2345
 20
296.901
 30
-6.48101e-14
  70
    32
  0
VERTEX
  8
0
  5
2371A
 10
-36.0898
 20
296.696
 30
-6.47691e-14
  70
    32
  0
VERTEX
  8
0
  5
2371B
 10
-37.9376
 20
296.480
 30
-6.47259e-14
  70
    32
  0
VERTEX
  8
0
  5
2371C
 10
-39.7775
 20
296.253
 30
-6.46806e-14
  70
    32
  0
VERTEX
  8
0
  5
2371D
 10
-41.6091
 20
296.016
 30
-6.46331e-14
  70
    32
  0
VERTEX
  8
0
  5
2371E
 10
-43.4321
 20
295.768
 30
-6.45836e-14
  70
    32
  0
VERTEX
  8
0
  5
2371F
 10
-45.2460
 20
295.510
 30
-6.45319e-14
  70
    32
  0
VERTEX
  8
0
  5
23720
 10
-47.0505
 20
295.241
 30
-6.44780e-14
  70
    32
  0
VERTEX
  8
0
  5
23721
 10
-48.8452
 20
294.961
 30
-6.44221e-14
  70
    32
  0
VERTEX
  8
0
  5
23722
 10
-50.6298
 20
294.671
 30
-6.43641e-14
  70
    32
  0
VERTEX
  8
0
  5
23723
 10
-52.4038
 20
294.371
 30
-6.43041e-14
  70
    32
  0
VERTEX
  8
0
  5
23724
 10
-54.1669
 20
294.060
 30
-6.42419e-14
  70
    32
  0
VERTEX
  8
0
  5
23725
 10
-55.9187
 20
293.739
 30
-6.41778e-14
  70
    32
  0
VERTEX
  8
0
  5
23726
 10
-57.6588
 20
293.408
 30
-6.41116e-14
  70
    32
  0
VERTEX
  8
0
  5
23727
 10
-59.3870
 20
293.067
 30
-6.40433e-14
  70
    32
  0
VERTEX
  8
0
  5
23728
 10
-61.1028
 20
292.716
 30
-6.39731e-14
  70
    32
  0
VERTEX
  8
0
  5
23729
 10
-62.8058
 20
292.355
 30
-6.39008e-14
  70
    32
  0
VERTEX
  8
0
  5
2372A
 10
-64.4958
 20
291.983
 30
-6.38266e-14
  70
    32
  0
VERTEX
  8
0
  5
2372B
 10
-66.1724
 20
291.603
 30
-6.37504e-14
  70
    32
  0
VERTEX
  8
0
  5
2372C
 10
-67.8352
 20
291.212
 30
-6.36723e-14
  70
    32
  0
VERTEX
  8
0
  5
2372D
 10
-69.4838
 20
290.812
 30
-6.35922e-14
  70
    32
  0
VERTEX
  8
0
  5
2372E
 10
-71.1180
 20
290.402
 30
-6.35103e-14
  70
    32
  0
VERTEX
  8
0
  5
2372F
 10
-72.7374
 20
289.982
 30
-6.34264e-14
  70
    32
  0
VERTEX
  8
0
  5
23730
 10
-74.3417
 20
289.554
 30
-6.33407e-14
  70
    32
  0
VERTEX
  8
0
  5
23731
 10
-75.9304
 20
289.116
 30
-6.32530e-14
  70
    32
  0
VERTEX
  8
0
  5
23732
 10
-77.5034
 20
288.668
 30
-6.31636e-14
  70
    32
  0
VERTEX
  8
0
  5
23733
 10
-79.0602
 20
288.212
 30
-6.30723e-14
  70
    32
  0
VERTEX
  8
0
  5
23734
 10
-80.6006
 20
287.747
 30
-6.29792e-14
  70
    32
  0
VERTEX
  8
0
  5
23735
 10
-82.1241
 20
287.272
 30
-6.28844e-14
  70
    32
  0
VERTEX
  8
0
  5
23736
 10
-83.6306
 20
286.789
 30
-6.27877e-14
  70
    32
  0
VERTEX
  8
0
  5
23737
 10
-85.1197
 20
286.297
 30
-6.26893e-14
  70
    32
  0
VERTEX
  8
0
  5
23738
 10
-86.5910
 20
285.797
 30
-6.25892e-14
  70
    32
  0
VERTEX
  8
0
  5
23739
 10
-88.0443
 20
285.288
 30
-6.24874e-14
  70
    32
  0
VERTEX
  8
0
  5
2373A
 10
-89.4793
 20
284.770
 30
-6.23839e-14
  70
    32
  0
VERTEX
  8
0
  5
2373B
 10
-90.8956
 20
284.244
 30
-6.22788e-14
  70
    32
  0
VERTEX
  8
0
  5
2373C
 10
-92.2931
 20
283.710
 30
-6.21720e-14
  70
    32
  0
VERTEX
  8
0
  5
2373D
 10
-93.6713
 20
283.168
 30
-6.20636e-14
  70
    32
  0
VERTEX
  8
0
  5
2373E
 10
-95.0300
 20
282.618
 30
-6.19535e-14
  70
    32
  0
VERTEX
  8
0
  5
2373F
 10
-96.3689
 20
282.060
 30
-6.18420e-14
  70
    32
  0
VERTEX
  8
0
  5
23740
 10
-97.6877
 20
281.494
 30
-6.17288e-14
  70
    32
  0
VERTEX
  8
0
  5
23741
 10
-98.9863
 20
280.921
 30
-6.16142e-14
  70
    32
  0
VERTEX
  8
0
  5
23742
 10
-100.264
 20
280.340
 30
-6.14980e-14
  70
    32
  0
VERTEX
  8
0
  5
23743
 10
-101.521
 20
279.752
 30
-6.13803e-14
  70
    32
  0
VERTEX
  8
0
  5
23744
 10
-102.757
 20
279.157
 30
-6.12613e-14
  70
    32
  0
VERTEX
  8
0
  5
23745
 10
-103.972
 20
278.554
 30
-6.11407e-14
  70
    32
  0
VERTEX
  8
0
  5
23746
 10
-105.164
 20
277.944
 30
-6.10188e-14
  70
    32
  0
VERTEX
  8
0
  5
23747
 10
-106.335
 20
277.328
 30
-6.08955e-14
  70
    32
  0
SEQEND
  8
0
  5
23748
  0
POLYLINE
  5
231B1
  8
0
  6
CONTINUOUS
 62
     3
 10
-133.2770208773210072
 20
355.1900003851768588
 30
-0.0000000000000788
 66
     1
 70
     8
  0
VERTEX
  8
0
  5
23749
 10
-133.277
 20
355.190
 30
-7.87877e-14
  70
    32
  0
VERTEX
  8
0
  5
2374A
 10
-133.178
 20
358.374
 30
-7.94245e-14
  70
    32
  0
VERTEX
  8
0
  5
2374B
 10
-133.000
 20
361.554
 30
-8.00606e-14
  70
    32
  0
VERTEX
  8
0
  5
2374C
 10
-132.744
 20
364.730
 30
-8.06957e-14
  70
    32
  0
VERTEX
  8
0
  5
2374D
 10
-132.411
 20
367.898
 30
-8.13293e-14
  70
    32
  0
VERTEX
  8
0
  5
2374E
 10
-131.999
 20
371.058
 30
-8.19612e-14
  70
    32
  0
VERTEX
  8
0
  5
2374F
 10
-131.509
 20
374.206
 30
-8.25910e-14
  70
    32
  0
VERTEX
  8
0
  5
23750
 10
-130.943
 20
377.342
 30
-8.32182e-14
  70
    32
  0
VERTEX
  8
0
  5
23751
 10
-130.299
 20
380.464
 30
-8.38425e-14
  70
    32
  0
VERTEX
  8
0
  5
23752
 10
-129.579
 20
383.569
 30
-8.44635e-14
  70
    32
  0
VERTEX
  8
0
  5
23753
 10
-128.782
 20
386.656
 30
-8.50810e-14
  70
    32
  0
VERTEX
  8
0
  5
23754
 10
-127.909
 20
389.723
 30
-8.56944e-14
  70
    32
  0
VERTEX
  8
0
  5
23755
 10
-126.962
 20
392.769
 30
-8.63035e-14
  70
    32
  0
VERTEX
  8
0
  5
23756
 10
-125.940
 20
395.791
 30
-8.69079e-14
  70
    32
  0
VERTEX
  8
0
  5
23757
 10
-124.843
 20
398.787
 30
-8.75072e-14
  70
    32
  0
VERTEX
  8
0
  5
23758
 10
-123.673
 20
401.757
 30
-8.81011e-14
  70
    32
  0
VERTEX
  8
0
  5
23759
 10
-122.431
 20
404.698
 30
-8.86893e-14
  70
    32
  0
VERTEX
  8
0
  5
2375A
 10
-121.116
 20
407.608
 30
-8.92713e-14
  70
    32
  0
VERTEX
  8
0
  5
2375B
 10
-119.730
 20
410.486
 30
-8.98469e-14
  70
    32
  0
VERTEX
  8
0
  5
2375C
 10
-118.274
 20
413.330
 30
-9.04156e-14
  70
    32
  0
VERTEX
  8
0
  5
2375D
 10
-116.748
 20
416.138
 30
-9.09773e-14
  70
    32
  0
VERTEX
  8
0
  5
2375E
 10
-115.154
 20
418.909
 30
-9.15315e-14
  70
    32
  0
VERTEX
  8
0
  5
2375F
 10
-113.492
 20
421.641
 30
-9.20779e-14
  70
    32
  0
VERTEX
  8
0
  5
23760
 10
-111.763
 20
424.332
 30
-9.26162e-14
  70
    32
  0
VERTEX
  8
0
  5
23761
 10
-109.968
 20
426.982
 30
-9.31461e-14
  70
    32
  0
VERTEX
  8
0
  5
23762
 10
-108.109
 20
429.588
 30
-9.36673e-14
  70
    32
  0
VERTEX
  8
0
  5
23763
 10
-106.186
 20
432.148
 30
-9.41794e-14
  70
    32
  0
VERTEX
  8
0
  5
23764
 10
-104.200
 20
434.662
 30
-9.46822e-14
  70
    32
  0
VERTEX
  8
0
  5
23765
 10
-102.153
 20
437.128
 30
-9.51753e-14
  70
    32
  0
VERTEX
  8
0
  5
23766
 10
-100.047
 20
439.544
 30
-9.56585e-14
  70
    32
  0
VERTEX
  8
0
  5
23767
 10
-97.8809
 20
441.909
 30
-9.61315e-14
  70
    32
  0
VERTEX
  8
0
  5
23768
 10
-95.6577
 20
444.222
 30
-9.65941e-14
  70
    32
  0
VERTEX
  8
0
  5
23769
 10
-93.3782
 20
446.480
 30
-9.70458e-14
  70
    32
  0
VERTEX
  8
0
  5
2376A
 10
-91.0437
 20
448.684
 30
-9.74865e-14
  70
    32
  0
VERTEX
  8
0
  5
2376B
 10
-88.6558
 20
450.831
 30
-9.79160e-14
  70
    32
  0
VERTEX
  8
0
  5
2376C
 10
-86.2156
 20
452.921
 30
-9.83339e-14
  70
    32
  0
VERTEX
  8
0
  5
2376D
 10
-83.7248
 20
454.951
 30
-9.87400e-14
  70
    32
  0
VERTEX
  8
0
  5
2376E
 10
-81.1847
 20
456.922
 30
-9.91341e-14
  70
    32
  0
VERTEX
  8
0
  5
2376F
 10
-78.5968
 20
458.831
 30
-9.95160e-14
  70
    32
  0
VERTEX
  8
0
  5
23770
 10
-75.9627
 20
460.678
 30
-9.98853e-14
  70
    32
  0
VERTEX
  8
0
  5
23771
 10
-73.2840
 20
462.461
 30
-1.00242e-13
  70
    32
  0
VERTEX
  8
0
  5
23772
 10
-70.5621
 20
464.180
 30
-1.00586e-13
  70
    32
  0
VERTEX
  8
0
  5
23773
 10
-67.7987
 20
465.833
 30
-1.00916e-13
  70
    32
  0
VERTEX
  8
0
  5
23774
 10
-64.9955
 20
467.420
 30
-1.01234e-13
  70
    32
  0
VERTEX
  8
0
  5
23775
 10
-62.1540
 20
468.940
 30
-1.01538e-13
  70
    32
  0
VERTEX
  8
0
  5
23776
 10
-59.2759
 20
470.391
 30
-1.01828e-13
  70
    32
  0
VERTEX
  8
0
  5
23777
 10
-56.3630
 20
471.772
 30
-1.02104e-13
  70
    32
  0
VERTEX
  8
0
  5
23778
 10
-53.4170
 20
473.084
 30
-1.02367e-13
  70
    32
  0
VERTEX
  8
0
  5
23779
 10
-50.4395
 20
474.325
 30
-1.02615e-13
  70
    32
  0
VERTEX
  8
0
  5
2377A
 10
-47.4323
 20
475.494
 30
-1.02849e-13
  70
    32
  0
VERTEX
  8
0
  5
2377B
 10
-44.3973
 20
476.592
 30
-1.03068e-13
  70
    32
  0
VERTEX
  8
0
  5
2377C
 10
-41.3361
 20
477.616
 30
-1.03273e-13
  70
    32
  0
VERTEX
  8
0
  5
2377D
 10
-38.2506
 20
478.567
 30
-1.03463e-13
  70
    32
  0
VERTEX
  8
0
  5
2377E
 10
-35.1426
 20
479.444
 30
-1.03639e-13
  70
    32
  0
VERTEX
  8
0
  5
2377F
 10
-32.0140
 20
480.247
 30
-1.03799e-13
  70
    32
  0
VERTEX
  8
0
  5
23780
 10
-28.8665
 20
480.974
 30
-1.03945e-13
  70
    32
  0
VERTEX
  8
0
  5
23781
 10
-25.7020
 20
481.626
 30
-1.04075e-13
  70
    32
  0
VERTEX
  8
0
  5
23782
 10
-22.5224
 20
482.202
 30
-1.04190e-13
  70
    32
  0
VERTEX
  8
0
  5
23783
 10
-19.3296
 20
482.702
 30
-1.04290e-13
  70
    32
  0
VERTEX
  8
0
  5
23784
 10
-16.1254
 20
483.126
 30
-1.04375e-13
  70
    32
  0
VERTEX
  8
0
  5
23785
 10
-12.9117
 20
483.473
 30
-1.04444e-13
  70
    32
  0
VERTEX
  8
0
  5
23786
 10
-9.69044
 20
483.743
 30
-1.04498e-13
  70
    32
  0
VERTEX
  8
0
  5
23787
 10
-6.46346
 20
483.936
 30
-1.04537e-13
  70
    32
  0
VERTEX
  8
0
  5
23788
 10
-3.23268
 20
484.052
 30
-1.04560e-13
  70
    32
  0
VERTEX
  8
0
  5
23789
 10
1.77907e-14
 20
484.091
 30
-1.04568e-13
  70
    32
  0
VERTEX
  8
0
  5
2378A
 10
3.23268
 20
484.052
 30
-1.04560e-13
  70
    32
  0
VERTEX
  8
0
  5
2378B
 10
6.46346
 20
483.936
 30
-1.04537e-13
  70
    32
  0
VERTEX
  8
0
  5
2378C
 10
9.69044
 20
483.743
 30
-1.04498e-13
  70
    32
  0
VERTEX
  8
0
  5
2378D
 10
12.9117
 20
483.473
 30
-1.04444e-13
  70
    32
  0
VERTEX
  8
0
  5
2378E
 10
16.1254
 20
483.126
 30
-1.04375e-13
  70
    32
  0
VERTEX
  8
0
  5
2378F
 10
19.3296
 20
482.702
 30
-1.04290e-13
  70
    32
  0
VERTEX
  8
0
  5
23790
 10
22.5224
 20
482.202
 30
-1.04190e-13
  70
    32
  0
VERTEX
  8
0
  5
23791
 10
25.7020
 20
481.626
 30
-1.04075e-13
  70
    32
  0
VERTEX
  8
0
  5
23792
 10
28.8665
 20
480.974
 30
-1.03945e-13
  70
    32
  0
VERTEX
  8
0
  5
23793
 10
32.0140
 20
480.247
 30
-1.03799e-13
  70
    32
  0
VERTEX
  8
0
  5
23794
 10
35.1426
 20
479.444
 30
-1.03639e-13
  70
    32
  0
VERTEX
  8
0
  5
23795
 10
38.2506
 20
478.567
 30
-1.03463e-13
  70
    32
  0
VERTEX
  8
0
  5
23796
 10
41.3361
 20
477.616
 30
-1.03273e-13
  70
    32
  0
VERTEX
  8
0
  5
23797
 10
44.3973
 20
476.592
 30
-1.03068e-13
  70
    32
  0
VERTEX
  8
0
  5
23798
 10
47.4323
 20
475.494
 30
-1.02849e-13
  70
    32
  0
VERTEX
  8
0
  5
23799
 10
50.4395
 20
474.325
 30
-1.02615e-13
  70
    32
  0
VERTEX
  8
0
  5
2379A
 10
53.4170
 20
473.084
 30
-1.02367e-13
  70
    32
  0
VERTEX
  8
0
  5
2379B
 10
56.3630
 20
471.772
 30
-1.02104e-13
  70
    32
  0
VERTEX
  8
0
  5
2379C
 10
59.2759
 20
470.391
 30
-1.01828e-13
  70
    32
  0
VERTEX
  8
0
  5
2379D
 10
62.1540
 20
468.940
 30
-1.01538e-13
  70
    32
  0
VERTEX
  8
0
  5
2379E
 10
64.9955
 20
467.420
 30
-1.01234e-13
  70
    32
  0
VERTEX
  8
0
  5
2379F
 10
67.7987
 20
465.833
 30
-1.00916e-13
  70
    32
  0
VERTEX
  8
0
  5
237A0
 10
70.5621
 20
464.180
 30
-1.00586e-13
  70
    32
  0
VERTEX
  8
0
  5
237A1
 10
73.2840
 20
462.461
 30
-1.00242e-13
  70
    32
  0
VERTEX
  8
0
  5
237A2
 10
75.9627
 20
460.678
 30
-9.98853e-14
  70
    32
  0
VERTEX
  8
0
  5
237A3
 10
78.5968
 20
458.831
 30
-9.95160e-14
  70
    32
  0
VERTEX
  8
0
  5
237A4
 10
81.1847
 20
456.922
 30
-9.91341e-14
  70
    32
  0
VERTEX
  8
0
  5
237A5
 10
83.7248
 20
454.951
 30
-9.87400e-14
  70
    32
  0
VERTEX
  8
0
  5
237A6
 10
86.2156
 20
452.921
 30
-9.83339e-14
  70
    32
  0
VERTEX
  8
0
  5
237A7
 10
88.6558
 20
450.831
 30
-9.79160e-14
  70
    32
  0
VERTEX
  8
0
  5
237A8
 10
91.0437
 20
448.684
 30
-9.74865e-14
  70
    32
  0
VERTEX
  8
0
  5
237A9
 10
93.3782
 20
446.480
 30
-9.70458e-14
  70
    32
  0
VERTEX
  8
0
  5
237AA
 10
95.6577
 20
444.222
 30
-9.65941e-14
  70
    32
  0
VERTEX
  8
0
  5
237AB
 10
97.8809
 20
441.909
 30
-9.61315e-14
  70
    32
  0
VERTEX
  8
0
  5
237AC
 10
100.047
 20
439.544
 30
-9.56585e-14
  70
    32
  0
VERTEX
  8
0
  5
237AD
 10
102.153
 20
437.128
 30
-9.51753e-14
  70
    32
  0
VERTEX
  8
0
  5
237AE
 10
104.200
 20
434.662
 30
-9.46822e-14
  70
    32
  0
VERTEX
  8
0
  5
237AF
 10
106.186
 20
432.148
 30
-9.41794e-14
  70
    32
  0
VERTEX
  8
0
  5
237B0
 10
108.109
 20
429.588
 30
-9.36673e-14
  70
    32
  0
VERTEX
  8
0
  5
237B1
 10
109.968
 20
426.982
 30
-9.31461e-14
  70
    32
  0
VERTEX
  8
0
  5
237B2
 10
111.763
 20
424.332
 30
-9.26162e-14
  70
    32
  0
VERTEX
  8
0
  5
237B3
 10
113.492
 20
421.641
 30
-9.20779e-14
  70
    32
  0
VERTEX
  8
0
  5
237B4
 10
115.154
 20
418.909
 30
-9.15315e-14
  70
    32
  0
VERTEX
  8
0
  5
237B5
 10
116.748
 20
416.138
 30
-9.09773e-14
  70
    32
  0
VERTEX
  8
0
  5
237B6
 10
118.274
 20
413.330
 30
-9.04156e-14
  70
    32
  0
VERTEX
  8
0
  5
237B7
 10
119.730
 20
410.486
 30
-8.98469e-14
  70
    32
  0
VERTEX
  8
0
  5
237B8
 10
121.116
 20
407.608
 30
-8.92713e-14
  70
    32
  0
VERTEX
  8
0
  5
237B9
 10
122.431
 20
404.698
 30
-8.86893e-14
  70
    32
  0
VERTEX
  8
0
  5
237BA
 10
123.673
 20
401.757
 30
-8.81011e-14
  70
    32
  0
VERTEX
  8
0
  5
237BB
 10
124.843
 20
398.787
 30
-8.75072e-14
  70
    32
  0
VERTEX
  8
0
  5
237BC
 10
125.940
 20
395.791
 30
-8.69079e-14
  70
    32
  0
VERTEX
  8
0
  5
237BD
 10
126.962
 20
392.769
 30
-8.63035e-14
  70
    32
  0
VERTEX
  8
0
  5
237BE
 10
127.909
 20
389.723
 30
-8.56944e-14
  70
    32
  0
VERTEX
  8
0
  5
237BF
 10
128.782
 20
386.656
 30
-8.50810e-14
  70
    32
  0
VERTEX
  8
0
  5
237C0
 10
129.579
 20
383.569
 30
-8.44635e-14
  70
    32
  0
VERTEX
  8
0
  5
237C1
 10
130.299
 20
380.464
 30
-8.38425e-14
  70
    32
  0
VERTEX
  8
0
  5
237C2
 10
130.943
 20
377.342
 30
-8.32182e-14
  70
    32
  0
VERTEX
  8
0
  5
237C3
 10
131.509
 20
374.206
 30
-8.25910e-14
  70
    32
  0
VERTEX
  8
0
  5
237C4
 10
131.999
 20
371.058
 30
-8.19612e-14
  70
    32
  0
VERTEX
  8
0
  5
237C5
 10
132.411
 20
367.898
 30
-8.13293e-14
  70
    32
  0
VERTEX
  8
0
  5
237C6
 10
132.744
 20
364.730
 30
-8.06957e-14
  70
    32
  0
VERTEX
  8
0
  5
237C7
 10
133.000
 20
361.554
 30
-8.00606e-14
  70
    32
  0
VERTEX
  8
0
  5
237C8
 10
133.178
 20
358.374
 30
-7.94245e-14
  70
    32
  0
VERTEX
  8
0
  5
237C9
 10
133.277
 20
355.190
 30
-7.87877e-14
  70
    32
  0
SEQEND
  8
0
  5
237CA
  0
POLYLINE
  5
231B2
  8
0
  6
CONTINUOUS
 62
     3
 10
-136.5
 20
244.8504201735012202
 30
-0.0000000000000544
 66
     1
 70
     8
  0
VERTEX
  8
0
  5
237CB
 10
-136.500
 20
244.850
 30
-5.44000e-14
  70
    32
  0
VERTEX
  8
0
  5
237CC
 10
-136.459
 20
243.497
 30
-5.41293e-14
  70
    32
  0
VERTEX
  8
0
  5
237CD
 10
-136.336
 20
242.144
 30
-5.38588e-14
  70
    32
  0
VERTEX
  8
0
  5
237CE
 10
-136.130
 20
240.793
 30
-5.35886e-14
  70
    32
  0
VERTEX
  8
0
  5
237CF
 10
-135.843
 20
239.445
 30
-5.33189e-14
  70
    32
  0
VERTEX
  8
0
  5
237D0
 10
-135.473
 20
238.100
 30
-5.30498e-14
  70
    32
  0
VERTEX
  8
0
  5
237D1
 10
-135.023
 20
236.758
 30
-5.27816e-14
  70
    32
  0
VERTEX
  8
0
  5
237D2
 10
-134.490
 20
235.422
 30
-5.25143e-14
  70
    32
  0
VERTEX
  8
0
  5
237D3
 10
-133.877
 20
234.091
 30
-5.22482e-14
  70
    32
  0
VERTEX
  8
0
  5
237D4
 10
-133.183
 20
232.767
 30
-5.19833e-14
  70
    32
  0
VERTEX
  8
0
  5
237D5
 10
-132.409
 20
231.450
 30
-5.17199e-14
  70
    32
  0
VERTEX
  8
0
  5
237D6
 10
-131.555
 20
230.141
 30
-5.14582e-14
  70
    32
  0
VERTEX
  8
0
  5
237D7
 10
-130.622
 20
228.841
 30
-5.11982e-14
  70
    32
  0
VERTEX
  8
0
  5
237D8
 10
-129.611
 20
227.551
 30
-5.09401e-14
  70
    32
  0
VERTEX
  8
0
  5
237D9
 10
-128.521
 20
226.271
 30
-5.06841e-14
  70
    32
  0
VERTEX
  8
0
  5
237DA
 10
-127.354
 20
225.002
 30
-5.04304e-14
  70
    32
  0
VERTEX
  8
0
  5
237DB
 10
-126.110
 20
223.746
 30
-5.01790e-14
  70
    32
  0
VERTEX
  8
0
  5
237DC
 10
-124.790
 20
222.502
 30
-4.99302e-14
  70
    32
  0
VERTEX
  8
0
  5
237DD
 10
-123.395
 20
221.271
 30
-4.96841e-14
  70
    32
  0
VERTEX
  8
0
  5
237DE
 10
-121.925
 20
220.055
 30
-4.94408e-14
  70
    32
  0
VERTEX
  8
0
  5
237DF
 10
-120.382
 20
218.853
 30
-4.92005e-14
  70
    32
  0
VERTEX
  8
0
  5
237E0
 10
-118.767
 20
217.667
 30
-4.89634e-14
  70
    32
  0
VERTEX
  8
0
  5
237E1
 10
-117.080
 20
216.498
 30
-4.87295e-14
  70
    32
  0
VERTEX
  8
0
  5
237E2
 10
-115.323
 20
215.346
 30
-4.84990e-14
  70
    32
  0
VERTEX
  8
0
  5
237E3
 10
-113.496
 20
214.211
 30
-4.82721e-14
  70
    32
  0
VERTEX
  8
0
  5
237E4
 10
-111.600
 20
213.095
 30
-4.80489e-14
  70
    32
  0
VERTEX
  8
0
  5
237E5
 10
-109.638
 20
211.998
 30
-4.78295e-14
  70
    32
  0
VERTEX
  8
0
  5
237E6
 10
-107.609
 20
210.921
 30
-4.76140e-14
  70
    32
  0
VERTEX
  8
0
  5
237E7
 10
-105.516
 20
209.864
 30
-4.74027e-14
  70
    32
  0
VERTEX
  8
0
  5
237E8
 10
-103.359
 20
208.828
 30
-4.71956e-14
  70
    32
  0
VERTEX
  8
0
  5
237E9
 10
-101.140
 20
207.814
 30
-4.69928e-14
  70
    32
  0
VERTEX
  8
0
  5
237EA
 10
-98.8597
 20
206.823
 30
-4.67944e-14
  70
    32
  0
VERTEX
  8
0
  5
237EB
 10
-96.5201
 20
205.854
 30
-4.66007e-14
  70
    32
  0
VERTEX
  8
0
  5
237EC
 10
-94.1223
 20
204.908
 30
-4.64116e-14
  70
    32
  0
VERTEX
  8
0
  5
237ED
 10
-91.6678
 20
203.987
 30
-4.62274e-14
  70
    32
  0
VERTEX
  8
0
  5
237EE
 10
-89.1581
 20
203.091
 30
-4.60481e-14
  70
    32
  0
VERTEX
  8
0
  5
237EF
 10
-86.5947
 20
202.219
 30
-4.58738e-14
  70
    32
  0
VERTEX
  8
0
  5
237F0
 10
-83.9791
 20
201.373
 30
-4.57046e-14
  70
    32
  0
VERTEX
  8
0
  5
237F1
 10
-81.3130
 20
200.554
 30
-4.55407e-14
  70
    32
  0
VERTEX
  8
0
  5
237F2
 10
-78.5978
 20
199.761
 30
-4.53821e-14
  70
    32
  0
VERTEX
  8
0
  5
237F3
 10
-75.8353
 20
198.995
 30
-4.52290e-14
  70
    32
  0
VERTEX
  8
0
  5
237F4
 10
-73.0272
 20
198.257
 30
-4.50813e-14
  70
    32
  0
VERTEX
  8
0
  5
237F5
 10
-70.1750
 20
197.547
 30
-4.49393e-14
  70
    32
  0
VERTEX
  8
0
  5
237F6
 10
-67.2806
 20
196.865
 30
-4.48030e-14
  70
    32
  0
VERTEX
  8
0
  5
237F7
 10
-64.3457
 20
196.213
 30
-4.46725e-14
  70
    32
  0
VERTEX
  8
0
  5
237F8
 10
-61.3719
 20
195.589
 30
-4.45478e-14
  70
    32
  0
VERTEX
  8
0
  5
237F9
 10
-58.3613
 20
194.996
 30
-4.44291e-14
  70
    32
  0
VERTEX
  8
0
  5
237FA
 10
-55.3154
 20
194.432
 30
-4.43163e-14
  70
    32
  0
VERTEX
  8
0
  5
237FB
 10
-52.2363
 20
193.899
 30
-4.42097e-14
  70
    32
  0
VERTEX
  8
0
  5
237FC
 10
-49.1257
 20
193.396
 30
-4.41092e-14
  70
    32
  0
VERTEX
  8
0
  5
237FD
 10
-45.9855
 20
192.925
 30
-4.40148e-14
  70
    32
  0
VERTEX
  8
0
  5
237FE
 10
-42.8176
 20
192.484
 30
-4.39268e-14
  70
    32
  0
VERTEX
  8
0
  5
237FF
 10
-39.6239
 20
192.076
 30
-4.38450e-14
  70
    32
  0
VERTEX
  8
0
  5
23800
 10
-36.4063
 20
191.699
 30
-4.37696e-14
  70
    32
  0
VERTEX
  8
0
  5
23801
 10
-33.1668
 20
191.354
 30
-4.37006e-14
  70
    32
  0
VERTEX
  8
0
  5
23802
 10
-29.9073
 20
191.041
 30
-4.36381e-14
  70
    32
  0
VERTEX
  8
0
  5
23803
 10
-26.6298
 20
190.761
 30
-4.35820e-14
  70
    32
  0
VERTEX
  8
0
  5
23804
 10
-23.3363
 20
190.513
 30
-4.35325e-14
  70
    32
  0
VERTEX
  8
0
  5
23805
 10
-20.0287
 20
190.298
 30
-4.34895e-14
  70
    32
  0
VERTEX
  8
0
  5
23806
 10
-16.7091
 20
190.116
 30
-4.34530e-14
  70
    32
  0
VERTEX
  8
0
  5
23807
 10
-13.3793
 20
189.966
 30
-4.34232e-14
  70
    32
  0
VERTEX
  8
0
  5
23808
 10
-10.0416
 20
189.850
 30
-4.34000e-14
  70
    32
  0
VERTEX
  8
0
  5
23809
 10
-6.69774
 20
189.767
 30
-4.33834e-14
  70
    32
  0
VERTEX
  8
0
  5
2380A
 10
-3.34988
 20
189.717
 30
-4.33734e-14
  70
    32
  0
VERTEX
  8
0
  5
2380B
 10
-3.21047e-14
 20
189.701
 30
-4.33701e-14
  70
    32
  0
VERTEX
  8
0
  5
2380C
 10
3.34988
 20
189.717
 30
-4.33734e-14
  70
    32
  0
VERTEX
  8
0
  5
2380D
 10
6.69774
 20
189.767
 30
-4.33834e-14
  70
    32
  0
VERTEX
  8
0
  5
2380E
 10
10.0416
 20
189.850
 30
-4.34000e-14
  70
    32
  0
VERTEX
  8
0
  5
2380F
 10
13.3793
 20
189.966
 30
-4.34232e-14
  70
    32
  0
VERTEX
  8
0
  5
23810
 10
16.7091
 20
190.116
 30
-4.34530e-14
  70
    32
  0
VERTEX
  8
0
  5
23811
 10
20.0287
 20
190.298
 30
-4.34895e-14
  70
    32
  0
VERTEX
  8
0
  5
23812
 10
23.3363
 20
190.513
 30
-4.35325e-14
  70
    32
  0
VERTEX
  8
0
  5
23813
 10
26.6298
 20
190.761
 30
-4.35820e-14
  70
    32
  0
VERTEX
  8
0
  5
23814
 10
29.9073
 20
191.041
 30
-4.36381e-14
  70
    32
  0
VERTEX
  8
0
  5
23815
 10
33.1668
 20
191.354
 30
-4.37006e-14
  70
    32
  0
VERTEX
  8
0
  5
23816
 10
36.4063
 20
191.699
 30
-4.37696e-14
  70
    32
  0
VERTEX
  8
0
  5
23817
 10
39.6239
 20
192.076
 30
-4.38450e-14
  70
    32
  0
VERTEX
  8
0
  5
23818
 10
42.8176
 20
192.484
 30
-4.39268e-14
  70
    32
  0
VERTEX
  8
0
  5
23819
 10
45.9855
 20
192.925
 30
-4.40148e-14
  70
    32
  0
VERTEX
  8
0
  5
2381A
 10
49.1257
 20
193.396
 30
-4.41092e-14
  70
    32
  0
VERTEX
  8
0
  5
2381B
 10
52.2363
 20
193.899
 30
-4.42097e-14
  70
    32
  0
VERTEX
  8
0
  5
2381C
 10
55.3154
 20
194.432
 30
-4.43163e-14
  70
    32
  0
VERTEX
  8
0
  5
2381D
 10
58.3613
 20
194.996
 30
-4.44291e-14
  70
    32
  0
VERTEX
  8
0
  5
2381E
 10
61.3719
 20
195.589
 30
-4.45478e-14
  70
    32
  0
VERTEX
  8
0
  5
2381F
 10
64.3457
 20
196.213
 30
-4.46725e-14
  70
    32
  0
VERTEX
  8
0
  5
23820
 10
67.2806
 20
196.865
 30
-4.48030e-14
  70
    32
  0
VERTEX
  8
0
  5
23821
 10
70.1750
 20
197.547
 30
-4.49393e-14
  70
    32
  0
VERTEX
  8
0
  5
23822
 10
73.0272
 20
198.257
 30
-4.50813e-14
  70
    32
  0
VERTEX
  8
0
  5
23823
 10
75.8353
 20
198.995
 30
-4.52290e-14
  70
    32
  0
VERTEX
  8
0
  5
23824
 10
78.5978
 20
199.761
 30
-4.53821e-14
  70
    32
  0
VERTEX
  8
0
  5
23825
 10
81.3130
 20
200.554
 30
-4.55407e-14
  70
    32
  0
VERTEX
  8
0
  5
23826
 10
83.9791
 20
201.373
 30
-4.57046e-14
  70
    32
  0
VERTEX
  8
0
  5
23827
 10
86.5947
 20
202.219
 30
-4.58738e-14
  70
    32
  0
VERTEX
  8
0
  5
23828
 10
89.1581
 20
203.091
 30
-4.60481e-14
  70
    32
  0
VERTEX
  8
0
  5
23829
 10
91.6678
 20
203.987
 30
-4.62274e-14
  70
    32
  0
VERTEX
  8
0
  5
2382A
 10
94.1223
 20
204.908
 30
-4.64116e-14
  70
    32
  0
VERTEX
  8
0
  5
2382B
 10
96.5201
 20
205.854
 30
-4.66007e-14
  70
    32
  0
VERTEX
  8
0
  5
2382C
 10
98.8597
 20
206.823
 30
-4.67944e-14
  70
    32
  0
VERTEX
  8
0
  5
2382D
 10
101.140
 20
207.814
 30
-4.69928e-14
  70
    32
  0
VERTEX
  8
0
  5
2382E
 10
103.359
 20
208.828
 30
-4.71956e-14
  70
    32
  0
VERTEX
  8
0
  5
2382F
 10
105.516
 20
209.864
 30
-4.74027e-14
  70
    32
  0
VERTEX
  8
0
  5
23830
 10
107.609
 20
210.921
 30
-4.76140e-14
  70
    32
  0
VERTEX
  8
0
  5
23831
 10
109.638
 20
211.998
 30
-4.78295e-14
  70
    32
  0
VERTEX
  8
0
  5
23832
 10
111.600
 20
213.095
 30
-4.80489e-14
  70
    32
  0
VERTEX
  8
0
  5
23833
 10
113.496
 20
214.211
 30
-4.82721e-14
  70
    32
  0
VERTEX
  8
0
  5
23834
 10
115.323
 20
215.346
 30
-4.84990e-14
  70
    32
  0
VERTEX
  8
0
  5
23835
 10
117.080
 20
216.498
 30
-4.87295e-14
  70
    32
  0
VERTEX
  8
0
  5
23836
 10
118.767
 20
217.667
 30
-4.89634e-14
  70
    32
  0
VERTEX
  8
0
  5
23837
 10
120.382
 20
218.853
 30
-4.92005e-14
  70
    32
  0
VERTEX
  8
0
  5
23838
 10
121.925
 20
220.055
 30
-4.94408e-14
  70
    32
  0
VERTEX
  8
0
  5
23839
 10
123.395
 20
221.271
 30
-4.96841e-14
  70
    32
  0
VERTEX
  8
0
  5
2383A
 10
124.790
 20
222.502
 30
-4.99302e-14
  70
    32
  0
VERTEX
  8
0
  5
2383B
 10
126.110
 20
223.746
 30
-5.01790e-14
  70
    32
  0
VERTEX
  8
0
  5
2383C
 10
127.354
 20
225.002
 30
-5.04304e-14
  70
    32
  0
VERTEX
  8
0
  5
2383D
 10
128.521
 20
226.271
 30
-5.06841e-14
  70
    32
  0
VERTEX
  8
0
  5
2383E
 10
129.611
 20
227.551
 30
-5.09401e-14
  70
    32
  0
VERTEX
  8
0
  5
2383F
 10
130.622
 20
228.841
 30
-5.11982e-14
  70
    32
  0
VERTEX
  8
0
  5
23840
 10
131.555
 20
230.141
 30
-5.14582e-14
  70
    32
  0
VERTEX
  8
0
  5
23841
 10
132.409
 20
231.450
 30
-5.17199e-14
  70
    32
  0
VERTEX
  8
0
  5
23842
 10
133.183
 20
232.767
 30
-5.19833e-14
  70
    32
  0
VERTEX
  8
0
  5
23843
 10
133.877
 20
234.091
 30
-5.22482e-14
  70
    32
  0
VERTEX
  8
0
  5
23844
 10
134.490
 20
235.422
 30
-5.25143e-14
  70
    32
  0
VERTEX
  8
0
  5
23845
 10
135.023
 20
236.758
 30
-5.27816e-14
  70
    32
  0
VERTEX
  8
0
  5
23846
 10
135.473
 20
238.100
 30
-5.30498e-14
  70
    32
  0
VERTEX
  8
0
  5
23847
 10
135.843
 20
239.445
 30
-5.33189e-14
  70
    32
  0
VERTEX
  8
0
  5
23848
 10
136.130
 20
240.793
 30
-5.35886e-14
  70
    32
  0
VERTEX
  8
0
  5
23849
 10
136.336
 20
242.144
 30
-5.38588e-14
  70
    32
  0
VERTEX
  8
0
  5
2384A
 10
136.459
 20
243.497
 30
-5.41293e-14
  70
    32
  0
VERTEX
  8
0
  5
2384B
 10
136.500
 20
244.850
 30
-5.44000e-14
  70
    32
  0
SEQEND
  8
0
  5
2384C
  0
POLYLINE
  5
231B3
  8
0
  6
CONTINUOUS
 62
     3
 10
136.5
 20
352.7513902243067605
 30
-0.0000000000000783
 66
     1
 70
     8
  0
VERTEX
  8
0
  5
2384D
 10
136.500
 20
352.751
 30
-7.83000e-14
  70
    32
  0
VERTEX
  8
0
  5
2384E
 10
136.459
 20
349.451
 30
-7.76399e-14
  70
    32
  0
VERTEX
  8
0
  5
2384F
 10
136.336
 20
346.152
 30
-7.69802e-14
  70
    32
  0
VERTEX
  8
0
  5
23850
 10
136.130
 20
342.858
 30
-7.63212e-14
  70
    32
  0
VERTEX
  8
0
  5
23851
 10
135.843
 20
339.569
 30
-7.56635e-14
  70
    32
  0
VERTEX
  8
0
  5
23852
 10
135.473
 20
336.288
 30
-7.50073e-14
  70
    32
  0
VERTEX
  8
0
  5
23853
 10
135.023
 20
333.017
 30
-7.43532e-14
  70
    32
  0
VERTEX
  8
0
  5
23854
 10
134.490
 20
329.758
 30
-7.37014e-14
  70
    32
  0
VERTEX
  8
0
  5
23855
 10
133.877
 20
326.513
 30
-7.30524e-14
  70
    32
  0
VERTEX
  8
0
  5
23856
 10
133.183
 20
323.284
 30
-7.24065e-14
  70
    32
  0
VERTEX
  8
0
  5
23857
 10
132.409
 20
320.072
 30
-7.17642e-14
  70
    32
  0
VERTEX
  8
0
  5
23858
 10
131.555
 20
316.881
 30
-7.11258e-14
  70
    32
  0
VERTEX
  8
0
  5
23859
 10
130.622
 20
313.710
 30
-7.04918e-14
  70
    32
  0
VERTEX
  8
0
  5
2385A
 10
129.611
 20
310.564
 30
-6.98625e-14
  70
    32
  0
VERTEX
  8
0
  5
2385B
 10
128.521
 20
307.442
 30
-6.92382e-14
  70
    32
  0
VERTEX
  8
0
  5
2385C
 10
127.354
 20
304.348
 30
-6.86194e-14
  70
    32
  0
VERTEX
  8
0
  5
2385D
 10
126.110
 20
301.283
 30
-6.80064e-14
  70
    32
  0
VERTEX
  8
0
  5
2385E
 10
124.790
 20
298.250
 30
-6.73996e-14
  70
    32
  0
VERTEX
  8
0
  5
2385F
 10
123.395
 20
295.249
 30
-6.67994e-14
  70
    32
  0
VERTEX
  8
0
  5
23860
 10
121.925
 20
292.282
 30
-6.62062e-14
  70
    32
  0
VERTEX
  8
0
  5
23861
 10
120.382
 20
289.352
 30
-6.56202e-14
  70
    32
  0
VERTEX
  8
0
  5
23862
 10
118.767
 20
286.460
 30
-6.50418e-14
  70
    32
  0
VERTEX
  8
0
  5
23863
 10
117.080
 20
283.609
 30
-6.44714e-14
  70
    32
  0
VERTEX
  8
0
  5
23864
 10
115.323
 20
280.798
 30
-6.39094e-14
  70
    32
  0
VERTEX
  8
0
  5
23865
 10
113.496
 20
278.032
 30
-6.33560e-14
  70
    32
  0
VERTEX
  8
0
  5
23866
 10
111.600
 20
275.310
 30
-6.28117e-14
  70
    32
  0
VERTEX
  8
0
  5
23867
 10
109.638
 20
272.635
 30
-6.22766e-14
  70
    32
  0
VERTEX
  8
0
  5
23868
 10
107.609
 20
270.008
 30
-6.17512e-14
  70
    32
  0
VERTEX
  8
0
  5
23869
 10
105.516
 20
267.430
 30
-6.12358e-14
  70
    32
  0
VERTEX
  8
0
  5
2386A
 10
103.359
 20
264.905
 30
-6.07307e-14
  70
    32
  0
VERTEX
  8
0
  5
2386B
 10
101.140
 20
262.432
 30
-6.02361e-14
  70
    32
  0
VERTEX
  8
0
  5
2386C
 10
98.8597
 20
260.014
 30
-5.97524e-14
  70
    32
  0
VERTEX
  8
0
  5
2386D
 10
96.5201
 20
257.651
 30
-5.92799e-14
  70
    32
  0
VERTEX
  8
0
  5
2386E
 10
94.1223
 20
255.346
 30
-5.88189e-14
  70
    32
  0
VERTEX
  8
0
  5
2386F
 10
91.6678
 20
253.099
 30
-5.83696e-14
  70
    32
  0
VERTEX
  8
0
  5
23870
 10
89.1581
 20
250.913
 30
-5.79323e-14
  70
    32
  0
VERTEX
  8
0
  5
23871
 10
86.5947
 20
248.788
 30
-5.75072e-14
  70
    32
  0
VERTEX
  8
0
  5
23872
 10
83.9791
 20
246.725
 30
-5.70947e-14
  70
    32
  0
VERTEX
  8
0
  5
23873
 10
81.3130
 20
244.726
 30
-5.66950e-14
  70
    32
  0
VERTEX
  8
0
  5
23874
 10
78.5978
 20
242.793
 30
-5.63083e-14
  70
    32
  0
VERTEX
  8
0
  5
23875
 10
75.8353
 20
240.925
 30
-5.59348e-14
  70
    32
  0
VERTEX
  8
0
  5
23876
 10
73.0272
 20
239.125
 30
-5.55748e-14
  70
    32
  0
VERTEX
  8
0
  5
23877
 10
70.1750
 20
237.394
 30
-5.52284e-14
  70
    32
  0
VERTEX
  8
0
  5
23878
 10
67.2806
 20
235.732
 30
-5.48960e-14
  70
    32
  0
VERTEX
  8
0
  5
23879
 10
64.3457
 20
234.140
 30
-5.45777e-14
  70
    32
  0
VERTEX
  8
0
  5
2387A
 10
61.3719
 20
232.620
 30
-5.42737e-14
  70
    32
  0
VERTEX
  8
0
  5
2387B
 10
58.3613
 20
231.172
 30
-5.39841e-14
  70
    32
  0
VERTEX
  8
0
  5
2387C
 10
55.3154
 20
229.797
 30
-5.37092e-14
  70
    32
  0
VERTEX
  8
0
  5
2387D
 10
52.2363
 20
228.497
 30
-5.34491e-14
  70
    32
  0
VERTEX
  8
0
  5
2387E
 10
49.1257
 20
227.271
 30
-5.32040e-14
  70
    32
  0
VERTEX
  8
0
  5
2387F
 10
45.9855
 20
226.121
 30
-5.29739e-14
  70
    32
  0
VERTEX
  8
0
  5
23880
 10
42.8176
 20
225.047
 30
-5.27592e-14
  70
    32
  0
VERTEX
  8
0
  5
23881
 10
39.6239
 20
224.050
 30
-5.25598e-14
  70
    32
  0
VERTEX
  8
0
  5
23882
 10
36.4063
 20
223.131
 30
-5.23759e-14
  70
    32
  0
VERTEX
  8
0
  5
23883
 10
33.1668
 20
222.290
 30
-5.22077e-14
  70
    32
  0
VERTEX
  8
0
  5
23884
 10
29.9073
 20
221.527
 30
-5.20551e-14
  70
    32
  0
VERTEX
  8
0
  5
23885
 10
26.6298
 20
220.843
 30
-5.19184e-14
  70
    32
  0
VERTEX
  8
0
  5
23886
 10
23.3363
 20
220.239
 30
-5.17976e-14
  70
    32
  0
VERTEX
  8
0
  5
23887
 10
20.0287
 20
219.715
 30
-5.16927e-14
  70
    32
  0
VERTEX
  8
0
  5
23888
 10
16.7091
 20
219.271
 30
-5.16039e-14
  70
    32
  0
VERTEX
  8
0
  5
23889
 10
13.3793
 20
218.907
 30
-5.15311e-14
  70
    32
  0
VERTEX
  8
0
  5
2388A
 10
10.0416
 20
218.624
 30
-5.14745e-14
  70
    32
  0
VERTEX
  8
0
  5
2388B
 10
6.69774
 20
218.421
 30
-5.14340e-14
  70
    32
  0
VERTEX
  8
0
  5
2388C
 10
3.34988
 20
218.300
 30
-5.14097e-14
  70
    32
  0
VERTEX
  8
0
  5
2388D
 10
7.93059e-15
 20
218.259
 30
-5.14016e-14
  70
    32
  0
VERTEX
  8
0
  5
2388E
 10
-3.34988
 20
218.300
 30
-5.14097e-14
  70
    32
  0
VERTEX
  8
0
  5
2388F
 10
-6.69774
 20
218.421
 30
-5.14340e-14
  70
    32
  0
VERTEX
  8
0
  5
23890
 10
-10.0416
 20
218.624
 30
-5.14745e-14
  70
    32
  0
VERTEX
  8
0
  5
23891
 10
-13.3793
 20
218.907
 30
-5.15311e-14
  70
    32
  0
VERTEX
  8
0
  5
23892
 10
-16.7091
 20
219.271
 30
-5.16039e-14
  70
    32
  0
VERTEX
  8
0
  5
23893
 10
-20.0287
 20
219.715
 30
-5.16927e-14
  70
    32
  0
VERTEX
  8
0
  5
23894
 10
-23.3363
 20
220.239
 30
-5.17976e-14
  70
    32
  0
VERTEX
  8
0
  5
23895
 10
-26.6298
 20
220.843
 30
-5.19184e-14
  70
    32
  0
VERTEX
  8
0
  5
23896
 10
-29.9073
 20
221.527
 30
-5.20551e-14
  70
    32
  0
VERTEX
  8
0
  5
23897
 10
-33.1668
 20
222.290
 30
-5.22077e-14
  70
    32
  0
VERTEX
  8
0
  5
23898
 10
-36.4063
 20
223.131
 30
-5.23759e-14
  70
    32
  0
VERTEX
  8
0
  5
23899
 10
-39.6239
 20
224.050
 30
-5.25598e-14
  70
    32
  0
VERTEX
  8
0
  5
2389A
 10
-42.8176
 20
225.047
 30
-5.27592e-14
  70
    32
  0
VERTEX
  8
0
  5
2389B
 10
-45.9855
 20
226.121
 30
-5.29739e-14
  70
    32
  0
VERTEX
  8
0
  5
2389C
 10
-49.1257
 20
227.271
 30
-5.32040e-14
  70
    32
  0
VERTEX
  8
0
  5
2389D
 10
-52.2363
 20
228.497
 30
-5.34491e-14
  70
    32
  0
VERTEX
  8
0
  5
2389E
 10
-55.3154
 20
229.797
 30
-5.37092e-14
  70
    32
  0
VERTEX
  8
0
  5
2389F
 10
-58.3613
 20
231.172
 30
-5.39841e-14
  70
    32
  0
VERTEX
  8
0
  5
238A0
 10
-61.3719
 20
232.620
 30
-5.42737e-14
  70
    32
  0
VERTEX
  8
0
  5
238A1
 10
-64.3457
 20
234.140
 30
-5.45777e-14
  70
    32
  0
VERTEX
  8
0
  5
238A2
 10
-67.2806
 20
235.732
 30
-5.48960e-14
  70
    32
  0
VERTEX
  8
0
  5
238A3
 10
-70.1750
 20
237.394
 30
-5.52284e-14
  70
    32
  0
VERTEX
  8
0
  5
238A4
 10
-73.0272
 20
239.125
 30
-5.55748e-14
  70
    32
  0
VERTEX
  8
0
  5
238A5
 10
-75.8353
 20
240.925
 30
-5.59348e-14
  70
    32
  0
VERTEX
  8
0
  5
238A6
 10
-78.5978
 20
242.793
 30
-5.63083e-14
  70
    32
  0
VERTEX
  8
0
  5
238A7
 10
-81.3130
 20
244.726
 30
-5.66950e-14
  70
    32
  0
VERTEX
  8
0
  5
238A8
 10
-83.9791
 20
246.725
 30
-5.70947e-14
  70
    32
  0
VERTEX
  8
0
  5
238A9
 10
-86.5947
 20
248.788
 30
-5.75072e-14
  70
    32
  0
VERTEX
  8
0
  5
238AA
 10
-89.1581
 20
250.913
 30
-5.79323e-14
  70
    32
  0
VERTEX
  8
0
  5
238AB
 10
-91.6678
 20
253.099
 30
-5.83696e-14
  70
    32
  0
VERTEX
  8
0
  5
238AC
 10
-94.1223
 20
255.346
 30
-5.88189e-14
  70
    32
  0
VERTEX
  8
0
  5
238AD
 10
-96.5201
 20
257.651
 30
-5.92799e-14
  70
    32
  0
VERTEX
  8
0
  5
238AE
 10
-98.8597
 20
260.014
 30
-5.97524e-14
  70
    32
  0
VERTEX
  8
0
  5
238AF
 10
-101.140
 20
262.432
 30
-6.02361e-14
  70
    32
  0
VERTEX
  8
0
  5
238B0
 10
-103.359
 20
264.905
 30
-6.07307e-14
  70
    32
  0
VERTEX
  8
0
  5
238B1
 10
-105.516
 20
267.430
 30
-6.12358e-14
  70
    32
  0
VERTEX
  8
0
  5
238B2
 10
-107.609
 20
270.008
 30
-6.17512e-14
  70
    32
  0
VERTEX
  8
0
  5
238B3
 10
-109.638
 20
272.635
 30
-6.22766e-14
  70
    32
  0
VERTEX
  8
0
  5
238B4
 10
-111.600
 20
275.310
 30
-6.28117e-14
  70
    32
  0
VERTEX
  8
0
  5
238B5
 10
-113.496
 20
278.032
 30
-6.33560e-14
  70
    32
  0
VERTEX
  8
0
  5
238B6
 10
-115.323
 20
280.798
 30
-6.39094e-14
  70
    32
  0
VERTEX
  8
0
  5
238B7
 10
-117.080
 20
283.609
 30
-6.44714e-14
  70
    32
  0
VERTEX
  8
0
  5
238B8
 10
-118.767
 20
286.460
 30
-6.50418e-14
  70
    32
  0
VERTEX
  8
0
  5
238B9
 10
-120.382
 20
289.352
 30
-6.56202e-14
  70
    32
  0
VERTEX
  8
0
  5
238BA
 10
-121.925
 20
292.282
 30
-6.62062e-14
  70
    32
  0
VERTEX
  8
0
  5
238BB
 10
-123.395
 20
295.249
 30
-6.67994e-14
  70
    32
  0
VERTEX
  8
0
  5
238BC
 10
-124.790
 20
298.250
 30
-6.73996e-14
  70
    32
  0
VERTEX
  8
0
  5
238BD
 10
-126.110
 20
301.283
 30
-6.80064e-14
  70
    32
  0
VERTEX
  8
0
  5
238BE
 10
-127.354
 20
304.348
 30
-6.86194e-14
  70
    32
  0
VERTEX
  8
0
  5
238BF
 10
-128.521
 20
307.442
 30
-6.92382e-14
  70
    32
  0
VERTEX
  8
0
  5
238C0
 10
-129.611
 20
310.564
 30
-6.98625e-14
  70
    32
  0
VERTEX
  8
0
  5
238C1
 10
-130.622
 20
313.710
 30
-7.04918e-14
  70
    32
  0
VERTEX
  8
0
  5
238C2
 10
-131.555
 20
316.881
 30
-7.11258e-14
  70
    32
  0
VERTEX
  8
0
  5
238C3
 10
-132.409
 20
320.072
 30
-7.17642e-14
  70
    32
  0
VERTEX
  8
0
  5
238C4
 10
-133.183
 20
323.284
 30
-7.24065e-14
  70
    32
  0
VERTEX
  8
0
  5
238C5
 10
-133.877
 20
326.513
 30
-7.30524e-14
  70
    32
  0
VERTEX
  8
0
  5
238C6
 10
-134.490
 20
329.758
 30
-7.37014e-14
  70
    32
  0
VERTEX
  8
0
  5
238C7
 10
-135.023
 20
333.017
 30
-7.43532e-14
  70
    32
  0
VERTEX
  8
0
  5
238C8
 10
-135.473
 20
336.288
 30
-7.50073e-14
  70
    32
  0
VERTEX
  8
0
  5
238C9
 10
-135.843
 20
339.569
 30
-7.56635e-14
  70
    32
  0
VERTEX
  8
0
  5
238CA
 10
-136.130
 20
342.858
 30
-7.63212e-14
  70
    32
  0
VERTEX
  8
0
  5
238CB
 10
-136.336
 20
346.152
 30
-7.69802e-14
  70
    32
  0
VERTEX
  8
0
  5
238CC
 10
-136.459
 20
349.451
 30
-7.76399e-14
  70
    32
  0
VERTEX
  8
0
  5
238CD
 10
-136.500
 20
352.751
 30
-7.83000e-14
  70
    32
  0
SEQEND
  8
0
  5
238CE
  0
LINE
  5
231B4
  8
0
  6
CONTINUOUS
 62
     3
 10
-136.5
 20
244.8504201735013055
 30
-0.0000000000000544
 11
-136.5
 21
352.751390224298973
 31
-0.0000000000000783
210
0.0
220
1.0
230
-0.0000000000000002
  0
LINE
  5
231B5
  8
0
  6
CONTINUOUS
 62
     3
 10
136.5
 20
244.8504201735011918
 30
-0.0000000000000544
 11
136.5
 21
352.751390224298973
 31
-0.0000000000000783
210
0.0
220
1.0
230
-0.0000000000000002
  0
POLYLINE
  5
231B6
  8
0
  6
VERDECKT
 62
     1
 10
-133.2770208773209788
 20
355.1900003851785073
 30
-0.0000000000000788
 66
     1
 70
     8
  0
VERTEX
  8
0
  5
238CF
 10
-133.277
 20
355.190
 30
-7.87877e-14
  70
    32
  0
VERTEX
  8
0
  5
238D0
 10
-133.297
 20
351.928
 30
-7.81354e-14
  70
    32
  0
VERTEX
  8
0
  5
238D1
 10
-133.236
 20
348.667
 30
-7.74832e-14
  70
    32
  0
VERTEX
  8
0
  5
238D2
 10
-133.092
 20
345.409
 30
-7.68315e-14
  70
    32
  0
VERTEX
  8
0
  5
238D3
 10
-132.865
 20
342.155
 30
-7.61807e-14
  70
    32
  0
VERTEX
  8
0
  5
238D4
 10
-132.557
 20
338.908
 30
-7.55312e-14
  70
    32
  0
VERTEX
  8
0
  5
238D5
 10
-132.168
 20
335.669
 30
-7.48835e-14
  70
    32
  0
VERTEX
  8
0
  5
238D6
 10
-131.696
 20
332.440
 30
-7.42378e-14
  70
    32
  0
VERTEX
  8
0
  5
238D7
 10
-131.144
 20
329.225
 30
-7.35946e-14
  70
    32
  0
VERTEX
  8
0
  5
238D8
 10
-130.511
 20
326.023
 30
-7.29544e-14
  70
    32
  0
VERTEX
  8
0
  5
238D9
 10
-129.797
 20
322.838
 30
-7.23174e-14
  70
    32
  0
VERTEX
  8
0
  5
238DA
 10
-129.003
 20
319.672
 30
-7.16841e-14
  70
    32
  0
VERTEX
  8
0
  5
238DB
 10
-128.129
 20
316.526
 30
-7.10549e-14
  70
    32
  0
VERTEX
  8
0
  5
238DC
 10
-127.177
 20
313.402
 30
-7.04302e-14
  70
    32
  0
VERTEX
  8
0
  5
238DD
 10
-126.146
 20
310.303
 30
-6.98103e-14
  70
    32
  0
VERTEX
  8
0
  5
238DE
 10
-125.037
 20
307.230
 30
-6.91957e-14
  70
    32
  0
VERTEX
  8
0
  5
238DF
 10
-123.852
 20
304.185
 30
-6.85867e-14
  70
    32
  0
VERTEX
  8
0
  5
238E0
 10
-122.589
 20
301.170
 30
-6.79836e-14
  70
    32
  0
VERTEX
  8
0
  5
238E1
 10
-121.252
 20
298.186
 30
-6.73870e-14
  70
    32
  0
VERTEX
  8
0
  5
238E2
 10
-119.839
 20
295.236
 30
-6.67970e-14
  70
    32
  0
VERTEX
  8
0
  5
238E3
 10
-118.353
 20
292.322
 30
-6.62142e-14
  70
    32
  0
VERTEX
  8
0
  5
238E4
 10
-116.793
 20
289.445
 30
-6.56388e-14
  70
    32
  0
VERTEX
  8
0
  5
238E5
 10
-115.162
 20
286.607
 30
-6.50712e-14
  70
    32
  0
VERTEX
  8
0
  5
238E6
 10
-113.459
 20
283.810
 30
-6.45117e-14
  70
    32
  0
VERTEX
  8
0
  5
238E7
 10
-111.687
 20
281.055
 30
-6.39608e-14
  70
    32
  0
VERTEX
  8
0
  5
238E8
 10
-109.846
 20
278.345
 30
-6.34187e-14
  70
    32
  0
VERTEX
  8
0
  5
238E9
 10
-107.936
 20
275.680
 30
-6.28858e-14
  70
    32
  0
VERTEX
  8
0
  5
238EA
 10
-105.961
 20
273.063
 30
-6.23624e-14
  70
    32
  0
VERTEX
  8
0
  5
238EB
 10
-103.920
 20
270.496
 30
-6.18488e-14
  70
    32
  0
VERTEX
  8
0
  5
238EC
 10
-101.815
 20
267.978
 30
-6.13454e-14
  70
    32
  0
VERTEX
  8
0
  5
238ED
 10
-99.6470
 20
265.514
 30
-6.08524e-14
  70
    32
  0
VERTEX
  8
0
  5
238EE
 10
-97.4177
 20
263.103
 30
-6.03702e-14
  70
    32
  0
VERTEX
  8
0
  5
238EF
 10
-95.1284
 20
260.747
 30
-5.98991e-14
  70
    32
  0
VERTEX
  8
0
  5
238F0
 10
-92.7803
 20
258.448
 30
-5.94393e-14
  70
    32
  0
VERTEX
  8
0
  5
238F1
 10
-90.3751
 20
256.207
 30
-5.89911e-14
  70
    32
  0
VERTEX
  8
0
  5
238F2
 10
-87.9141
 20
254.025
 30
-5.85548e-14
  70
    32
  0
VERTEX
  8
0
  5
238F3
 10
-85.3989
 20
251.905
 30
-5.81307e-14
  70
    32
  0
VERTEX
  8
0
  5
238F4
 10
-82.8310
 20
249.847
 30
-5.77191e-14
  70
    32
  0
VERTEX
  8
0
  5
238F5
 10
-80.2121
 20
247.852
 30
-5.73201e-14
  70
    32
  0
VERTEX
  8
0
  5
238F6
 10
-77.5437
 20
245.922
 30
-5.69341e-14
  70
    32
  0
VERTEX
  8
0
  5
238F7
 10
-74.8275
 20
244.058
 30
-5.65612e-14
  70
    32
  0
VERTEX
  8
0
  5
238F8
 10
-72.0651
 20
242.260
 30
-5.62018e-14
  70
    32
  0
VERTEX
  8
0
  5
238F9
 10
-69.2583
 20
240.531
 30
-5.58560e-14
  70
    32
  0
VERTEX
  8
0
  5
238FA
 10
-66.4088
 20
238.871
 30
-5.55240e-14
  70
    32
  0
VERTEX
  8
0
  5
238FB
 10
-63.5183
 20
237.282
 30
-5.52061e-14
  70
    32
  0
VERTEX
  8
0
  5
238FC
 10
-60.5886
 20
235.763
 30
-5.49024e-14
  70
    32
  0
VERTEX
  8
0
  5
238FD
 10
-57.6216
 20
234.317
 30
-5.46131e-14
  70
    32
  0
VERTEX
  8
0
  5
238FE
 10
-54.6191
 20
232.944
 30
-5.43385e-14
  70
    32
  0
VERTEX
  8
0
  5
238FF
 10
-51.5828
 20
231.644
 30
-5.40786e-14
  70
    32
  0
VERTEX
  8
0
  5
23900
 10
-48.5148
 20
230.420
 30
-5.38337e-14
  70
    32
  0
VERTEX
  8
0
  5
23901
 10
-45.4168
 20
229.270
 30
-5.36038e-14
  70
    32
  0
VERTEX
  8
0
  5
23902
 10
-42.2909
 20
228.197
 30
-5.33892e-14
  70
    32
  0
VERTEX
  8
0
  5
23903
 10
-39.1388
 20
227.201
 30
-5.31899e-14
  70
    32
  0
VERTEX
  8
0
  5
23904
 10
-35.9626
 20
226.282
 30
-5.30062e-14
  70
    32
  0
VERTEX
  8
0
  5
23905
 10
-32.7643
 20
225.441
 30
-5.28380e-14
  70
    32
  0
VERTEX
  8
0
  5
23906
 10
-29.5457
 20
224.679
 30
-5.26855e-14
  70
    32
  0
VERTEX
  8
0
  5
23907
 10
-26.3089
 20
223.996
 30
-5.25488e-14
  70
    32
  0
VERTEX
  8
0
  5
23908
 10
-23.0559
 20
223.392
 30
-5.24281e-14
  70
    32
  0
VERTEX
  8
0
  5
23909
 10
-19.7887
 20
222.867
 30
-5.23232e-14
  70
    32
  0
VERTEX
  8
0
  5
2390A
 10
-16.5092
 20
222.423
 30
-5.22344e-14
  70
    32
  0
VERTEX
  8
0
  5
2390B
 10
-13.2196
 20
222.060
 30
-5.21616e-14
  70
    32
  0
VERTEX
  8
0
  5
2390C
 10
-9.92186
 20
221.776
 30
-5.21050e-14
  70
    32
  0
VERTEX
  8
0
  5
2390D
 10
-6.61798
 20
221.574
 30
-5.20645e-14
  70
    32
  0
VERTEX
  8
0
  5
2390E
 10
-3.31001
 20
221.453
 30
-5.20403e-14
  70
    32
  0
VERTEX
  8
0
  5
2390F
 10
1.06334e-12
 20
221.412
 30
-5.20322e-14
  70
    32
  0
VERTEX
  8
0
  5
23910
 10
3.31001
 20
221.453
 30
-5.20403e-14
  70
    32
  0
VERTEX
  8
0
  5
23911
 10
6.61798
 20
221.574
 30
-5.20645e-14
  70
    32
  0
VERTEX
  8
0
  5
23912
 10
9.92186
 20
221.776
 30
-5.21050e-14
  70
    32
  0
VERTEX
  8
0
  5
23913
 10
13.2196
 20
222.060
 30
-5.21616e-14
  70
    32
  0
VERTEX
  8
0
  5
23914
 10
16.5092
 20
222.423
 30
-5.22344e-14
  70
    32
  0
VERTEX
  8
0
  5
23915
 10
19.7887
 20
222.867
 30
-5.23232e-14
  70
    32
  0
VERTEX
  8
0
  5
23916
 10
23.0559
 20
223.392
 30
-5.24281e-14
  70
    32
  0
VERTEX
  8
0
  5
23917
 10
26.3089
 20
223.996
 30
-5.25488e-14
  70
    32
  0
VERTEX
  8
0
  5
23918
 10
29.5457
 20
224.679
 30
-5.26855e-14
  70
    32
  0
VERTEX
  8
0
  5
23919
 10
32.7643
 20
225.441
 30
-5.28380e-14
  70
    32
  0
VERTEX
  8
0
  5
2391A
 10
35.9626
 20
226.282
 30
-5.30062e-14
  70
    32
  0
VERTEX
  8
0
  5
2391B
 10
39.1388
 20
227.201
 30
-5.31899e-14
  70
    32
  0
VERTEX
  8
0
  5
2391C
 10
42.2909
 20
228.197
 30
-5.33892e-14
  70
    32
  0
VERTEX
  8
0
  5
2391D
 10
45.4168
 20
229.270
 30
-5.36038e-14
  70
    32
  0
VERTEX
  8
0
  5
2391E
 10
48.5148
 20
230.420
 30
-5.38337e-14
  70
    32
  0
VERTEX
  8
0
  5
2391F
 10
51.5828
 20
231.644
 30
-5.40786e-14
  70
    32
  0
VERTEX
  8
0
  5
23920
 10
54.6191
 20
232.944
 30
-5.43385e-14
  70
    32
  0
VERTEX
  8
0
  5
23921
 10
57.6216
 20
234.317
 30
-5.46131e-14
  70
    32
  0
VERTEX
  8
0
  5
23922
 10
60.5886
 20
235.763
 30
-5.49024e-14
  70
    32
  0
VERTEX
  8
0
  5
23923
 10
63.5183
 20
237.282
 30
-5.52061e-14
  70
    32
  0
VERTEX
  8
0
  5
23924
 10
66.4088
 20
238.871
 30
-5.55240e-14
  70
    32
  0
VERTEX
  8
0
  5
23925
 10
69.2583
 20
240.531
 30
-5.58560e-14
  70
    32
  0
VERTEX
  8
0
  5
23926
 10
72.0651
 20
242.260
 30
-5.62018e-14
  70
    32
  0
VERTEX
  8
0
  5
23927
 10
74.8275
 20
244.058
 30
-5.65612e-14
  70
    32
  0
VERTEX
  8
0
  5
23928
 10
77.5437
 20
245.922
 30
-5.69341e-14
  70
    32
  0
VERTEX
  8
0
  5
23929
 10
80.2121
 20
247.852
 30
-5.73201e-14
  70
    32
  0
VERTEX
  8
0
  5
2392A
 10
82.8310
 20
249.847
 30
-5.77191e-14
  70
    32
  0
VERTEX
  8
0
  5
2392B
 10
85.3989
 20
251.905
 30
-5.81307e-14
  70
    32
  0
VERTEX
  8
0
  5
2392C
 10
87.9141
 20
254.025
 30
-5.85548e-14
  70
    32
  0
VERTEX
  8
0
  5
2392D
 10
90.3751
 20
256.207
 30
-5.89911e-14
  70
    32
  0
VERTEX
  8
0
  5
2392E
 10
92.7803
 20
258.448
 30
-5.94393e-14
  70
    32
  0
VERTEX
  8
0
  5
2392F
 10
95.1284
 20
260.747
 30
-5.98991e-14
  70
    32
  0
VERTEX
  8
0
  5
23930
 10
97.4177
 20
263.103
 30
-6.03702e-14
  70
    32
  0
VERTEX
  8
0
  5
23931
 10
99.6470
 20
265.514
 30
-6.08524e-14
  70
    32
  0
VERTEX
  8
0
  5
23932
 10
101.815
 20
267.978
 30
-6.13454e-14
  70
    32
  0
VERTEX
  8
0
  5
23933
 10
103.920
 20
270.496
 30
-6.18488e-14
  70
    32
  0
VERTEX
  8
0
  5
23934
 10
105.961
 20
273.063
 30
-6.23624e-14
  70
    32
  0
VERTEX
  8
0
  5
23935
 10
107.936
 20
275.680
 30
-6.28858e-14
  70
    32
  0
VERTEX
  8
0
  5
23936
 10
109.846
 20
278.345
 30
-6.34187e-14
  70
    32
  0
VERTEX
  8
0
  5
23937
 10
111.687
 20
281.055
 30
-6.39608e-14
  70
    32
  0
VERTEX
  8
0
  5
23938
 10
113.459
 20
283.810
 30
-6.45117e-14
  70
    32
  0
VERTEX
  8
0
  5
23939
 10
115.162
 20
286.607
 30
-6.50712e-14
  70
    32
  0
VERTEX
  8
0
  5
2393A
 10
116.793
 20
289.445
 30
-6.56388e-14
  70
    32
  0
VERTEX
  8
0
  5
2393B
 10
118.353
 20
292.322
 30
-6.62142e-14
  70
    32
  0
VERTEX
  8
0
  5
2393C
 10
119.839
 20
295.236
 30
-6.67970e-14
  70
    32
  0
VERTEX
  8
0
  5
2393D
 10
121.252
 20
298.186
 30
-6.73870e-14
  70
    32
  0
VERTEX
  8
0
  5
2393E
 10
122.589
 20
301.170
 30
-6.79836e-14
  70
    32
  0
VERTEX
  8
0
  5
2393F
 10
123.852
 20
304.185
 30
-6.85867e-14
  70
    32
  0
VERTEX
  8
0
  5
23940
 10
125.037
 20
307.230
 30
-6.91957e-14
  70
    32
  0
VERTEX
  8
0
  5
23941
 10
126.146
 20
310.303
 30
-6.98103e-14
  70
    32
  0
VERTEX
  8
0
  5
23942
 10
127.177
 20
313.402
 30
-7.04302e-14
  70
    32
  0
VERTEX
  8
0
  5
23943
 10
128.129
 20
316.526
 30
-7.10549e-14
  70
    32
  0
VERTEX
  8
0
  5
23944
 10
129.003
 20
319.672
 30
-7.16841e-14
  70
    32
  0
VERTEX
  8
0
  5
23945
 10
129.797
 20
322.838
 30
-7.23174e-14
  70
    32
  0
VERTEX
  8
0
  5
23946
 10
130.511
 20
326.023
 30
-7.29544e-14
  70
    32
  0
VERTEX
  8
0
  5
23947
 10
131.144
 20
329.225
 30
-7.35946e-14
  70
    32
  0
VERTEX
  8
0
  5
23948
 10
131.696
 20
332.440
 30
-7.42378e-14
  70
    32
  0
VERTEX
  8
0
  5
23949
 10
132.168
 20
335.669
 30
-7.48835e-14
  70
    32
  0
VERTEX
  8
0
  5
2394A
 10
132.557
 20
338.908
 30
-7.55312e-14
  70
    32
  0
VERTEX
  8
0
  5
2394B
 10
132.865
 20
342.155
 30
-7.61807e-14
  70
    32
  0
VERTEX
  8
0
  5
2394C
 10
133.092
 20
345.409
 30
-7.68315e-14
  70
    32
  0
VERTEX
  8
0
  5
2394D
 10
133.236
 20
348.667
 30
-7.74832e-14
  70
    32
  0
VERTEX
  8
0
  5
2394E
 10
133.297
 20
351.928
 30
-7.81354e-14
  70
    32
  0
VERTEX
  8
0
  5
2394F
 10
133.277
 20
355.190
 30
-7.87877e-14
  70
    32
  0
SEQEND
  8
0
  5
23950
  0
POLYLINE
  5
231B7
  8
0
  6
VERDECKT
 62
     1
 10
136.5
 20
352.7513902243071016
 30
-0.0000000000000783
 66
     1
 70
     8
  0
VERTEX
  8
0
  5
23951
 10
136.500
 20
352.751
 30
-7.83000e-14
  70
    32
  0
VERTEX
  8
0
  5
23952
 10
136.459
 20
356.052
 30
-7.89601e-14
  70
    32
  0
VERTEX
  8
0
  5
23953
 10
136.336
 20
359.351
 30
-7.96198e-14
  70
    32
  0
VERTEX
  8
0
  5
23954
 10
136.130
 20
362.645
 30
-8.02788e-14
  70
    32
  0
VERTEX
  8
0
  5
23955
 10
135.843
 20
365.934
 30
-8.09365e-14
  70
    32
  0
VERTEX
  8
0
  5
23956
 10
135.473
 20
369.215
 30
-8.15927e-14
  70
    32
  0
VERTEX
  8
0
  5
23957
 10
135.023
 20
372.485
 30
-8.22468e-14
  70
    32
  0
VERTEX
  8
0
  5
23958
 10
134.490
 20
375.744
 30
-8.28986e-14
  70
    32
  0
VERTEX
  8
0
  5
23959
 10
133.877
 20
378.990
 30
-8.35476e-14
  70
    32
  0
VERTEX
  8
0
  5
2395A
 10
133.183
 20
382.219
 30
-8.41935e-14
  70
    32
  0
VERTEX
  8
0
  5
2395B
 10
132.409
 20
385.430
 30
-8.48358e-14
  70
    32
  0
VERTEX
  8
0
  5
2395C
 10
131.555
 20
388.622
 30
-8.54742e-14
  70
    32
  0
VERTEX
  8
0
  5
2395D
 10
130.622
 20
391.792
 30
-8.61082e-14
  70
    32
  0
VERTEX
  8
0
  5
2395E
 10
129.611
 20
394.939
 30
-8.67375e-14
  70
    32
  0
VERTEX
  8
0
  5
2395F
 10
128.521
 20
398.060
 30
-8.73618e-14
  70
    32
  0
VERTEX
  8
0
  5
23960
 10
127.354
 20
401.154
 30
-8.79806e-14
  70
    32
  0
VERTEX
  8
0
  5
23961
 10
126.110
 20
404.219
 30
-8.85936e-14
  70
    32
  0
VERTEX
  8
0
  5
23962
 10
124.790
 20
407.253
 30
-8.92004e-14
  70
    32
  0
VERTEX
  8
0
  5
23963
 10
123.395
 20
410.254
 30
-8.98006e-14
  70
    32
  0
VERTEX
  8
0
  5
23964
 10
121.925
 20
413.221
 30
-9.03938e-14
  70
    32
  0
VERTEX
  8
0
  5
23965
 10
120.382
 20
416.151
 30
-9.09798e-14
  70
    32
  0
VERTEX
  8
0
  5
23966
 10
118.767
 20
419.042
 30
-9.15582e-14
  70
    32
  0
VERTEX
  8
0
  5
23967
 10
117.080
 20
421.894
 30
-9.21286e-14
  70
    32
  0
VERTEX
  8
0
  5
23968
 10
115.323
 20
424.704
 30
-9.26906e-14
  70
    32
  0
VERTEX
  8
0
  5
23969
 10
113.496
 20
427.471
 30
-9.32440e-14
  70
    32
  0
VERTEX
  8
0
  5
2396A
 10
111.600
 20
430.193
 30
-9.37883e-14
  70
    32
  0
VERTEX
  8
0
  5
2396B
 10
109.638
 20
432.868
 30
-9.43234e-14
  70
    32
  0
VERTEX
  8
0
  5
2396C
 10
107.609
 20
435.495
 30
-9.48488e-14
  70
    32
  0
VERTEX
  8
0
  5
2396D
 10
105.516
 20
438.072
 30
-9.53642e-14
  70
    32
  0
VERTEX
  8
0
  5
2396E
 10
103.359
 20
440.598
 30
-9.58693e-14
  70
    32
  0
VERTEX
  8
0
  5
2396F
 10
101.140
 20
443.071
 30
-9.63639e-14
  70
    32
  0
VERTEX
  8
0
  5
23970
 10
98.8597
 20
445.489
 30
-9.68476e-14
  70
    32
  0
VERTEX
  8
0
  5
23971
 10
96.5201
 20
447.852
 30
-9.73201e-14
  70
    32
  0
VERTEX
  8
0
  5
23972
 10
94.1223
 20
450.157
 30
-9.77811e-14
  70
    32
  0
VERTEX
  8
0
  5
23973
 10
91.6678
 20
452.404
 30
-9.82304e-14
  70
    32
  0
VERTEX
  8
0
  5
23974
 10
89.1581
 20
454.590
 30
-9.86677e-14
  70
    32
  0
VERTEX
  8
0
  5
23975
 10
86.5947
 20
456.715
 30
-9.90928e-14
  70
    32
  0
VERTEX
  8
0
  5
23976
 10
83.9791
 20
458.778
 30
-9.95053e-14
  70
    32
  0
VERTEX
  8
0
  5
23977
 10
81.3130
 20
460.777
 30
-9.99050e-14
  70
    32
  0
VERTEX
  8
0
  5
23978
 10
78.5978
 20
462.710
 30
-1.00292e-13
  70
    32
  0
VERTEX
  8
0
  5
23979
 10
75.8353
 20
464.578
 30
-1.00665e-13
  70
    32
  0
VERTEX
  8
0
  5
2397A
 10
73.0272
 20
466.378
 30
-1.01025e-13
  70
    32
  0
VERTEX
  8
0
  5
2397B
 10
70.1750
 20
468.109
 30
-1.01372e-13
  70
    32
  0
VERTEX
  8
0
  5
2397C
 10
67.2806
 20
469.771
 30
-1.01704e-13
  70
    32
  0
VERTEX
  8
0
  5
2397D
 10
64.3457
 20
471.363
 30
-1.02022e-13
  70
    32
  0
VERTEX
  8
0
  5
2397E
 10
61.3719
 20
472.883
 30
-1.02326e-13
  70
    32
  0
VERTEX
  8
0
  5
2397F
 10
58.3613
 20
474.331
 30
-1.02616e-13
  70
    32
  0
VERTEX
  8
0
  5
23980
 10
55.3154
 20
475.705
 30
-1.02891e-13
  70
    32
  0
VERTEX
  8
0
  5
23981
 10
52.2363
 20
477.006
 30
-1.03151e-13
  70
    32
  0
VERTEX
  8
0
  5
23982
 10
49.1257
 20
478.232
 30
-1.03396e-13
  70
    32
  0
VERTEX
  8
0
  5
23983
 10
45.9855
 20
479.382
 30
-1.03626e-13
  70
    32
  0
VERTEX
  8
0
  5
23984
 10
42.8176
 20
480.455
 30
-1.03841e-13
  70
    32
  0
VERTEX
  8
0
  5
23985
 10
39.6239
 20
481.452
 30
-1.04040e-13
  70
    32
  0
VERTEX
  8
0
  5
23986
 10
36.4063
 20
482.372
 30
-1.04224e-13
  70
    32
  0
VERTEX
  8
0
  5
23987
 10
33.1668
 20
483.213
 30
-1.04392e-13
  70
    32
  0
VERTEX
  8
0
  5
23988
 10
29.9073
 20
483.976
 30
-1.04545e-13
  70
    32
  0
VERTEX
  8
0
  5
23989
 10
26.6298
 20
484.659
 30
-1.04682e-13
  70
    32
  0
VERTEX
  8
0
  5
2398A
 10
23.3363
 20
485.264
 30
-1.04802e-13
  70
    32
  0
VERTEX
  8
0
  5
2398B
 10
20.0287
 20
485.788
 30
-1.04907e-13
  70
    32
  0
VERTEX
  8
0
  5
2398C
 10
16.7091
 20
486.232
 30
-1.04996e-13
  70
    32
  0
VERTEX
  8
0
  5
2398D
 10
13.3793
 20
486.596
 30
-1.05069e-13
  70
    32
  0
VERTEX
  8
0
  5
2398E
 10
10.0416
 20
486.879
 30
-1.05126e-13
  70
    32
  0
VERTEX
  8
0
  5
2398F
 10
6.69774
 20
487.082
 30
-1.05166e-13
  70
    32
  0
VERTEX
  8
0
  5
23990
 10
3.34988
 20
487.203
 30
-1.05190e-13
  70
    32
  0
VERTEX
  8
0
  5
23991
 10
-3.71184e-14
 20
487.244
 30
-1.05198e-13
  70
    32
  0
VERTEX
  8
0
  5
23992
 10
-3.34988
 20
487.203
 30
-1.05190e-13
  70
    32
  0
VERTEX
  8
0
  5
23993
 10
-6.69774
 20
487.082
 30
-1.05166e-13
  70
    32
  0
VERTEX
  8
0
  5
23994
 10
-10.0416
 20
486.879
 30
-1.05126e-13
  70
    32
  0
VERTEX
  8
0
  5
23995
 10
-13.3793
 20
486.596
 30
-1.05069e-13
  70
    32
  0
VERTEX
  8
0
  5
23996
 10
-16.7091
 20
486.232
 30
-1.04996e-13
  70
    32
  0
VERTEX
  8
0
  5
23997
 10
-20.0287
 20
485.788
 30
-1.04907e-13
  70
    32
  0
VERTEX
  8
0
  5
23998
 10
-23.3363
 20
485.264
 30
-1.04802e-13
  70
    32
  0
VERTEX
  8
0
  5
23999
 10
-26.6298
 20
484.659
 30
-1.04682e-13
  70
    32
  0
VERTEX
  8
0
  5
2399A
 10
-29.9073
 20
483.976
 30
-1.04545e-13
  70
    32
  0
VERTEX
  8
0
  5
2399B
 10
-33.1668
 20
483.213
 30
-1.04392e-13
  70
    32
  0
VERTEX
  8
0
  5
2399C
 10
-36.4063
 20
482.372
 30
-1.04224e-13
  70
    32
  0
VERTEX
  8
0
  5
2399D
 10
-39.6239
 20
481.452
 30
-1.04040e-13
  70
    32
  0
VERTEX
  8
0
  5
2399E
 10
-42.8176
 20
480.455
 30
-1.03841e-13
  70
    32
  0
VERTEX
  8
0
  5
2399F
 10
-45.9855
 20
479.382
 30
-1.03626e-13
  70
    32
  0
VERTEX
  8
0
  5
239A0
 10
-49.1257
 20
478.232
 30
-1.03396e-13
  70
    32
  0
VERTEX
  8
0
  5
239A1
 10
-52.2363
 20
477.006
 30
-1.03151e-13
  70
    32
  0
VERTEX
  8
0
  5
239A2
 10
-55.3154
 20
475.705
 30
-1.02891e-13
  70
    32
  0
VERTEX
  8
0
  5
239A3
 10
-58.3613
 20
474.331
 30
-1.02616e-13
  70
    32
  0
VERTEX
  8
0
  5
239A4
 10
-61.3719
 20
472.883
 30
-1.02326e-13
  70
    32
  0
VERTEX
  8
0
  5
239A5
 10
-64.3457
 20
471.363
 30
-1.02022e-13
  70
    32
  0
VERTEX
  8
0
  5
239A6
 10
-67.2806
 20
469.771
 30
-1.01704e-13
  70
    32
  0
VERTEX
  8
0
  5
239A7
 10
-70.1750
 20
468.109
 30
-1.01372e-13
  70
    32
  0
VERTEX
  8
0
  5
239A8
 10
-73.0272
 20
466.378
 30
-1.01025e-13
  70
    32
  0
VERTEX
  8
0
  5
239A9
 10
-75.8353
 20
464.578
 30
-1.00665e-13
  70
    32
  0
VERTEX
  8
0
  5
239AA
 10
-78.5978
 20
462.710
 30
-1.00292e-13
  70
    32
  0
VERTEX
  8
0
  5
239AB
 10
-81.3130
 20
460.777
 30
-9.99050e-14
  70
    32
  0
VERTEX
  8
0
  5
239AC
 10
-83.9791
 20
458.778
 30
-9.95053e-14
  70
    32
  0
VERTEX
  8
0
  5
239AD
 10
-86.5947
 20
456.715
 30
-9.90928e-14
  70
    32
  0
VERTEX
  8
0
  5
239AE
 10
-89.1581
 20
454.590
 30
-9.86677e-14
  70
    32
  0
VERTEX
  8
0
  5
239AF
 10
-91.6678
 20
452.404
 30
-9.82304e-14
  70
    32
  0
VERTEX
  8
0
  5
239B0
 10
-94.1223
 20
450.157
 30
-9.77811e-14
  70
    32
  0
VERTEX
  8
0
  5
239B1
 10
-96.5201
 20
447.852
 30
-9.73201e-14
  70
    32
  0
VERTEX
  8
0
  5
239B2
 10
-98.8597
 20
445.489
 30
-9.68476e-14
  70
    32
  0
VERTEX
  8
0
  5
239B3
 10
-101.140
 20
443.071
 30
-9.63639e-14
  70
    32
  0
VERTEX
  8
0
  5
239B4
 10
-103.359
 20
440.598
 30
-9.58693e-14
  70
    32
  0
VERTEX
  8
0
  5
239B5
 10
-105.516
 20
438.072
 30
-9.53642e-14
  70
    32
  0
VERTEX
  8
0
  5
239B6
 10
-107.609
 20
435.495
 30
-9.48488e-14
  70
    32
  0
VERTEX
  8
0
  5
239B7
 10
-109.638
 20
432.868
 30
-9.43234e-14
  70
    32
  0
VERTEX
  8
0
  5
239B8
 10
-111.600
 20
430.193
 30
-9.37883e-14
  70
    32
  0
VERTEX
  8
0
  5
239B9
 10
-113.496
 20
427.471
 30
-9.32440e-14
  70
    32
  0
VERTEX
  8
0
  5
239BA
 10
-115.323
 20
424.704
 30
-9.26906e-14
  70
    32
  0
VERTEX
  8
0
  5
239BB
 10
-117.080
 20
421.894
 30
-9.21286e-14
  70
    32
  0
VERTEX
  8
0
  5
239BC
 10
-118.767
 20
419.042
 30
-9.15582e-14
  70
    32
  0
VERTEX
  8
0
  5
239BD
 10
-120.382
 20
416.151
 30
-9.09798e-14
  70
    32
  0
VERTEX
  8
0
  5
239BE
 10
-121.925
 20
413.221
 30
-9.03938e-14
  70
    32
  0
VERTEX
  8
0
  5
239BF
 10
-123.395
 20
410.254
 30
-8.98006e-14
  70
    32
  0
VERTEX
  8
0
  5
239C0
 10
-124.790
 20
407.253
 30
-8.92004e-14
  70
    32
  0
VERTEX
  8
0
  5
239C1
 10
-126.110
 20
404.219
 30
-8.85936e-14
  70
    32
  0
VERTEX
  8
0
  5
239C2
 10
-127.354
 20
401.154
 30
-8.79806e-14
  70
    32
  0
VERTEX
  8
0
  5
239C3
 10
-128.521
 20
398.060
 30
-8.73618e-14
  70
    32
  0
VERTEX
  8
0
  5
239C4
 10
-129.611
 20
394.939
 30
-8.67375e-14
  70
    32
  0
VERTEX
  8
0
  5
239C5
 10
-130.622
 20
391.792
 30
-8.61082e-14
  70
    32
  0
VERTEX
  8
0
  5
239C6
 10
-131.555
 20
388.622
 30
-8.54742e-14
  70
    32
  0
VERTEX
  8
0
  5
239C7
 10
-132.409
 20
385.430
 30
-8.48358e-14
  70
    32
  0
VERTEX
  8
0
  5
239C8
 10
-133.183
 20
382.219
 30
-8.41935e-14
  70
    32
  0
VERTEX
  8
0
  5
239C9
 10
-133.877
 20
378.990
 30
-8.35476e-14
  70
    32
  0
VERTEX
  8
0
  5
239CA
 10
-134.490
 20
375.744
 30
-8.28986e-14
  70
    32
  0
VERTEX
  8
0
  5
239CB
 10
-135.023
 20
372.485
 30
-8.22468e-14
  70
    32
  0
VERTEX
  8
0
  5
239CC
 10
-135.473
 20
369.215
 30
-8.15927e-14
  70
    32
  0
VERTEX
  8
0
  5
239CD
 10
-135.843
 20
365.934
 30
-8.09365e-14
  70
    32
  0
VERTEX
  8
0
  5
239CE
 10
-136.130
 20
362.645
 30
-8.02788e-14
  70
    32
  0
VERTEX
  8
0
  5
239CF
 10
-136.336
 20
359.351
 30
-7.96198e-14
  70
    32
  0
VERTEX
  8
0
  5
239D0
 10
-136.459
 20
356.052
 30
-7.89601e-14
  70
    32
  0
VERTEX
  8
0
  5
239D1
 10
-136.500
 20
352.751
 30
-7.83000e-14
  70
    32
  0
SEQEND
  8
0
  5
239D2
  0
LINE
  5
231B8
  8
0
  6
VERDECKT
 62
     1
 10
133.3000000000000114
 20
357.663509049020206
 30
-0.0000000000000794
 11
133.3000000000000114
 21
352.7513902242992003
 31
-0.0000000000000783
210
0.0
220
1.0
230
-0.0000000000000002
  0
LINE
  5
231B9
  8
0
  6
VERDECKT
 62
     1
 10
-133.3000000000000114
 20
357.663509049020206
 30
-0.0000000000000794
 11
-133.3000000000000114
 21
352.7513902242992003
 31
-0.0000000000000783
210
0.0
220
1.0
230
-0.0000000000000002
  0
POLYLINE
  5
231BA
  8
0
  6
VERDECKT
 62
     1
 10
133.3000000000000114
 20
244.8504201735012202
 30
-0.0000000000000544
 66
     1
 70
     8
  0
VERTEX
  8
0
  5
239D3
 10
133.300
 20
244.850
 30
-5.44000e-14
  70
    32
  0
VERTEX
  8
0
  5
239D4
 10
133.242
 20
243.256
 30
-5.40812e-14
  70
    32
  0
VERTEX
  8
0
  5
239D5
 10
133.066
 20
241.664
 30
-5.37627e-14
  70
    32
  0
VERTEX
  8
0
  5
239D6
 10
132.775
 20
240.074
 30
-5.34447e-14
  70
    32
  0
VERTEX
  8
0
  5
239D7
 10
132.367
 20
238.489
 30
-5.31276e-14
  70
    32
  0
VERTEX
  8
0
  5
239D8
 10
131.843
 20
236.909
 30
-5.28116e-14
  70
    32
  0
VERTEX
  8
0
  5
239D9
 10
131.203
 20
235.335
 30
-5.24970e-14
  70
    32
  0
VERTEX
  8
0
  5
239DA
 10
130.449
 20
233.771
 30
-5.21841e-14
  70
    32
  0
VERTEX
  8
0
  5
239DB
 10
129.580
 20
232.216
 30
-5.18731e-14
  70
    32
  0
VERTEX
  8
0
  5
239DC
 10
128.598
 20
230.672
 30
-5.15643e-14
  70
    32
  0
VERTEX
  8
0
  5
239DD
 10
127.503
 20
229.140
 30
-5.12580e-14
  70
    32
  0
VERTEX
  8
0
  5
239DE
 10
126.296
 20
227.622
 30
-5.09544e-14
  70
    32
  0
VERTEX
  8
0
  5
239DF
 10
124.979
 20
226.120
 30
-5.06539e-14
  70
    32
  0
VERTEX
  8
0
  5
239E0
 10
123.552
 20
224.634
 30
-5.03566e-14
  70
    32
  0
VERTEX
  8
0
  5
239E1
 10
122.017
 20
223.165
 30
-5.00629e-14
  70
    32
  0
VERTEX
  8
0
  5
239E2
 10
120.375
 20
221.715
 30
-4.97730e-14
  70
    32
  0
VERTEX
  8
0
  5
239E3
 10
118.627
 20
220.286
 30
-4.94872e-14
  70
    32
  0
VERTEX
  8
0
  5
239E4
 10
116.776
 20
218.878
 30
-4.92056e-14
  70
    32
  0
VERTEX
  8
0
  5
239E5
 10
114.822
 20
217.493
 30
-4.89286e-14
  70
    32
  0
VERTEX
  8
0
  5
239E6
 10
112.768
 20
216.132
 30
-4.86564e-14
  70
    32
  0
VERTEX
  8
0
  5
239E7
 10
110.615
 20
214.797
 30
-4.83892e-14
  70
    32
  0
VERTEX
  8
0
  5
239E8
 10
108.365
 20
213.487
 30
-4.81273e-14
  70
    32
  0
VERTEX
  8
0
  5
239E9
 10
106.020
 20
212.205
 30
-4.78709e-14
  70
    32
  0
VERTEX
  8
0
  5
239EA
 10
103.582
 20
210.952
 30
-4.76202e-14
  70
    32
  0
VERTEX
  8
0
  5
239EB
 10
101.053
 20
209.728
 30
-4.73755e-14
  70
    32
  0
VERTEX
  8
0
  5
239EC
 10
98.4362
 20
208.535
 30
-4.71369e-14
  70
    32
  0
VERTEX
  8
0
  5
239ED
 10
95.7328
 20
207.374
 30
-4.69046e-14
  70
    32
  0
VERTEX
  8
0
  5
239EE
 10
92.9456
 20
206.245
 30
-4.66790e-14
  70
    32
  0
VERTEX
  8
0
  5
239EF
 10
90.0769
 20
205.151
 30
-4.64601e-14
  70
    32
  0
VERTEX
  8
0
  5
239F0
 10
87.1293
 20
204.091
 30
-4.62481e-14
  70
    32
  0
VERTEX
  8
0
  5
239F1
 10
84.1054
 20
203.067
 30
-4.60433e-14
  70
    32
  0
VERTEX
  8
0
  5
239F2
 10
81.0077
 20
202.080
 30
-4.58458e-14
  70
    32
  0
VERTEX
  8
0
  5
239F3
 10
77.8391
 20
201.130
 30
-4.56559e-14
  70
    32
  0
VERTEX
  8
0
  5
239F4
 10
74.6023
 20
200.218
 30
-4.54735e-14
  70
    32
  0
VERTEX
  8
0
  5
239F5
 10
71.3002
 20
199.346
 30
-4.52990e-14
  70
    32
  0
VERTEX
  8
0
  5
239F6
 10
67.9355
 20
198.513
 30
-4.51325e-14
  70
    32
  0
VERTEX
  8
0
  5
239F7
 10
64.5114
 20
197.721
 30
-4.49741e-14
  70
    32
  0
VERTEX
  8
0
  5
239F8
 10
61.0307
 20
196.970
 30
-4.48239e-14
  70
    32
  0
VERTEX
  8
0
  5
239F9
 10
57.4966
 20
196.261
 30
-4.46822e-14
  70
    32
  0
VERTEX
  8
0
  5
239FA
 10
53.9120
 20
195.595
 30
-4.45489e-14
  70
    32
  0
VERTEX
  8
0
  5
239FB
 10
50.2803
 20
194.972
 30
-4.44243e-14
  70
    32
  0
VERTEX
  8
0
  5
239FC
 10
46.6045
 20
194.393
 30
-4.43084e-14
  70
    32
  0
VERTEX
  8
0
  5
239FD
 10
42.8878
 20
193.857
 30
-4.42014e-14
  70
    32
  0
VERTEX
  8
0
  5
239FE
 10
39.1336
 20
193.367
 30
-4.41033e-14
  70
    32
  0
VERTEX
  8
0
  5
239FF
 10
35.3451
 20
192.921
 30
-4.40142e-14
  70
    32
  0
VERTEX
  8
0
  5
23A00
 10
31.5256
 20
192.522
 30
-4.39342e-14
  70
    32
  0
VERTEX
  8
0
  5
23A01
 10
27.6786
 20
192.168
 30
-4.38634e-14
  70
    32
  0
VERTEX
  8
0
  5
23A02
 10
23.8072
 20
191.860
 30
-4.38018e-14
  70
    32
  0
VERTEX
  8
0
  5
23A03
 10
19.9150
 20
191.598
 30
-4.37495e-14
  70
    32
  0
VERTEX
  8
0
  5
23A04
 10
16.0054
 20
191.383
 30
-4.37066e-14
  70
    32
  0
VERTEX
  8
0
  5
23A05
 10
12.0817
 20
191.215
 30
-4.36730e-14
  70
    32
  0
VERTEX
  8
0
  5
23A06
 10
8.14745
 20
191.094
 30
-4.36488e-14
  70
    32
  0
VERTEX
  8
0
  5
23A07
 10
4.20605
 20
191.021
 30
-4.36340e-14
  70
    32
  0
VERTEX
  8
0
  5
23A08
 10
0.260974
 20
190.994
 30
-4.36287e-14
  70
    32
  0
VERTEX
  8
0
  5
23A09
 10
-3.68433
 20
191.014
 30
-4.36328e-14
  70
    32
  0
VERTEX
  8
0
  5
23A0A
 10
-7.62641
 20
191.082
 30
-4.36463e-14
  70
    32
  0
VERTEX
  8
0
  5
23A0B
 10
-11.5618
 20
191.197
 30
-4.36693e-14
  70
    32
  0
VERTEX
  8
0
  5
23A0C
 10
-15.4871
 20
191.358
 30
-4.37016e-14
  70
    32
  0
VERTEX
  8
0
  5
23A0D
 10
-19.3988
 20
191.567
 30
-4.37433e-14
  70
    32
  0
VERTEX
  8
0
  5
23A0E
 10
-23.2935
 20
191.822
 30
-4.37944e-14
  70
    32
  0
VERTEX
  8
0
  5
23A0F
 10
-27.1678
 20
192.124
 30
-4.38547e-14
  70
    32
  0
VERTEX
  8
0
  5
23A10
 10
-31.0183
 20
192.472
 30
-4.39243e-14
  70
    32
  0
VERTEX
  8
0
  5
23A11
 10
-34.8416
 20
192.866
 30
-4.40031e-14
  70
    32
  0
VERTEX
  8
0
  5
23A12
 10
-38.6344
 20
193.305
 30
-4.40910e-14
  70
    32
  0
VERTEX
  8
0
  5
23A13
 10
-42.3933
 20
193.790
 30
-4.41879e-14
  70
    32
  0
VERTEX
  8
0
  5
23A14
 10
-46.1151
 20
194.319
 30
-4.42938e-14
  70
    32
  0
VERTEX
  8
0
  5
23A15
 10
-49.7965
 20
194.893
 30
-4.44085e-14
  70
    32
  0
VERTEX
  8
0
  5
23A16
 10
-53.4343
 20
195.510
 30
-4.45319e-14
  70
    32
  0
VERTEX
  8
0
  5
23A17
 10
-57.0252
 20
196.171
 30
-4.46641e-14
  70
    32
  0
VERTEX
  8
0
  5
23A18
 10
-60.5662
 20
196.874
 30
-4.48047e-14
  70
    32
  0
VERTEX
  8
0
  5
23A19
 10
-64.0541
 20
197.619
 30
-4.49537e-14
  70
    32
  0
VERTEX
  8
0
  5
23A1A
 10
-67.4859
 20
198.406
 30
-4.51111e-14
  70
    32
  0
VERTEX
  8
0
  5
23A1B
 10
-70.8586
 20
199.233
 30
-4.52765e-14
  70
    32
  0
VERTEX
  8
0
  5
23A1C
 10
-74.1692
 20
200.100
 30
-4.54500e-14
  70
    32
  0
VERTEX
  8
0
  5
23A1D
 10
-77.4148
 20
201.007
 30
-4.56313e-14
  70
    32
  0
VERTEX
  8
0
  5
23A1E
 10
-80.5926
 20
201.952
 30
-4.58203e-14
  70
    32
  0
VERTEX
  8
0
  5
23A1F
 10
-83.6998
 20
202.934
 30
-4.60168e-14
  70
    32
  0
VERTEX
  8
0
  5
23A20
 10
-86.7336
 20
203.954
 30
-4.62206e-14
  70
    32
  0
VERTEX
  8
0
  5
23A21
 10
-89.6915
 20
205.009
 30
-4.64316e-14
  70
    32
  0
VERTEX
  8
0
  5
23A22
 10
-92.5707
 20
206.099
 30
-4.66496e-14
  70
    32
  0
VERTEX
  8
0
  5
23A23
 10
-95.3689
 20
207.222
 30
-4.68744e-14
  70
    32
  0
VERTEX
  8
0
  5
23A24
 10
-98.0835
 20
208.379
 30
-4.71058e-14
  70
    32
  0
VERTEX
  8
0
  5
23A25
 10
-100.712
 20
209.568
 30
-4.73435e-14
  70
    32
  0
VERTEX
  8
0
  5
23A26
 10
-103.253
 20
210.788
 30
-4.75875e-14
  70
    32
  0
VERTEX
  8
0
  5
23A27
 10
-105.703
 20
212.037
 30
-4.78374e-14
  70
    32
  0
VERTEX
  8
0
  5
23A28
 10
-108.060
 20
213.316
 30
-4.80931e-14
  70
    32
  0
VERTEX
  8
0
  5
23A29
 10
-110.323
 20
214.622
 30
-4.83543e-14
  70
    32
  0
VERTEX
  8
0
  5
23A2A
 10
-112.489
 20
215.954
 30
-4.86208e-14
  70
    32
  0
VERTEX
  8
0
  5
23A2B
 10
-114.556
 20
217.312
 30
-4.88923e-14
  70
    32
  0
VERTEX
  8
0
  5
23A2C
 10
-116.523
 20
218.694
 30
-4.91687e-14
  70
    32
  0
VERTEX
  8
0
  5
23A2D
 10
-118.388
 20
220.099
 30
-4.94497e-14
  70
    32
  0
VERTEX
  8
0
  5
23A2E
 10
-120.150
 20
221.525
 30
-4.97350e-14
  70
    32
  0
VERTEX
  8
0
  5
23A2F
 10
-121.806
 20
222.972
 30
-5.00243e-14
  70
    32
  0
VERTEX
  8
0
  5
23A30
 10
-123.355
 20
224.438
 30
-5.03176e-14
  70
    32
  0
VERTEX
  8
0
  5
23A31
 10
-124.796
 20
225.922
 30
-5.06144e-14
  70
    32
  0
VERTEX
  8
0
  5
23A32
 10
-126.128
 20
227.423
 30
-5.09145e-14
  70
    32
  0
VERTEX
  8
0
  5
23A33
 10
-127.349
 20
228.939
 30
-5.12176e-14
  70
    32
  0
VERTEX
  8
0
  5
23A34
 10
-128.459
 20
230.468
 30
-5.15236e-14
  70
    32
  0
VERTEX
  8
0
  5
23A35
 10
-129.456
 20
232.011
 30
-5.18321e-14
  70
    32
  0
VERTEX
  8
0
  5
23A36
 10
-130.340
 20
233.564
 30
-5.21428e-14
  70
    32
  0
VERTEX
  8
0
  5
23A37
 10
-131.110
 20
235.128
 30
-5.24555e-14
  70
    32
  0
VERTEX
  8
0
  5
23A38
 10
-131.765
 20
236.700
 30
-5.27699e-14
  70
    32
  0
VERTEX
  8
0
  5
23A39
 10
-132.304
 20
238.279
 30
-5.30857e-14
  70
    32
  0
VERTEX
  8
0
  5
23A3A
 10
-132.727
 20
239.864
 30
-5.34027e-14
  70
    32
  0
VERTEX
  8
0
  5
23A3B
 10
-133.035
 20
241.453
 30
-5.37206e-14
  70
    32
  0
VERTEX
  8
0
  5
23A3C
 10
-133.225
 20
243.046
 30
-5.40391e-14
  70
    32
  0
VERTEX
  8
0
  5
23A3D
 10
-133.299
 20
244.640
 30
-5.43578e-14
  70
    32
  0
VERTEX
  8
0
  5
23A3E
 10
-133.256
 20
246.234
 30
-5.46766e-14
  70
    32
  0
VERTEX
  8
0
  5
23A3F
 10
-133.096
 20
247.826
 30
-5.49952e-14
  70
    32
  0
VERTEX
  8
0
  5
23A40
 10
-132.820
 20
249.417
 30
-5.53132e-14
  70
    32
  0
VERTEX
  8
0
  5
23A41
 10
-132.427
 20
251.003
 30
-5.56305e-14
  70
    32
  0
VERTEX
  8
0
  5
23A42
 10
-131.919
 20
252.584
 30
-5.59467e-14
  70
    32
  0
VERTEX
  8
0
  5
23A43
 10
-131.294
 20
254.158
 30
-5.62615e-14
  70
    32
  0
VERTEX
  8
0
  5
23A44
 10
-130.555
 20
255.724
 30
-5.65746e-14
  70
    32
  0
VERTEX
  8
0
  5
23A45
 10
-129.701
 20
257.280
 30
-5.68859e-14
  70
    32
  0
VERTEX
  8
0
  5
23A46
 10
-128.734
 20
258.826
 30
-5.71950e-14
  70
    32
  0
VERTEX
  8
0
  5
23A47
 10
-127.654
 20
260.359
 30
-5.75017e-14
  70
    32
  0
VERTEX
  8
0
  5
23A48
 10
-126.462
 20
261.878
 30
-5.78056e-14
  70
    32
  0
VERTEX
  8
0
  5
23A49
 10
-125.159
 20
263.383
 30
-5.81065e-14
  70
    32
  0
VERTEX
  8
0
  5
23A4A
 10
-123.747
 20
264.872
 30
-5.84042e-14
  70
    32
  0
VERTEX
  8
0
  5
23A4B
 10
-122.226
 20
266.343
 30
-5.86984e-14
  70
    32
  0
VERTEX
  8
0
  5
23A4C
 10
-120.598
 20
267.795
 30
-5.89889e-14
  70
    32
  0
VERTEX
  8
0
  5
23A4D
 10
-118.864
 20
269.227
 30
-5.92753e-14
  70
    32
  0
VERTEX
  8
0
  5
23A4E
 10
-117.027
 20
270.637
 30
-5.95574e-14
  70
    32
  0
VERTEX
  8
0
  5
23A4F
 10
-115.086
 20
272.026
 30
-5.98350e-14
  70
    32
  0
VERTEX
  8
0
  5
23A50
 10
-113.045
 20
273.390
 30
-6.01079e-14
  70
    32
  0
VERTEX
  8
0
  5
23A51
 10
-110.905
 20
274.729
 30
-6.03757e-14
  70
    32
  0
VERTEX
  8
0
  5
23A52
 10
-108.668
 20
276.042
 30
-6.06383e-14
  70
    32
  0
VERTEX
  8
0
  5
23A53
 10
-106.335
 20
277.328
 30
-6.08955e-14
  70
    32
  0
SEQEND
  8
0
  5
23A54
  0
POLYLINE
  5
231BB
  8
0
  6
VERDECKT
 62
     1
 10
106.3353632058044411
 20
277.3278982193058937
 30
-0.0000000000000609
 66
     1
 70
     8
  0
VERTEX
  8
0
  5
23A55
 10
106.335
 20
277.328
 30
-6.08955e-14
  70
    32
  0
VERTEX
  8
0
  5
23A56
 10
106.741
 20
277.110
 30
-6.08520e-14
  70
    32
  0
VERTEX
  8
0
  5
23A57
 10
107.143
 20
276.892
 30
-6.08083e-14
  70
    32
  0
VERTEX
  8
0
  5
23A58
 10
107.543
 20
276.672
 30
-6.07644e-14
  70
    32
  0
VERTEX
  8
0
  5
23A59
 10
107.940
 20
276.452
 30
-6.07204e-14
  70
    32
  0
VERTEX
  8
0
  5
23A5A
 10
108.334
 20
276.231
 30
-6.06762e-14
  70
    32
  0
VERTEX
  8
0
  5
23A5B
 10
108.725
 20
276.010
 30
-6.06318e-14
  70
    32
  0
VERTEX
  8
0
  5
23A5C
 10
109.114
 20
275.787
 30
-6.05873e-14
  70
    32
  0
VERTEX
  8
0
  5
23A5D
 10
109.500
 20
275.564
 30
-6.05427e-14
  70
    32
  0
VERTEX
  8
0
  5
23A5E
 10
109.883
 20
275.340
 30
-6.04978e-14
  70
    32
  0
VERTEX
  8
0
  5
23A5F
 10
110.263
 20
275.115
 30
-6.04529e-14
  70
    32
  0
VERTEX
  8
0
  5
23A60
 10
110.640
 20
274.889
 30
-6.04077e-14
  70
    32
  0
VERTEX
  8
0
  5
23A61
 10
111.015
 20
274.663
 30
-6.03624e-14
  70
    32
  0
VERTEX
  8
0
  5
23A62
 10
111.386
 20
274.435
 30
-6.03170e-14
  70
    32
  0
VERTEX
  8
0
  5
23A63
 10
111.755
 20
274.207
 30
-6.02714e-14
  70
    32
  0
VERTEX
  8
0
  5
23A64
 10
112.121
 20
273.979
 30
-6.02257e-14
  70
    32
  0
VERTEX
  8
0
  5
23A65
 10
112.484
 20
273.749
 30
-6.01798e-14
  70
    32
  0
VERTEX
  8
0
  5
23A66
 10
112.845
 20
273.519
 30
-6.01337e-14
  70
    32
  0
VERTEX
  8
0
  5
23A67
 10
113.202
 20
273.288
 30
-6.00875e-14
  70
    32
  0
VERTEX
  8
0
  5
23A68
 10
113.557
 20
273.056
 30
-6.00412e-14
  70
    32
  0
VERTEX
  8
0
  5
23A69
 10
113.908
 20
272.824
 30
-5.99947e-14
  70
    32
  0
VERTEX
  8
0
  5
23A6A
 10
114.257
 20
272.591
 30
-5.99481e-14
  70
    32
  0
VERTEX
  8
0
  5
23A6B
 10
114.603
 20
272.357
 30
-5.99014e-14
  70
    32
  0
VERTEX
  8
0
  5
23A6C
 10
114.946
 20
272.123
 30
-5.98545e-14
  70
    32
  0
VERTEX
  8
0
  5
23A6D
 10
115.285
 20
271.887
 30
-5.98074e-14
  70
    32
  0
VERTEX
  8
0
  5
23A6E
 10
115.622
 20
271.652
 30
-5.97602e-14
  70
    32
  0
VERTEX
  8
0
  5
23A6F
 10
115.956
 20
271.415
 30
-5.97129e-14
  70
    32
  0
VERTEX
  8
0
  5
23A70
 10
116.287
 20
271.178
 30
-5.96655e-14
  70
    32
  0
VERTEX
  8
0
  5
23A71
 10
116.615
 20
270.940
 30
-5.96179e-14
  70
    32
  0
VERTEX
  8
0
  5
23A72
 10
116.940
 20
270.701
 30
-5.95702e-14
  70
    32
  0
VERTEX
  8
0
  5
23A73
 10
117.262
 20
270.462
 30
-5.95223e-14
  70
    32
  0
VERTEX
  8
0
  5
23A74
 10
117.582
 20
270.222
 30
-5.94743e-14
  70
    32
  0
VERTEX
  8
0
  5
23A75
 10
117.898
 20
269.982
 30
-5.94262e-14
  70
    32
  0
VERTEX
  8
0
  5
23A76
 10
118.211
 20
269.740
 30
-5.93780e-14
  70
    32
  0
VERTEX
  8
0
  5
23A77
 10
118.521
 20
269.498
 30
-5.93296e-14
  70
    32
  0
VERTEX
  8
0
  5
23A78
 10
118.828
 20
269.256
 30
-5.92811e-14
  70
    32
  0
VERTEX
  8
0
  5
23A79
 10
119.132
 20
269.013
 30
-5.92325e-14
  70
    32
  0
VERTEX
  8
0
  5
23A7A
 10
119.433
 20
268.769
 30
-5.91838e-14
  70
    32
  0
VERTEX
  8
0
  5
23A7B
 10
119.730
 20
268.525
 30
-5.91349e-14
  70
    32
  0
VERTEX
  8
0
  5
23A7C
 10
120.025
 20
268.280
 30
-5.90859e-14
  70
    32
  0
VERTEX
  8
0
  5
23A7D
 10
120.317
 20
268.034
 30
-5.90368e-14
  70
    32
  0
VERTEX
  8
0
  5
23A7E
 10
120.606
 20
267.788
 30
-5.89876e-14
  70
    32
  0
VERTEX
  8
0
  5
23A7F
 10
120.891
 20
267.542
 30
-5.89382e-14
  70
    32
  0
VERTEX
  8
0
  5
23A80
 10
121.174
 20
267.294
 30
-5.88888e-14
  70
    32
  0
VERTEX
  8
0
  5
23A81
 10
121.453
 20
267.046
 30
-5.88392e-14
  70
    32
  0
VERTEX
  8
0
  5
23A82
 10
121.729
 20
266.798
 30
-5.87895e-14
  70
    32
  0
VERTEX
  8
0
  5
23A83
 10
122.002
 20
266.549
 30
-5.87397e-14
  70
    32
  0
VERTEX
  8
0
  5
23A84
 10
122.272
 20
266.299
 30
-5.86898e-14
  70
    32
  0
VERTEX
  8
0
  5
23A85
 10
122.539
 20
266.049
 30
-5.86398e-14
  70
    32
  0
VERTEX
  8
0
  5
23A86
 10
122.803
 20
265.799
 30
-5.85897e-14
  70
    32
  0
VERTEX
  8
0
  5
23A87
 10
123.064
 20
265.548
 30
-5.85394e-14
  70
    32
  0
VERTEX
  8
0
  5
23A88
 10
123.321
 20
265.296
 30
-5.84891e-14
  70
    32
  0
VERTEX
  8
0
  5
23A89
 10
123.576
 20
265.044
 30
-5.84386e-14
  70
    32
  0
VERTEX
  8
0
  5
23A8A
 10
123.827
 20
264.791
 30
-5.83881e-14
  70
    32
  0
VERTEX
  8
0
  5
23A8B
 10
124.075
 20
264.538
 30
-5.83374e-14
  70
    32
  0
VERTEX
  8
0
  5
23A8C
 10
124.320
 20
264.284
 30
-5.82867e-14
  70
    32
  0
VERTEX
  8
0
  5
23A8D
 10
124.561
 20
264.030
 30
-5.82358e-14
  70
    32
  0
VERTEX
  8
0
  5
23A8E
 10
124.800
 20
263.775
 30
-5.81849e-14
  70
    32
  0
VERTEX
  8
0
  5
23A8F
 10
125.035
 20
263.520
 30
-5.81338e-14
  70
    32
  0
VERTEX
  8
0
  5
23A90
 10
125.267
 20
263.264
 30
-5.80827e-14
  70
    32
  0
VERTEX
  8
0
  5
23A91
 10
125.496
 20
263.008
 30
-5.80315e-14
  70
    32
  0
VERTEX
  8
0
  5
23A92
 10
125.722
 20
262.751
 30
-5.79801e-14
  70
    32
  0
VERTEX
  8
0
  5
23A93
 10
125.944
 20
262.494
 30
-5.79287e-14
  70
    32
  0
VERTEX
  8
0
  5
23A94
 10
126.163
 20
262.236
 30
-5.78772e-14
  70
    32
  0
VERTEX
  8
0
  5
23A95
 10
126.379
 20
261.978
 30
-5.78256e-14
  70
    32
  0
VERTEX
  8
0
  5
23A96
 10
126.592
 20
261.720
 30
-5.77739e-14
  70
    32
  0
VERTEX
  8
0
  5
23A97
 10
126.801
 20
261.461
 30
-5.77221e-14
  70
    32
  0
VERTEX
  8
0
  5
23A98
 10
127.008
 20
261.202
 30
-5.76703e-14
  70
    32
  0
VERTEX
  8
0
  5
23A99
 10
127.211
 20
260.942
 30
-5.76183e-14
  70
    32
  0
VERTEX
  8
0
  5
23A9A
 10
127.411
 20
260.682
 30
-5.75663e-14
  70
    32
  0
VERTEX
  8
0
  5
23A9B
 10
127.607
 20
260.421
 30
-5.75142e-14
  70
    32
  0
VERTEX
  8
0
  5
23A9C
 10
127.800
 20
260.161
 30
-5.74620e-14
  70
    32
  0
VERTEX
  8
0
  5
23A9D
 10
127.990
 20
259.899
 30
-5.74098e-14
  70
    32
  0
VERTEX
  8
0
  5
23A9E
 10
128.177
 20
259.638
 30
-5.73574e-14
  70
    32
  0
VERTEX
  8
0
  5
23A9F
 10
128.361
 20
259.375
 30
-5.73050e-14
  70
    32
  0
VERTEX
  8
0
  5
23AA0
 10
128.541
 20
259.113
 30
-5.72525e-14
  70
    32
  0
VERTEX
  8
0
  5
23AA1
 10
128.718
 20
258.850
 30
-5.72000e-14
  70
    32
  0
VERTEX
  8
0
  5
23AA2
 10
128.891
 20
258.587
 30
-5.71473e-14
  70
    32
  0
VERTEX
  8
0
  5
23AA3
 10
129.061
 20
258.324
 30
-5.70946e-14
  70
    32
  0
VERTEX
  8
0
  5
23AA4
 10
129.228
 20
258.060
 30
-5.70418e-14
  70
    32
  0
VERTEX
  8
0
  5
23AA5
 10
129.392
 20
257.795
 30
-5.69890e-14
  70
    32
  0
VERTEX
  8
0
  5
23AA6
 10
129.552
 20
257.531
 30
-5.69361e-14
  70
    32
  0
VERTEX
  8
0
  5
23AA7
 10
129.710
 20
257.266
 30
-5.68831e-14
  70
    32
  0
VERTEX
  8
0
  5
23AA8
 10
129.863
 20
257.001
 30
-5.68301e-14
  70
    32
  0
VERTEX
  8
0
  5
23AA9
 10
130.014
 20
256.735
 30
-5.67770e-14
  70
    32
  0
VERTEX
  8
0
  5
23AAA
 10
130.161
 20
256.470
 30
-5.67238e-14
  70
    32
  0
VERTEX
  8
0
  5
23AAB
 10
130.305
 20
256.204
 30
-5.66706e-14
  70
    32
  0
VERTEX
  8
0
  5
23AAC
 10
130.445
 20
255.937
 30
-5.66173e-14
  70
    32
  0
VERTEX
  8
0
  5
23AAD
 10
130.582
 20
255.670
 30
-5.65640e-14
  70
    32
  0
VERTEX
  8
0
  5
23AAE
 10
130.716
 20
255.404
 30
-5.65106e-14
  70
    32
  0
VERTEX
  8
0
  5
23AAF
 10
130.846
 20
255.136
 30
-5.64572e-14
  70
    32
  0
VERTEX
  8
0
  5
23AB0
 10
130.973
 20
254.869
 30
-5.64037e-14
  70
    32
  0
VERTEX
  8
0
  5
23AB1
 10
131.097
 20
254.601
 30
-5.63501e-14
  70
    32
  0
VERTEX
  8
0
  5
23AB2
 10
131.217
 20
254.333
 30
-5.62965e-14
  70
    32
  0
VERTEX
  8
0
  5
23AB3
 10
131.334
 20
254.065
 30
-5.62429e-14
  70
    32
  0
VERTEX
  8
0
  5
23AB4
 10
131.448
 20
253.796
 30
-5.61892e-14
  70
    32
  0
VERTEX
  8
0
  5
23AB5
 10
131.558
 20
253.528
 30
-5.61355e-14
  70
    32
  0
VERTEX
  8
0
  5
23AB6
 10
131.665
 20
253.259
 30
-5.60817e-14
  70
    32
  0
VERTEX
  8
0
  5
23AB7
 10
131.769
 20
252.990
 30
-5.60279e-14
  70
    32
  0
VERTEX
  8
0
  5
23AB8
 10
131.869
 20
252.720
 30
-5.59740e-14
  70
    32
  0
VERTEX
  8
0
  5
23AB9
 10
131.966
 20
252.451
 30
-5.59201e-14
  70
    32
  0
VERTEX
  8
0
  5
23ABA
 10
132.059
 20
252.181
 30
-5.58662e-14
  70
    32
  0
VERTEX
  8
0
  5
23ABB
 10
132.149
 20
251.911
 30
-5.58122e-14
  70
    32
  0
VERTEX
  8
0
  5
23ABC
 10
132.236
 20
251.641
 30
-5.57582e-14
  70
    32
  0
VERTEX
  8
0
  5
23ABD
 10
132.319
 20
251.371
 30
-5.57041e-14
  70
    32
  0
VERTEX
  8
0
  5
23ABE
 10
132.399
 20
251.100
 30
-5.56500e-14
  70
    32
  0
VERTEX
  8
0
  5
23ABF
 10
132.476
 20
250.830
 30
-5.55959e-14
  70
    32
  0
VERTEX
  8
0
  5
23AC0
 10
132.549
 20
250.559
 30
-5.55417e-14
  70
    32
  0
VERTEX
  8
0
  5
23AC1
 10
132.619
 20
250.288
 30
-5.54876e-14
  70
    32
  0
VERTEX
  8
0
  5
23AC2
 10
132.685
 20
250.017
 30
-5.54334e-14
  70
    32
  0
VERTEX
  8
0
  5
23AC3
 10
132.748
 20
249.746
 30
-5.53791e-14
  70
    32
  0
VERTEX
  8
0
  5
23AC4
 10
132.808
 20
249.475
 30
-5.53249e-14
  70
    32
  0
VERTEX
  8
0
  5
23AC5
 10
132.864
 20
249.203
 30
-5.52706e-14
  70
    32
  0
VERTEX
  8
0
  5
23AC6
 10
132.917
 20
248.932
 30
-5.52163e-14
  70
    32
  0
VERTEX
  8
0
  5
23AC7
 10
132.966
 20
248.660
 30
-5.51620e-14
  70
    32
  0
VERTEX
  8
0
  5
23AC8
 10
133.012
 20
248.388
 30
-5.51076e-14
  70
    32
  0
VERTEX
  8
0
  5
23AC9
 10
133.055
 20
248.117
 30
-5.50533e-14
  70
    32
  0
VERTEX
  8
0
  5
23ACA
 10
133.094
 20
247.845
 30
-5.49989e-14
  70
    32
  0
VERTEX
  8
0
  5
23ACB
 10
133.130
 20
247.573
 30
-5.49445e-14
  70
    32
  0
VERTEX
  8
0
  5
23ACC
 10
133.162
 20
247.301
 30
-5.48901e-14
  70
    32
  0
VERTEX
  8
0
  5
23ACD
 10
133.191
 20
247.029
 30
-5.48356e-14
  70
    32
  0
VERTEX
  8
0
  5
23ACE
 10
133.216
 20
246.757
 30
-5.47812e-14
  70
    32
  0
VERTEX
  8
0
  5
23ACF
 10
133.239
 20
246.484
 30
-5.47268e-14
  70
    32
  0
VERTEX
  8
0
  5
23AD0
 10
133.257
 20
246.212
 30
-5.46723e-14
  70
    32
  0
VERTEX
  8
0
  5
23AD1
 10
133.273
 20
245.940
 30
-5.46179e-14
  70
    32
  0
VERTEX
  8
0
  5
23AD2
 10
133.285
 20
245.667
 30
-5.45634e-14
  70
    32
  0
VERTEX
  8
0
  5
23AD3
 10
133.293
 20
245.395
 30
-5.45089e-14
  70
    32
  0
VERTEX
  8
0
  5
23AD4
 10
133.298
 20
245.123
 30
-5.44545e-14
  70
    32
  0
VERTEX
  8
0
  5
23AD5
 10
133.300
 20
244.850
 30
-5.44000e-14
  70
    32
  0
SEQEND
  8
0
  5
23AD6
  0
POLYLINE
  5
231BC
  8
0
  6
VERDECKT
 62
     1
 10
-136.4999999999999716
 20
244.8504201735012202
 30
-0.0000000000000544
 66
     1
 70
     8
  0
VERTEX
  8
0
  5
23AD7
 10
-136.500
 20
244.850
 30
-5.44000e-14
  70
    32
  0
VERTEX
  8
0
  5
23AD8
 10
-136.459
 20
246.204
 30
-5.46707e-14
  70
    32
  0
VERTEX
  8
0
  5
23AD9
 10
-136.336
 20
247.556
 30
-5.49412e-14
  70
    32
  0
VERTEX
  8
0
  5
23ADA
 10
-136.130
 20
248.907
 30
-5.52114e-14
  70
    32
  0
VERTEX
  8
0
  5
23ADB
 10
-135.843
 20
250.256
 30
-5.54811e-14
  70
    32
  0
VERTEX
  8
0
  5
23ADC
 10
-135.473
 20
251.601
 30
-5.57502e-14
  70
    32
  0
VERTEX
  8
0
  5
23ADD
 10
-135.023
 20
252.943
 30
-5.60184e-14
  70
    32
  0
VERTEX
  8
0
  5
23ADE
 10
-134.490
 20
254.279
 30
-5.62857e-14
  70
    32
  0
VERTEX
  8
0
  5
23ADF
 10
-133.877
 20
255.610
 30
-5.65518e-14
  70
    32
  0
VERTEX
  8
0
  5
23AE0
 10
-133.183
 20
256.934
 30
-5.68167e-14
  70
    32
  0
VERTEX
  8
0
  5
23AE1
 10
-132.409
 20
258.251
 30
-5.70801e-14
  70
    32
  0
VERTEX
  8
0
  5
23AE2
 10
-131.555
 20
259.560
 30
-5.73418e-14
  70
    32
  0
VERTEX
  8
0
  5
23AE3
 10
-130.622
 20
260.859
 30
-5.76018e-14
  70
    32
  0
VERTEX
  8
0
  5
23AE4
 10
-129.611
 20
262.150
 30
-5.78599e-14
  70
    32
  0
VERTEX
  8
0
  5
23AE5
 10
-128.521
 20
263.430
 30
-5.81159e-14
  70
    32
  0
VERTEX
  8
0
  5
23AE6
 10
-127.354
 20
264.698
 30
-5.83696e-14
  70
    32
  0
VERTEX
  8
0
  5
23AE7
 10
-126.110
 20
265.955
 30
-5.86210e-14
  70
    32
  0
VERTEX
  8
0
  5
23AE8
 10
-124.790
 20
267.199
 30
-5.88698e-14
  70
    32
  0
VERTEX
  8
0
  5
23AE9
 10
-123.395
 20
268.430
 30
-5.91159e-14
  70
    32
  0
VERTEX
  8
0
  5
23AEA
 10
-121.925
 20
269.646
 30
-5.93592e-14
  70
    32
  0
VERTEX
  8
0
  5
23AEB
 10
-120.382
 20
270.848
 30
-5.95995e-14
  70
    32
  0
VERTEX
  8
0
  5
23AEC
 10
-118.767
 20
272.034
 30
-5.98366e-14
  70
    32
  0
VERTEX
  8
0
  5
23AED
 10
-117.080
 20
273.203
 30
-6.00705e-14
  70
    32
  0
VERTEX
  8
0
  5
23AEE
 10
-115.323
 20
274.355
 30
-6.03010e-14
  70
    32
  0
VERTEX
  8
0
  5
23AEF
 10
-113.496
 20
275.490
 30
-6.05279e-14
  70
    32
  0
VERTEX
  8
0
  5
23AF0
 10
-111.600
 20
276.606
 30
-6.07511e-14
  70
    32
  0
VERTEX
  8
0
  5
23AF1
 10
-109.638
 20
277.703
 30
-6.09705e-14
  70
    32
  0
VERTEX
  8
0
  5
23AF2
 10
-107.609
 20
278.780
 30
-6.11860e-14
  70
    32
  0
VERTEX
  8
0
  5
23AF3
 10
-105.516
 20
279.837
 30
-6.13973e-14
  70
    32
  0
VERTEX
  8
0
  5
23AF4
 10
-103.359
 20
280.873
 30
-6.16044e-14
  70
    32
  0
VERTEX
  8
0
  5
23AF5
 10
-101.140
 20
281.887
 30
-6.18072e-14
  70
    32
  0
VERTEX
  8
0
  5
23AF6
 10
-98.8597
 20
282.878
 30
-6.20056e-14
  70
    32
  0
VERTEX
  8
0
  5
23AF7
 10
-96.5201
 20
283.847
 30
-6.21993e-14
  70
    32
  0
VERTEX
  8
0
  5
23AF8
 10
-94.1223
 20
284.792
 30
-6.23884e-14
  70
    32
  0
VERTEX
  8
0
  5
23AF9
 10
-91.6678
 20
285.714
 30
-6.25726e-14
  70
    32
  0
VERTEX
  8
0
  5
23AFA
 10
-89.1581
 20
286.610
 30
-6.27519e-14
  70
    32
  0
VERTEX
  8
0
  5
23AFB
 10
-86.5947
 20
287.482
 30
-6.29262e-14
  70
    32
  0
VERTEX
  8
0
  5
23AFC
 10
-83.9791
 20
288.327
 30
-6.30954e-14
  70
    32
  0
VERTEX
  8
0
  5
23AFD
 10
-81.3130
 20
289.147
 30
-6.32593e-14
  70
    32
  0
VERTEX
  8
0
  5
23AFE
 10
-78.5978
 20
289.940
 30
-6.34179e-14
  70
    32
  0
VERTEX
  8
0
  5
23AFF
 10
-75.8353
 20
290.706
 30
-6.35710e-14
  70
    32
  0
VERTEX
  8
0
  5
23B00
 10
-73.0272
 20
291.444
 30
-6.37187e-14
  70
    32
  0
VERTEX
  8
0
  5
23B01
 10
-70.1750
 20
292.154
 30
-6.38607e-14
  70
    32
  0
VERTEX
  8
0
  5
23B02
 10
-67.2806
 20
292.835
 30
-6.39970e-14
  70
    32
  0
VERTEX
  8
0
  5
23B03
 10
-64.3457
 20
293.488
 30
-6.41275e-14
  70
    32
  0
VERTEX
  8
0
  5
23B04
 10
-61.3719
 20
294.111
 30
-6.42522e-14
  70
    32
  0
VERTEX
  8
0
  5
23B05
 10
-58.3613
 20
294.705
 30
-6.43709e-14
  70
    32
  0
VERTEX
  8
0
  5
23B06
 10
-55.3154
 20
295.269
 30
-6.44837e-14
  70
    32
  0
VERTEX
  8
0
  5
23B07
 10
-52.2363
 20
295.802
 30
-6.45903e-14
  70
    32
  0
VERTEX
  8
0
  5
23B08
 10
-49.1257
 20
296.305
 30
-6.46908e-14
  70
    32
  0
VERTEX
  8
0
  5
23B09
 10
-45.9855
 20
296.776
 30
-6.47852e-14
  70
    32
  0
VERTEX
  8
0
  5
23B0A
 10
-42.8176
 20
297.217
 30
-6.48732e-14
  70
    32
  0
VERTEX
  8
0
  5
23B0B
 10
-39.6239
 20
297.625
 30
-6.49550e-14
  70
    32
  0
VERTEX
  8
0
  5
23B0C
 10
-36.4063
 20
298.002
 30
-6.50304e-14
  70
    32
  0
VERTEX
  8
0
  5
23B0D
 10
-33.1668
 20
298.347
 30
-6.50994e-14
  70
    32
  0
VERTEX
  8
0
  5
23B0E
 10
-29.9073
 20
298.660
 30
-6.51619e-14
  70
    32
  0
VERTEX
  8
0
  5
23B0F
 10
-26.6298
 20
298.940
 30
-6.52180e-14
  70
    32
  0
VERTEX
  8
0
  5
23B10
 10
-23.3363
 20
299.188
 30
-6.52675e-14
  70
    32
  0
VERTEX
  8
0
  5
23B11
 10
-20.0287
 20
299.403
 30
-6.53105e-14
  70
    32
  0
VERTEX
  8
0
  5
23B12
 10
-16.7091
 20
299.585
 30
-6.53470e-14
  70
    32
  0
VERTEX
  8
0
  5
23B13
 10
-13.3793
 20
299.734
 30
-6.53768e-14
  70
    32
  0
VERTEX
  8
0
  5
23B14
 10
-10.0416
 20
299.851
 30
-6.54000e-14
  70
    32
  0
VERTEX
  8
0
  5
23B15
 10
-6.69774
 20
299.934
 30
-6.54166e-14
  70
    32
  0
VERTEX
  8
0
  5
23B16
 10
-3.34988
 20
299.983
 30
-6.54266e-14
  70
    32
  0
VERTEX
  8
0
  5
23B17
 10
6.81864e-14
 20
300.000
 30
-6.54299e-14
  70
    32
  0
VERTEX
  8
0
  5
23B18
 10
3.34988
 20
299.983
 30
-6.54266e-14
  70
    32
  0
VERTEX
  8
0
  5
23B19
 10
6.69774
 20
299.934
 30
-6.54166e-14
  70
    32
  0
VERTEX
  8
0
  5
23B1A
 10
10.0416
 20
299.851
 30
-6.54000e-14
  70
    32
  0
VERTEX
  8
0
  5
23B1B
 10
13.3793
 20
299.734
 30
-6.53768e-14
  70
    32
  0
VERTEX
  8
0
  5
23B1C
 10
16.7091
 20
299.585
 30
-6.53470e-14
  70
    32
  0
VERTEX
  8
0
  5
23B1D
 10
20.0287
 20
299.403
 30
-6.53105e-14
  70
    32
  0
VERTEX
  8
0
  5
23B1E
 10
23.3363
 20
299.188
 30
-6.52675e-14
  70
    32
  0
VERTEX
  8
0
  5
23B1F
 10
26.6298
 20
298.940
 30
-6.52180e-14
  70
    32
  0
VERTEX
  8
0
  5
23B20
 10
29.9073
 20
298.660
 30
-6.51619e-14
  70
    32
  0
VERTEX
  8
0
  5
23B21
 10
33.1668
 20
298.347
 30
-6.50994e-14
  70
    32
  0
VERTEX
  8
0
  5
23B22
 10
36.4063
 20
298.002
 30
-6.50304e-14
  70
    32
  0
VERTEX
  8
0
  5
23B23
 10
39.6239
 20
297.625
 30
-6.49550e-14
  70
    32
  0
VERTEX
  8
0
  5
23B24
 10
42.8176
 20
297.217
 30
-6.48732e-14
  70
    32
  0
VERTEX
  8
0
  5
23B25
 10
45.9855
 20
296.776
 30
-6.47852e-14
  70
    32
  0
VERTEX
  8
0
  5
23B26
 10
49.1257
 20
296.305
 30
-6.46908e-14
  70
    32
  0
VERTEX
  8
0
  5
23B27
 10
52.2363
 20
295.802
 30
-6.45903e-14
  70
    32
  0
VERTEX
  8
0
  5
23B28
 10
55.3154
 20
295.269
 30
-6.44837e-14
  70
    32
  0
VERTEX
  8
0
  5
23B29
 10
58.3613
 20
294.705
 30
-6.43709e-14
  70
    32
  0
VERTEX
  8
0
  5
23B2A
 10
61.3719
 20
294.111
 30
-6.42522e-14
  70
    32
  0
VERTEX
  8
0
  5
23B2B
 10
64.3457
 20
293.488
 30
-6.41275e-14
  70
    32
  0
VERTEX
  8
0
  5
23B2C
 10
67.2806
 20
292.835
 30
-6.39970e-14
  70
    32
  0
VERTEX
  8
0
  5
23B2D
 10
70.1750
 20
292.154
 30
-6.38607e-14
  70
    32
  0
VERTEX
  8
0
  5
23B2E
 10
73.0272
 20
291.444
 30
-6.37187e-14
  70
    32
  0
VERTEX
  8
0
  5
23B2F
 10
75.8353
 20
290.706
 30
-6.35710e-14
  70
    32
  0
VERTEX
  8
0
  5
23B30
 10
78.5978
 20
289.940
 30
-6.34179e-14
  70
    32
  0
VERTEX
  8
0
  5
23B31
 10
81.3130
 20
289.147
 30
-6.32593e-14
  70
    32
  0
VERTEX
  8
0
  5
23B32
 10
83.9791
 20
288.327
 30
-6.30954e-14
  70
    32
  0
VERTEX
  8
0
  5
23B33
 10
86.5947
 20
287.482
 30
-6.29262e-14
  70
    32
  0
VERTEX
  8
0
  5
23B34
 10
89.1581
 20
286.610
 30
-6.27519e-14
  70
    32
  0
VERTEX
  8
0
  5
23B35
 10
91.6678
 20
285.714
 30
-6.25726e-14
  70
    32
  0
VERTEX
  8
0
  5
23B36
 10
94.1223
 20
284.792
 30
-6.23884e-14
  70
    32
  0
VERTEX
  8
0
  5
23B37
 10
96.5201
 20
283.847
 30
-6.21993e-14
  70
    32
  0
VERTEX
  8
0
  5
23B38
 10
98.8597
 20
282.878
 30
-6.20056e-14
  70
    32
  0
VERTEX
  8
0
  5
23B39
 10
101.140
 20
281.887
 30
-6.18072e-14
  70
    32
  0
VERTEX
  8
0
  5
23B3A
 10
103.359
 20
280.873
 30
-6.16044e-14
  70
    32
  0
VERTEX
  8
0
  5
23B3B
 10
105.516
 20
279.837
 30
-6.13973e-14
  70
    32
  0
VERTEX
  8
0
  5
23B3C
 10
107.609
 20
278.780
 30
-6.11860e-14
  70
    32
  0
VERTEX
  8
0
  5
23B3D
 10
109.638
 20
277.703
 30
-6.09705e-14
  70
    32
  0
VERTEX
  8
0
  5
23B3E
 10
111.600
 20
276.606
 30
-6.07511e-14
  70
    32
  0
VERTEX
  8
0
  5
23B3F
 10
113.496
 20
275.490
 30
-6.05279e-14
  70
    32
  0
VERTEX
  8
0
  5
23B40
 10
115.323
 20
274.355
 30
-6.03010e-14
  70
    32
  0
VERTEX
  8
0
  5
23B41
 10
117.080
 20
273.203
 30
-6.00705e-14
  70
    32
  0
VERTEX
  8
0
  5
23B42
 10
118.767
 20
272.034
 30
-5.98366e-14
  70
    32
  0
VERTEX
  8
0
  5
23B43
 10
120.382
 20
270.848
 30
-5.95995e-14
  70
    32
  0
VERTEX
  8
0
  5
23B44
 10
121.925
 20
269.646
 30
-5.93592e-14
  70
    32
  0
VERTEX
  8
0
  5
23B45
 10
123.395
 20
268.430
 30
-5.91159e-14
  70
    32
  0
VERTEX
  8
0
  5
23B46
 10
124.790
 20
267.199
 30
-5.88698e-14
  70
    32
  0
VERTEX
  8
0
  5
23B47
 10
126.110
 20
265.955
 30
-5.86210e-14
  70
    32
  0
VERTEX
  8
0
  5
23B48
 10
127.354
 20
264.698
 30
-5.83696e-14
  70
    32
  0
VERTEX
  8
0
  5
23B49
 10
128.521
 20
263.430
 30
-5.81159e-14
  70
    32
  0
VERTEX
  8
0
  5
23B4A
 10
129.611
 20
262.150
 30
-5.78599e-14
  70
    32
  0
VERTEX
  8
0
  5
23B4B
 10
130.622
 20
260.859
 30
-5.76018e-14
  70
    32
  0
VERTEX
  8
0
  5
23B4C
 10
131.555
 20
259.560
 30
-5.73418e-14
  70
    32
  0
VERTEX
  8
0
  5
23B4D
 10
132.409
 20
258.251
 30
-5.70801e-14
  70
    32
  0
VERTEX
  8
0
  5
23B4E
 10
133.183
 20
256.934
 30
-5.68167e-14
  70
    32
  0
VERTEX
  8
0
  5
23B4F
 10
133.877
 20
255.610
 30
-5.65518e-14
  70
    32
  0
VERTEX
  8
0
  5
23B50
 10
134.490
 20
254.279
 30
-5.62857e-14
  70
    32
  0
VERTEX
  8
0
  5
23B51
 10
135.023
 20
252.943
 30
-5.60184e-14
  70
    32
  0
VERTEX
  8
0
  5
23B52
 10
135.473
 20
251.601
 30
-5.57502e-14
  70
    32
  0
VERTEX
  8
0
  5
23B53
 10
135.843
 20
250.256
 30
-5.54811e-14
  70
    32
  0
VERTEX
  8
0
  5
23B54
 10
136.130
 20
248.907
 30
-5.52114e-14
  70
    32
  0
VERTEX
  8
0
  5
23B55
 10
136.336
 20
247.556
 30
-5.49412e-14
  70
    32
  0
VERTEX
  8
0
  5
23B56
 10
136.459
 20
246.204
 30
-5.46707e-14
  70
    32
  0
VERTEX
  8
0
  5
23B57
 10
136.500
 20
244.850
 30
-5.44000e-14
  70
    32
  0
SEQEND
  8
0
  5
23B58
  0
LINE
  5
231BD
  8
0
  6
VERDECKT
 62
     1
 10
-133.3000000000000114
 20
104.0999999999999943
 30
-0.0000000000000231
 11
-133.3000000000000114
 21
244.8504201735011918
 31
-0.0000000000000544
210
0.0
220
1.0
230
-0.0000000000000002
  0
LINE
  5
231BE
  8
0
  6
VERDECKT
 62
     1
 10
133.3000000000000114
 20
104.0999999999999943
 30
-0.0000000000000231
 11
133.3000000000000114
 21
244.8504201735013055
 31
-0.0000000000000544
210
0.0
220
1.0
230
-0.0000000000000002
  0
POLYLINE
  5
231BF
  8
0
  6
VERDECKT
 62
     1
 10
133.3000000000000114
 20
244.8504201735011918
 30
-0.0000000000000544
 66
     1
 70
     8
  0
VERTEX
  8
0
  5
23B59
 10
133.300
 20
244.850
 30
-5.44000e-14
  70
    32
  0
VERTEX
  8
0
  5
23B5A
 10
133.298
 20
245.123
 30
-5.44545e-14
  70
    32
  0
VERTEX
  8
0
  5
23B5B
 10
133.293
 20
245.395
 30
-5.45089e-14
  70
    32
  0
VERTEX
  8
0
  5
23B5C
 10
133.285
 20
245.667
 30
-5.45634e-14
  70
    32
  0
VERTEX
  8
0
  5
23B5D
 10
133.273
 20
245.940
 30
-5.46179e-14
  70
    32
  0
VERTEX
  8
0
  5
23B5E
 10
133.257
 20
246.212
 30
-5.46723e-14
  70
    32
  0
VERTEX
  8
0
  5
23B5F
 10
133.239
 20
246.484
 30
-5.47268e-14
  70
    32
  0
VERTEX
  8
0
  5
23B60
 10
133.216
 20
246.757
 30
-5.47812e-14
  70
    32
  0
VERTEX
  8
0
  5
23B61
 10
133.191
 20
247.029
 30
-5.48356e-14
  70
    32
  0
VERTEX
  8
0
  5
23B62
 10
133.162
 20
247.301
 30
-5.48901e-14
  70
    32
  0
VERTEX
  8
0
  5
23B63
 10
133.130
 20
247.573
 30
-5.49445e-14
  70
    32
  0
VERTEX
  8
0
  5
23B64
 10
133.094
 20
247.845
 30
-5.49989e-14
  70
    32
  0
VERTEX
  8
0
  5
23B65
 10
133.055
 20
248.117
 30
-5.50533e-14
  70
    32
  0
VERTEX
  8
0
  5
23B66
 10
133.012
 20
248.388
 30
-5.51076e-14
  70
    32
  0
VERTEX
  8
0
  5
23B67
 10
132.966
 20
248.660
 30
-5.51620e-14
  70
    32
  0
VERTEX
  8
0
  5
23B68
 10
132.917
 20
248.932
 30
-5.52163e-14
  70
    32
  0
VERTEX
  8
0
  5
23B69
 10
132.864
 20
249.203
 30
-5.52706e-14
  70
    32
  0
VERTEX
  8
0
  5
23B6A
 10
132.808
 20
249.475
 30
-5.53249e-14
  70
    32
  0
VERTEX
  8
0
  5
23B6B
 10
132.748
 20
249.746
 30
-5.53791e-14
  70
    32
  0
VERTEX
  8
0
  5
23B6C
 10
132.685
 20
250.017
 30
-5.54334e-14
  70
    32
  0
VERTEX
  8
0
  5
23B6D
 10
132.619
 20
250.288
 30
-5.54876e-14
  70
    32
  0
VERTEX
  8
0
  5
23B6E
 10
132.549
 20
250.559
 30
-5.55417e-14
  70
    32
  0
VERTEX
  8
0
  5
23B6F
 10
132.476
 20
250.830
 30
-5.55959e-14
  70
    32
  0
VERTEX
  8
0
  5
23B70
 10
132.399
 20
251.100
 30
-5.56500e-14
  70
    32
  0
VERTEX
  8
0
  5
23B71
 10
132.319
 20
251.371
 30
-5.57041e-14
  70
    32
  0
VERTEX
  8
0
  5
23B72
 10
132.236
 20
251.641
 30
-5.57582e-14
  70
    32
  0
VERTEX
  8
0
  5
23B73
 10
132.149
 20
251.911
 30
-5.58122e-14
  70
    32
  0
VERTEX
  8
0
  5
23B74
 10
132.059
 20
252.181
 30
-5.58662e-14
  70
    32
  0
VERTEX
  8
0
  5
23B75
 10
131.966
 20
252.451
 30
-5.59201e-14
  70
    32
  0
VERTEX
  8
0
  5
23B76
 10
131.869
 20
252.720
 30
-5.59740e-14
  70
    32
  0
VERTEX
  8
0
  5
23B77
 10
131.769
 20
252.990
 30
-5.60279e-14
  70
    32
  0
VERTEX
  8
0
  5
23B78
 10
131.665
 20
253.259
 30
-5.60817e-14
  70
    32
  0
VERTEX
  8
0
  5
23B79
 10
131.558
 20
253.528
 30
-5.61355e-14
  70
    32
  0
VERTEX
  8
0
  5
23B7A
 10
131.448
 20
253.796
 30
-5.61892e-14
  70
    32
  0
VERTEX
  8
0
  5
23B7B
 10
131.334
 20
254.065
 30
-5.62429e-14
  70
    32
  0
VERTEX
  8
0
  5
23B7C
 10
131.217
 20
254.333
 30
-5.62965e-14
  70
    32
  0
VERTEX
  8
0
  5
23B7D
 10
131.097
 20
254.601
 30
-5.63501e-14
  70
    32
  0
VERTEX
  8
0
  5
23B7E
 10
130.973
 20
254.869
 30
-5.64037e-14
  70
    32
  0
VERTEX
  8
0
  5
23B7F
 10
130.846
 20
255.136
 30
-5.64572e-14
  70
    32
  0
VERTEX
  8
0
  5
23B80
 10
130.716
 20
255.404
 30
-5.65106e-14
  70
    32
  0
VERTEX
  8
0
  5
23B81
 10
130.582
 20
255.670
 30
-5.65640e-14
  70
    32
  0
VERTEX
  8
0
  5
23B82
 10
130.445
 20
255.937
 30
-5.66173e-14
  70
    32
  0
VERTEX
  8
0
  5
23B83
 10
130.305
 20
256.204
 30
-5.66706e-14
  70
    32
  0
VERTEX
  8
0
  5
23B84
 10
130.161
 20
256.470
 30
-5.67238e-14
  70
    32
  0
VERTEX
  8
0
  5
23B85
 10
130.014
 20
256.735
 30
-5.67770e-14
  70
    32
  0
VERTEX
  8
0
  5
23B86
 10
129.863
 20
257.001
 30
-5.68301e-14
  70
    32
  0
VERTEX
  8
0
  5
23B87
 10
129.710
 20
257.266
 30
-5.68831e-14
  70
    32
  0
VERTEX
  8
0
  5
23B88
 10
129.552
 20
257.531
 30
-5.69361e-14
  70
    32
  0
VERTEX
  8
0
  5
23B89
 10
129.392
 20
257.795
 30
-5.69890e-14
  70
    32
  0
VERTEX
  8
0
  5
23B8A
 10
129.228
 20
258.060
 30
-5.70418e-14
  70
    32
  0
VERTEX
  8
0
  5
23B8B
 10
129.061
 20
258.324
 30
-5.70946e-14
  70
    32
  0
VERTEX
  8
0
  5
23B8C
 10
128.891
 20
258.587
 30
-5.71473e-14
  70
    32
  0
VERTEX
  8
0
  5
23B8D
 10
128.718
 20
258.850
 30
-5.72000e-14
  70
    32
  0
VERTEX
  8
0
  5
23B8E
 10
128.541
 20
259.113
 30
-5.72525e-14
  70
    32
  0
VERTEX
  8
0
  5
23B8F
 10
128.361
 20
259.375
 30
-5.73050e-14
  70
    32
  0
VERTEX
  8
0
  5
23B90
 10
128.177
 20
259.638
 30
-5.73574e-14
  70
    32
  0
VERTEX
  8
0
  5
23B91
 10
127.990
 20
259.899
 30
-5.74098e-14
  70
    32
  0
VERTEX
  8
0
  5
23B92
 10
127.800
 20
260.161
 30
-5.74620e-14
  70
    32
  0
VERTEX
  8
0
  5
23B93
 10
127.607
 20
260.421
 30
-5.75142e-14
  70
    32
  0
VERTEX
  8
0
  5
23B94
 10
127.411
 20
260.682
 30
-5.75663e-14
  70
    32
  0
VERTEX
  8
0
  5
23B95
 10
127.211
 20
260.942
 30
-5.76183e-14
  70
    32
  0
VERTEX
  8
0
  5
23B96
 10
127.008
 20
261.202
 30
-5.76703e-14
  70
    32
  0
VERTEX
  8
0
  5
23B97
 10
126.801
 20
261.461
 30
-5.77221e-14
  70
    32
  0
VERTEX
  8
0
  5
23B98
 10
126.592
 20
261.720
 30
-5.77739e-14
  70
    32
  0
VERTEX
  8
0
  5
23B99
 10
126.379
 20
261.978
 30
-5.78256e-14
  70
    32
  0
VERTEX
  8
0
  5
23B9A
 10
126.163
 20
262.236
 30
-5.78772e-14
  70
    32
  0
VERTEX
  8
0
  5
23B9B
 10
125.944
 20
262.494
 30
-5.79287e-14
  70
    32
  0
VERTEX
  8
0
  5
23B9C
 10
125.722
 20
262.751
 30
-5.79801e-14
  70
    32
  0
VERTEX
  8
0
  5
23B9D
 10
125.496
 20
263.008
 30
-5.80315e-14
  70
    32
  0
VERTEX
  8
0
  5
23B9E
 10
125.267
 20
263.264
 30
-5.80827e-14
  70
    32
  0
VERTEX
  8
0
  5
23B9F
 10
125.035
 20
263.520
 30
-5.81338e-14
  70
    32
  0
VERTEX
  8
0
  5
23BA0
 10
124.800
 20
263.775
 30
-5.81849e-14
  70
    32
  0
VERTEX
  8
0
  5
23BA1
 10
124.561
 20
264.030
 30
-5.82358e-14
  70
    32
  0
VERTEX
  8
0
  5
23BA2
 10
124.320
 20
264.284
 30
-5.82867e-14
  70
    32
  0
VERTEX
  8
0
  5
23BA3
 10
124.075
 20
264.538
 30
-5.83374e-14
  70
    32
  0
VERTEX
  8
0
  5
23BA4
 10
123.827
 20
264.791
 30
-5.83881e-14
  70
    32
  0
VERTEX
  8
0
  5
23BA5
 10
123.576
 20
265.044
 30
-5.84386e-14
  70
    32
  0
VERTEX
  8
0
  5
23BA6
 10
123.321
 20
265.296
 30
-5.84891e-14
  70
    32
  0
VERTEX
  8
0
  5
23BA7
 10
123.064
 20
265.548
 30
-5.85394e-14
  70
    32
  0
VERTEX
  8
0
  5
23BA8
 10
122.803
 20
265.799
 30
-5.85897e-14
  70
    32
  0
VERTEX
  8
0
  5
23BA9
 10
122.539
 20
266.049
 30
-5.86398e-14
  70
    32
  0
VERTEX
  8
0
  5
23BAA
 10
122.272
 20
266.299
 30
-5.86898e-14
  70
    32
  0
VERTEX
  8
0
  5
23BAB
 10
122.002
 20
266.549
 30
-5.87397e-14
  70
    32
  0
VERTEX
  8
0
  5
23BAC
 10
121.729
 20
266.798
 30
-5.87895e-14
  70
    32
  0
VERTEX
  8
0
  5
23BAD
 10
121.453
 20
267.046
 30
-5.88392e-14
  70
    32
  0
VERTEX
  8
0
  5
23BAE
 10
121.174
 20
267.294
 30
-5.88888e-14
  70
    32
  0
VERTEX
  8
0
  5
23BAF
 10
120.891
 20
267.542
 30
-5.89382e-14
  70
    32
  0
VERTEX
  8
0
  5
23BB0
 10
120.606
 20
267.788
 30
-5.89876e-14
  70
    32
  0
VERTEX
  8
0
  5
23BB1
 10
120.317
 20
268.034
 30
-5.90368e-14
  70
    32
  0
VERTEX
  8
0
  5
23BB2
 10
120.025
 20
268.280
 30
-5.90859e-14
  70
    32
  0
VERTEX
  8
0
  5
23BB3
 10
119.730
 20
268.525
 30
-5.91349e-14
  70
    32
  0
VERTEX
  8
0
  5
23BB4
 10
119.433
 20
268.769
 30
-5.91838e-14
  70
    32
  0
VERTEX
  8
0
  5
23BB5
 10
119.132
 20
269.013
 30
-5.92325e-14
  70
    32
  0
VERTEX
  8
0
  5
23BB6
 10
118.828
 20
269.256
 30
-5.92811e-14
  70
    32
  0
VERTEX
  8
0
  5
23BB7
 10
118.521
 20
269.498
 30
-5.93296e-14
  70
    32
  0
VERTEX
  8
0
  5
23BB8
 10
118.211
 20
269.740
 30
-5.93780e-14
  70
    32
  0
VERTEX
  8
0
  5
23BB9
 10
117.898
 20
269.982
 30
-5.94262e-14
  70
    32
  0
VERTEX
  8
0
  5
23BBA
 10
117.582
 20
270.222
 30
-5.94743e-14
  70
    32
  0
VERTEX
  8
0
  5
23BBB
 10
117.262
 20
270.462
 30
-5.95223e-14
  70
    32
  0
VERTEX
  8
0
  5
23BBC
 10
116.940
 20
270.701
 30
-5.95702e-14
  70
    32
  0
VERTEX
  8
0
  5
23BBD
 10
116.615
 20
270.940
 30
-5.96179e-14
  70
    32
  0
VERTEX
  8
0
  5
23BBE
 10
116.287
 20
271.178
 30
-5.96655e-14
  70
    32
  0
VERTEX
  8
0
  5
23BBF
 10
115.956
 20
271.415
 30
-5.97129e-14
  70
    32
  0
VERTEX
  8
0
  5
23BC0
 10
115.622
 20
271.652
 30
-5.97602e-14
  70
    32
  0
VERTEX
  8
0
  5
23BC1
 10
115.285
 20
271.887
 30
-5.98074e-14
  70
    32
  0
VERTEX
  8
0
  5
23BC2
 10
114.946
 20
272.123
 30
-5.98545e-14
  70
    32
  0
VERTEX
  8
0
  5
23BC3
 10
114.603
 20
272.357
 30
-5.99014e-14
  70
    32
  0
VERTEX
  8
0
  5
23BC4
 10
114.257
 20
272.591
 30
-5.99481e-14
  70
    32
  0
VERTEX
  8
0
  5
23BC5
 10
113.908
 20
272.824
 30
-5.99947e-14
  70
    32
  0
VERTEX
  8
0
  5
23BC6
 10
113.557
 20
273.056
 30
-6.00412e-14
  70
    32
  0
VERTEX
  8
0
  5
23BC7
 10
113.202
 20
273.288
 30
-6.00875e-14
  70
    32
  0
VERTEX
  8
0
  5
23BC8
 10
112.845
 20
273.519
 30
-6.01337e-14
  70
    32
  0
VERTEX
  8
0
  5
23BC9
 10
112.484
 20
273.749
 30
-6.01798e-14
  70
    32
  0
VERTEX
  8
0
  5
23BCA
 10
112.121
 20
273.979
 30
-6.02257e-14
  70
    32
  0
VERTEX
  8
0
  5
23BCB
 10
111.755
 20
274.207
 30
-6.02714e-14
  70
    32
  0
VERTEX
  8
0
  5
23BCC
 10
111.386
 20
274.435
 30
-6.03170e-14
  70
    32
  0
VERTEX
  8
0
  5
23BCD
 10
111.015
 20
274.663
 30
-6.03624e-14
  70
    32
  0
VERTEX
  8
0
  5
23BCE
 10
110.640
 20
274.889
 30
-6.04077e-14
  70
    32
  0
VERTEX
  8
0
  5
23BCF
 10
110.263
 20
275.115
 30
-6.04529e-14
  70
    32
  0
VERTEX
  8
0
  5
23BD0
 10
109.883
 20
275.340
 30
-6.04978e-14
  70
    32
  0
VERTEX
  8
0
  5
23BD1
 10
109.500
 20
275.564
 30
-6.05427e-14
  70
    32
  0
VERTEX
  8
0
  5
23BD2
 10
109.114
 20
275.787
 30
-6.05873e-14
  70
    32
  0
VERTEX
  8
0
  5
23BD3
 10
108.725
 20
276.010
 30
-6.06318e-14
  70
    32
  0
VERTEX
  8
0
  5
23BD4
 10
108.334
 20
276.231
 30
-6.06762e-14
  70
    32
  0
VERTEX
  8
0
  5
23BD5
 10
107.940
 20
276.452
 30
-6.07204e-14
  70
    32
  0
VERTEX
  8
0
  5
23BD6
 10
107.543
 20
276.672
 30
-6.07644e-14
  70
    32
  0
VERTEX
  8
0
  5
23BD7
 10
107.143
 20
276.892
 30
-6.08083e-14
  70
    32
  0
VERTEX
  8
0
  5
23BD8
 10
106.741
 20
277.110
 30
-6.08520e-14
  70
    32
  0
VERTEX
  8
0
  5
23BD9
 10
106.335
 20
277.328
 30
-6.08955e-14
  70
    32
  0
SEQEND
  8
0
  5
23BDA
  0
POLYLINE
  5
231C0
  8
0
  6
VERDECKT
 62
     1
 10
-106.3353632058043843
 20
277.3278982193060074
 30
-0.0000000000000609
 66
     1
 70
     8
  0
VERTEX
  8
0
  5
23BDB
 10
-106.335
 20
277.328
 30
-6.08955e-14
  70
    32
  0
VERTEX
  8
0
  5
23BDC
 10
-108.668
 20
276.042
 30
-6.06383e-14
  70
    32
  0
VERTEX
  8
0
  5
23BDD
 10
-110.905
 20
274.729
 30
-6.03757e-14
  70
    32
  0
VERTEX
  8
0
  5
23BDE
 10
-113.045
 20
273.390
 30
-6.01079e-14
  70
    32
  0
VERTEX
  8
0
  5
23BDF
 10
-115.086
 20
272.026
 30
-5.98350e-14
  70
    32
  0
VERTEX
  8
0
  5
23BE0
 10
-117.027
 20
270.637
 30
-5.95574e-14
  70
    32
  0
VERTEX
  8
0
  5
23BE1
 10
-118.864
 20
269.227
 30
-5.92753e-14
  70
    32
  0
VERTEX
  8
0
  5
23BE2
 10
-120.598
 20
267.795
 30
-5.89889e-14
  70
    32
  0
VERTEX
  8
0
  5
23BE3
 10
-122.226
 20
266.343
 30
-5.86984e-14
  70
    32
  0
VERTEX
  8
0
  5
23BE4
 10
-123.747
 20
264.872
 30
-5.84042e-14
  70
    32
  0
VERTEX
  8
0
  5
23BE5
 10
-125.159
 20
263.383
 30
-5.81065e-14
  70
    32
  0
VERTEX
  8
0
  5
23BE6
 10
-126.462
 20
261.878
 30
-5.78056e-14
  70
    32
  0
VERTEX
  8
0
  5
23BE7
 10
-127.654
 20
260.359
 30
-5.75017e-14
  70
    32
  0
VERTEX
  8
0
  5
23BE8
 10
-128.734
 20
258.826
 30
-5.71950e-14
  70
    32
  0
VERTEX
  8
0
  5
23BE9
 10
-129.701
 20
257.280
 30
-5.68859e-14
  70
    32
  0
VERTEX
  8
0
  5
23BEA
 10
-130.555
 20
255.724
 30
-5.65746e-14
  70
    32
  0
VERTEX
  8
0
  5
23BEB
 10
-131.294
 20
254.158
 30
-5.62615e-14
  70
    32
  0
VERTEX
  8
0
  5
23BEC
 10
-131.919
 20
252.584
 30
-5.59467e-14
  70
    32
  0
VERTEX
  8
0
  5
23BED
 10
-132.427
 20
251.003
 30
-5.56305e-14
  70
    32
  0
VERTEX
  8
0
  5
23BEE
 10
-132.820
 20
249.417
 30
-5.53132e-14
  70
    32
  0
VERTEX
  8
0
  5
23BEF
 10
-133.096
 20
247.826
 30
-5.49952e-14
  70
    32
  0
VERTEX
  8
0
  5
23BF0
 10
-133.256
 20
246.234
 30
-5.46766e-14
  70
    32
  0
VERTEX
  8
0
  5
23BF1
 10
-133.299
 20
244.640
 30
-5.43578e-14
  70
    32
  0
VERTEX
  8
0
  5
23BF2
 10
-133.225
 20
243.046
 30
-5.40391e-14
  70
    32
  0
VERTEX
  8
0
  5
23BF3
 10
-133.035
 20
241.453
 30
-5.37206e-14
  70
    32
  0
VERTEX
  8
0
  5
23BF4
 10
-132.727
 20
239.864
 30
-5.34027e-14
  70
    32
  0
VERTEX
  8
0
  5
23BF5
 10
-132.304
 20
238.279
 30
-5.30857e-14
  70
    32
  0
VERTEX
  8
0
  5
23BF6
 10
-131.765
 20
236.700
 30
-5.27699e-14
  70
    32
  0
VERTEX
  8
0
  5
23BF7
 10
-131.110
 20
235.128
 30
-5.24555e-14
  70
    32
  0
VERTEX
  8
0
  5
23BF8
 10
-130.340
 20
233.564
 30
-5.21428e-14
  70
    32
  0
VERTEX
  8
0
  5
23BF9
 10
-129.456
 20
232.011
 30
-5.18321e-14
  70
    32
  0
VERTEX
  8
0
  5
23BFA
 10
-128.459
 20
230.468
 30
-5.15236e-14
  70
    32
  0
VERTEX
  8
0
  5
23BFB
 10
-127.349
 20
228.939
 30
-5.12176e-14
  70
    32
  0
VERTEX
  8
0
  5
23BFC
 10
-126.128
 20
227.423
 30
-5.09145e-14
  70
    32
  0
VERTEX
  8
0
  5
23BFD
 10
-124.796
 20
225.922
 30
-5.06144e-14
  70
    32
  0
VERTEX
  8
0
  5
23BFE
 10
-123.355
 20
224.438
 30
-5.03176e-14
  70
    32
  0
VERTEX
  8
0
  5
23BFF
 10
-121.806
 20
222.972
 30
-5.00243e-14
  70
    32
  0
VERTEX
  8
0
  5
23C00
 10
-120.150
 20
221.525
 30
-4.97350e-14
  70
    32
  0
VERTEX
  8
0
  5
23C01
 10
-118.388
 20
220.099
 30
-4.94497e-14
  70
    32
  0
VERTEX
  8
0
  5
23C02
 10
-116.523
 20
218.694
 30
-4.91687e-14
  70
    32
  0
VERTEX
  8
0
  5
23C03
 10
-114.556
 20
217.312
 30
-4.88923e-14
  70
    32
  0
VERTEX
  8
0
  5
23C04
 10
-112.489
 20
215.954
 30
-4.86208e-14
  70
    32
  0
VERTEX
  8
0
  5
23C05
 10
-110.323
 20
214.622
 30
-4.83543e-14
  70
    32
  0
VERTEX
  8
0
  5
23C06
 10
-108.060
 20
213.316
 30
-4.80931e-14
  70
    32
  0
VERTEX
  8
0
  5
23C07
 10
-105.703
 20
212.037
 30
-4.78374e-14
  70
    32
  0
VERTEX
  8
0
  5
23C08
 10
-103.253
 20
210.788
 30
-4.75875e-14
  70
    32
  0
VERTEX
  8
0
  5
23C09
 10
-100.712
 20
209.568
 30
-4.73435e-14
  70
    32
  0
VERTEX
  8
0
  5
23C0A
 10
-98.0835
 20
208.379
 30
-4.71058e-14
  70
    32
  0
VERTEX
  8
0
  5
23C0B
 10
-95.3689
 20
207.222
 30
-4.68744e-14
  70
    32
  0
VERTEX
  8
0
  5
23C0C
 10
-92.5707
 20
206.099
 30
-4.66496e-14
  70
    32
  0
VERTEX
  8
0
  5
23C0D
 10
-89.6915
 20
205.009
 30
-4.64316e-14
  70
    32
  0
VERTEX
  8
0
  5
23C0E
 10
-86.7336
 20
203.954
 30
-4.62206e-14
  70
    32
  0
VERTEX
  8
0
  5
23C0F
 10
-83.6998
 20
202.934
 30
-4.60168e-14
  70
    32
  0
VERTEX
  8
0
  5
23C10
 10
-80.5926
 20
201.952
 30
-4.58203e-14
  70
    32
  0
VERTEX
  8
0
  5
23C11
 10
-77.4148
 20
201.007
 30
-4.56313e-14
  70
    32
  0
VERTEX
  8
0
  5
23C12
 10
-74.1692
 20
200.100
 30
-4.54500e-14
  70
    32
  0
VERTEX
  8
0
  5
23C13
 10
-70.8586
 20
199.233
 30
-4.52765e-14
  70
    32
  0
VERTEX
  8
0
  5
23C14
 10
-67.4859
 20
198.406
 30
-4.51111e-14
  70
    32
  0
VERTEX
  8
0
  5
23C15
 10
-64.0541
 20
197.619
 30
-4.49537e-14
  70
    32
  0
VERTEX
  8
0
  5
23C16
 10
-60.5662
 20
196.874
 30
-4.48047e-14
  70
    32
  0
VERTEX
  8
0
  5
23C17
 10
-57.0252
 20
196.171
 30
-4.46641e-14
  70
    32
  0
VERTEX
  8
0
  5
23C18
 10
-53.4343
 20
195.510
 30
-4.45319e-14
  70
    32
  0
VERTEX
  8
0
  5
23C19
 10
-49.7965
 20
194.893
 30
-4.44085e-14
  70
    32
  0
VERTEX
  8
0
  5
23C1A
 10
-46.1151
 20
194.319
 30
-4.42938e-14
  70
    32
  0
VERTEX
  8
0
  5
23C1B
 10
-42.3933
 20
193.790
 30
-4.41879e-14
  70
    32
  0
VERTEX
  8
0
  5
23C1C
 10
-38.6344
 20
193.305
 30
-4.40910e-14
  70
    32
  0
VERTEX
  8
0
  5
23C1D
 10
-34.8416
 20
192.866
 30
-4.40031e-14
  70
    32
  0
VERTEX
  8
0
  5
23C1E
 10
-31.0183
 20
192.472
 30
-4.39243e-14
  70
    32
  0
VERTEX
  8
0
  5
23C1F
 10
-27.1678
 20
192.124
 30
-4.38547e-14
  70
    32
  0
VERTEX
  8
0
  5
23C20
 10
-23.2935
 20
191.822
 30
-4.37944e-14
  70
    32
  0
VERTEX
  8
0
  5
23C21
 10
-19.3988
 20
191.567
 30
-4.37433e-14
  70
    32
  0
VERTEX
  8
0
  5
23C22
 10
-15.4871
 20
191.358
 30
-4.37016e-14
  70
    32
  0
VERTEX
  8
0
  5
23C23
 10
-11.5618
 20
191.197
 30
-4.36693e-14
  70
    32
  0
VERTEX
  8
0
  5
23C24
 10
-7.62641
 20
191.082
 30
-4.36463e-14
  70
    32
  0
VERTEX
  8
0
  5
23C25
 10
-3.68433
 20
191.014
 30
-4.36328e-14
  70
    32
  0
VERTEX
  8
0
  5
23C26
 10
0.260974
 20
190.994
 30
-4.36287e-14
  70
    32
  0
VERTEX
  8
0
  5
23C27
 10
4.20605
 20
191.021
 30
-4.36340e-14
  70
    32
  0
VERTEX
  8
0
  5
23C28
 10
8.14745
 20
191.094
 30
-4.36488e-14
  70
    32
  0
VERTEX
  8
0
  5
23C29
 10
12.0817
 20
191.215
 30
-4.36730e-14
  70
    32
  0
VERTEX
  8
0
  5
23C2A
 10
16.0054
 20
191.383
 30
-4.37066e-14
  70
    32
  0
VERTEX
  8
0
  5
23C2B
 10
19.9150
 20
191.598
 30
-4.37495e-14
  70
    32
  0
VERTEX
  8
0
  5
23C2C
 10
23.8072
 20
191.860
 30
-4.38018e-14
  70
    32
  0
VERTEX
  8
0
  5
23C2D
 10
27.6786
 20
192.168
 30
-4.38634e-14
  70
    32
  0
VERTEX
  8
0
  5
23C2E
 10
31.5256
 20
192.522
 30
-4.39342e-14
  70
    32
  0
VERTEX
  8
0
  5
23C2F
 10
35.3451
 20
192.921
 30
-4.40142e-14
  70
    32
  0
VERTEX
  8
0
  5
23C30
 10
39.1336
 20
193.367
 30
-4.41033e-14
  70
    32
  0
VERTEX
  8
0
  5
23C31
 10
42.8878
 20
193.857
 30
-4.42014e-14
  70
    32
  0
VERTEX
  8
0
  5
23C32
 10
46.6045
 20
194.393
 30
-4.43084e-14
  70
    32
  0
VERTEX
  8
0
  5
23C33
 10
50.2803
 20
194.972
 30
-4.44243e-14
  70
    32
  0
VERTEX
  8
0
  5
23C34
 10
53.9120
 20
195.595
 30
-4.45489e-14
  70
    32
  0
VERTEX
  8
0
  5
23C35
 10
57.4966
 20
196.261
 30
-4.46822e-14
  70
    32
  0
VERTEX
  8
0
  5
23C36
 10
61.0307
 20
196.970
 30
-4.48239e-14
  70
    32
  0
VERTEX
  8
0
  5
23C37
 10
64.5114
 20
197.721
 30
-4.49741e-14
  70
    32
  0
VERTEX
  8
0
  5
23C38
 10
67.9355
 20
198.513
 30
-4.51325e-14
  70
    32
  0
VERTEX
  8
0
  5
23C39
 10
71.3002
 20
199.346
 30
-4.52990e-14
  70
    32
  0
VERTEX
  8
0
  5
23C3A
 10
74.6023
 20
200.218
 30
-4.54735e-14
  70
    32
  0
VERTEX
  8
0
  5
23C3B
 10
77.8391
 20
201.130
 30
-4.56559e-14
  70
    32
  0
VERTEX
  8
0
  5
23C3C
 10
81.0077
 20
202.080
 30
-4.58458e-14
  70
    32
  0
VERTEX
  8
0
  5
23C3D
 10
84.1054
 20
203.067
 30
-4.60433e-14
  70
    32
  0
VERTEX
  8
0
  5
23C3E
 10
87.1293
 20
204.091
 30
-4.62481e-14
  70
    32
  0
VERTEX
  8
0
  5
23C3F
 10
90.0769
 20
205.151
 30
-4.64601e-14
  70
    32
  0
VERTEX
  8
0
  5
23C40
 10
92.9456
 20
206.245
 30
-4.66790e-14
  70
    32
  0
VERTEX
  8
0
  5
23C41
 10
95.7328
 20
207.374
 30
-4.69046e-14
  70
    32
  0
VERTEX
  8
0
  5
23C42
 10
98.4362
 20
208.535
 30
-4.71369e-14
  70
    32
  0
VERTEX
  8
0
  5
23C43
 10
101.053
 20
209.728
 30
-4.73755e-14
  70
    32
  0
VERTEX
  8
0
  5
23C44
 10
103.582
 20
210.952
 30
-4.76202e-14
  70
    32
  0
VERTEX
  8
0
  5
23C45
 10
106.020
 20
212.205
 30
-4.78709e-14
  70
    32
  0
VERTEX
  8
0
  5
23C46
 10
108.365
 20
213.487
 30
-4.81273e-14
  70
    32
  0
VERTEX
  8
0
  5
23C47
 10
110.615
 20
214.797
 30
-4.83892e-14
  70
    32
  0
VERTEX
  8
0
  5
23C48
 10
112.768
 20
216.132
 30
-4.86564e-14
  70
    32
  0
VERTEX
  8
0
  5
23C49
 10
114.822
 20
217.493
 30
-4.89286e-14
  70
    32
  0
VERTEX
  8
0
  5
23C4A
 10
116.776
 20
218.878
 30
-4.92056e-14
  70
    32
  0
VERTEX
  8
0
  5
23C4B
 10
118.627
 20
220.286
 30
-4.94872e-14
  70
    32
  0
VERTEX
  8
0
  5
23C4C
 10
120.375
 20
221.715
 30
-4.97730e-14
  70
    32
  0
VERTEX
  8
0
  5
23C4D
 10
122.017
 20
223.165
 30
-5.00629e-14
  70
    32
  0
VERTEX
  8
0
  5
23C4E
 10
123.552
 20
224.634
 30
-5.03566e-14
  70
    32
  0
VERTEX
  8
0
  5
23C4F
 10
124.979
 20
226.120
 30
-5.06539e-14
  70
    32
  0
VERTEX
  8
0
  5
23C50
 10
126.296
 20
227.622
 30
-5.09544e-14
  70
    32
  0
VERTEX
  8
0
  5
23C51
 10
127.503
 20
229.140
 30
-5.12580e-14
  70
    32
  0
VERTEX
  8
0
  5
23C52
 10
128.598
 20
230.672
 30
-5.15643e-14
  70
    32
  0
VERTEX
  8
0
  5
23C53
 10
129.580
 20
232.216
 30
-5.18731e-14
  70
    32
  0
VERTEX
  8
0
  5
23C54
 10
130.449
 20
233.771
 30
-5.21841e-14
  70
    32
  0
VERTEX
  8
0
  5
23C55
 10
131.203
 20
235.335
 30
-5.24970e-14
  70
    32
  0
VERTEX
  8
0
  5
23C56
 10
131.843
 20
236.909
 30
-5.28116e-14
  70
    32
  0
VERTEX
  8
0
  5
23C57
 10
132.367
 20
238.489
 30
-5.31276e-14
  70
    32
  0
VERTEX
  8
0
  5
23C58
 10
132.775
 20
240.074
 30
-5.34447e-14
  70
    32
  0
VERTEX
  8
0
  5
23C59
 10
133.066
 20
241.664
 30
-5.37627e-14
  70
    32
  0
VERTEX
  8
0
  5
23C5A
 10
133.242
 20
243.256
 30
-5.40812e-14
  70
    32
  0
VERTEX
  8
0
  5
23C5B
 10
133.300
 20
244.850
 30
-5.44000e-14
  70
    32
  0
SEQEND
  8
0
  5
23C5C
  0
POLYLINE
  5
231C1
  8
0
  6
VERDECKT
 62
     1
 10
133.3000000000000114
 20
352.7513902242989161
 30
-0.0000000000000783
 66
     1
 70
     8
  0
VERTEX
  8
0
  5
23C5D
 10
133.300
 20
352.751
 30
-7.83000e-14
  70
    32
  0
VERTEX
  8
0
  5
23C5E
 10
133.259
 20
349.509
 30
-7.76515e-14
  70
    32
  0
VERTEX
  8
0
  5
23C5F
 10
133.138
 20
346.269
 30
-7.70035e-14
  70
    32
  0
VERTEX
  8
0
  5
23C60
 10
132.935
 20
343.032
 30
-7.63562e-14
  70
    32
  0
VERTEX
  8
0
  5
23C61
 10
132.651
 20
339.802
 30
-7.57101e-14
  70
    32
  0
VERTEX
  8
0
  5
23C62
 10
132.286
 20
336.580
 30
-7.50656e-14
  70
    32
  0
VERTEX
  8
0
  5
23C63
 10
131.840
 20
333.367
 30
-7.44231e-14
  70
    32
  0
VERTEX
  8
0
  5
23C64
 10
131.314
 20
330.166
 30
-7.37829e-14
  70
    32
  0
VERTEX
  8
0
  5
23C65
 10
130.708
 20
326.979
 30
-7.31455e-14
  70
    32
  0
VERTEX
  8
0
  5
23C66
 10
130.023
 20
323.808
 30
-7.25112e-14
  70
    32
  0
VERTEX
  8
0
  5
23C67
 10
129.258
 20
320.654
 30
-7.18805e-14
  70
    32
  0
VERTEX
  8
0
  5
23C68
 10
128.414
 20
317.520
 30
-7.12536e-14
  70
    32
  0
VERTEX
  8
0
  5
23C69
 10
127.493
 20
314.407
 30
-7.06311e-14
  70
    32
  0
VERTEX
  8
0
  5
23C6A
 10
126.493
 20
311.318
 30
-7.00132e-14
  70
    32
  0
VERTEX
  8
0
  5
23C6B
 10
125.416
 20
308.253
 30
-6.94004e-14
  70
    32
  0
VERTEX
  8
0
  5
23C6C
 10
124.263
 20
305.217
 30
-6.87930e-14
  70
    32
  0
VERTEX
  8
0
  5
23C6D
 10
123.034
 20
302.209
 30
-6.81914e-14
  70
    32
  0
VERTEX
  8
0
  5
23C6E
 10
121.731
 20
299.231
 30
-6.75960e-14
  70
    32
  0
VERTEX
  8
0
  5
23C6F
 10
120.353
 20
296.287
 30
-6.70071e-14
  70
    32
  0
VERTEX
  8
0
  5
23C70
 10
118.901
 20
293.377
 30
-6.64251e-14
  70
    32
  0
VERTEX
  8
0
  5
23C71
 10
117.377
 20
290.503
 30
-6.58503e-14
  70
    32
  0
VERTEX
  8
0
  5
23C72
 10
115.782
 20
287.667
 30
-6.52831e-14
  70
    32
  0
VERTEX
  8
0
  5
23C73
 10
114.116
 20
284.870
 30
-6.47238e-14
  70
    32
  0
VERTEX
  8
0
  5
23C74
 10
112.380
 20
282.115
 30
-6.41728e-14
  70
    32
  0
VERTEX
  8
0
  5
23C75
 10
110.576
 20
279.403
 30
-6.36304e-14
  70
    32
  0
VERTEX
  8
0
  5
23C76
 10
108.705
 20
276.736
 30
-6.30970e-14
  70
    32
  0
VERTEX
  8
0
  5
23C77
 10
106.767
 20
274.115
 30
-6.25728e-14
  70
    32
  0
VERTEX
  8
0
  5
23C78
 10
104.765
 20
271.542
 30
-6.20582e-14
  70
    32
  0
VERTEX
  8
0
  5
23C79
 10
102.698
 20
269.019
 30
-6.15535e-14
  70
    32
  0
VERTEX
  8
0
  5
23C7A
 10
100.569
 20
266.547
 30
-6.10590e-14
  70
    32
  0
VERTEX
  8
0
  5
23C7B
 10
98.3783
 20
264.127
 30
-6.05751e-14
  70
    32
  0
VERTEX
  8
0
  5
23C7C
 10
96.1278
 20
261.761
 30
-6.01019e-14
  70
    32
  0
VERTEX
  8
0
  5
23C7D
 10
93.8188
 20
259.450
 30
-5.96398e-14
  70
    32
  0
VERTEX
  8
0
  5
23C7E
 10
91.4525
 20
257.197
 30
-5.91891e-14
  70
    32
  0
VERTEX
  8
0
  5
23C7F
 10
89.0306
 20
255.002
 30
-5.87500e-14
  70
    32
  0
VERTEX
  8
0
  5
23C80
 10
86.5543
 20
252.866
 30
-5.83229e-14
  70
    32
  0
VERTEX
  8
0
  5
23C81
 10
84.0254
 20
250.791
 30
-5.79079e-14
  70
    32
  0
VERTEX
  8
0
  5
23C82
 10
81.4451
 20
248.778
 30
-5.75054e-14
  70
    32
  0
VERTEX
  8
0
  5
23C83
 10
78.8153
 20
246.829
 30
-5.71155e-14
  70
    32
  0
VERTEX
  8
0
  5
23C84
 10
76.1374
 20
244.944
 30
-5.67386e-14
  70
    32
  0
VERTEX
  8
0
  5
23C85
 10
73.4131
 20
243.125
 30
-5.63748e-14
  70
    32
  0
VERTEX
  8
0
  5
23C86
 10
70.6441
 20
241.373
 30
-5.60243e-14
  70
    32
  0
VERTEX
  8
0
  5
23C87
 10
67.8320
 20
239.689
 30
-5.56875e-14
  70
    32
  0
VERTEX
  8
0
  5
23C88
 10
64.9786
 20
238.073
 30
-5.53644e-14
  70
    32
  0
VERTEX
  8
0
  5
23C89
 10
62.0855
 20
236.528
 30
-5.50553e-14
  70
    32
  0
VERTEX
  8
0
  5
23C8A
 10
59.1547
 20
235.053
 30
-5.47603e-14
  70
    32
  0
VERTEX
  8
0
  5
23C8B
 10
56.1877
 20
233.650
 30
-5.44797e-14
  70
    32
  0
VERTEX
  8
0
  5
23C8C
 10
53.1865
 20
232.320
 30
-5.42137e-14
  70
    32
  0
VERTEX
  8
0
  5
23C8D
 10
50.1529
 20
231.063
 30
-5.39623e-14
  70
    32
  0
VERTEX
  8
0
  5
23C8E
 10
47.0888
 20
229.880
 30
-5.37257e-14
  70
    32
  0
VERTEX
  8
0
  5
23C8F
 10
43.9959
 20
228.772
 30
-5.35041e-14
  70
    32
  0
VERTEX
  8
0
  5
23C90
 10
40.8762
 20
227.740
 30
-5.32977e-14
  70
    32
  0
VERTEX
  8
0
  5
23C91
 10
37.7316
 20
226.784
 30
-5.31064e-14
  70
    32
  0
VERTEX
  8
0
  5
23C92
 10
34.5640
 20
225.904
 30
-5.29306e-14
  70
    32
  0
VERTEX
  8
0
  5
23C93
 10
31.3754
 20
225.102
 30
-5.27702e-14
  70
    32
  0
VERTEX
  8
0
  5
23C94
 10
28.1676
 20
224.378
 30
-5.26253e-14
  70
    32
  0
VERTEX
  8
0
  5
23C95
 10
24.9426
 20
223.732
 30
-5.24961e-14
  70
    32
  0
VERTEX
  8
0
  5
23C96
 10
21.7025
 20
223.165
 30
-5.23826e-14
  70
    32
  0
VERTEX
  8
0
  5
23C97
 10
18.4491
 20
222.676
 30
-5.22850e-14
  70
    32
  0
VERTEX
  8
0
  5
23C98
 10
15.1844
 20
222.267
 30
-5.22031e-14
  70
    32
  0
VERTEX
  8
0
  5
23C99
 10
11.9106
 20
221.938
 30
-5.21372e-14
  70
    32
  0
VERTEX
  8
0
  5
23C9A
 10
8.62942
 20
221.688
 30
-5.20873e-14
  70
    32
  0
VERTEX
  8
0
  5
23C9B
 10
5.34301
 20
221.518
 30
-5.20533e-14
  70
    32
  0
VERTEX
  8
0
  5
23C9C
 10
2.05335
 20
221.428
 30
-5.20353e-14
  70
    32
  0
VERTEX
  8
0
  5
23C9D
 10
-1.23756
 20
221.418
 30
-5.20333e-14
  70
    32
  0
VERTEX
  8
0
  5
23C9E
 10
-4.52772
 20
221.488
 30
-5.20473e-14
  70
    32
  0
VERTEX
  8
0
  5
23C9F
 10
-7.81512
 20
221.638
 30
-5.20773e-14
  70
    32
  0
VERTEX
  8
0
  5
23CA0
 10
-11.0978
 20
221.868
 30
-5.21233e-14
  70
    32
  0
VERTEX
  8
0
  5
23CA1
 10
-14.3736
 20
222.178
 30
-5.21853e-14
  70
    32
  0
VERTEX
  8
0
  5
23CA2
 10
-17.6407
 20
222.567
 30
-5.22632e-14
  70
    32
  0
VERTEX
  8
0
  5
23CA3
 10
-20.8971
 20
223.036
 30
-5.23569e-14
  70
    32
  0
VERTEX
  8
0
  5
23CA4
 10
-24.1407
 20
223.584
 30
-5.24665e-14
  70
    32
  0
VERTEX
  8
0
  5
23CA5
 10
-27.3696
 20
224.210
 30
-5.25918e-14
  70
    32
  0
VERTEX
  8
0
  5
23CA6
 10
-30.5818
 20
224.915
 30
-5.27328e-14
  70
    32
  0
VERTEX
  8
0
  5
23CA7
 10
-33.7754
 20
225.698
 30
-5.28894e-14
  70
    32
  0
VERTEX
  8
0
  5
23CA8
 10
-36.9484
 20
226.558
 30
-5.30614e-14
  70
    32
  0
VERTEX
  8
0
  5
23CA9
 10
-40.0989
 20
227.496
 30
-5.32488e-14
  70
    32
  0
VERTEX
  8
0
  5
23CAA
 10
-43.2250
 20
228.509
 30
-5.34515e-14
  70
    32
  0
VERTEX
  8
0
  5
23CAB
 10
-46.3246
 20
229.598
 30
-5.36694e-14
  70
    32
  0
VERTEX
  8
0
  5
23CAC
 10
-49.3961
 20
230.763
 30
-5.39022e-14
  70
    32
  0
VERTEX
  8
0
  5
23CAD
 10
-52.4375
 20
232.001
 30
-5.41500e-14
  70
    32
  0
VERTEX
  8
0
  5
23CAE
 10
-55.4468
 20
233.313
 30
-5.44124e-14
  70
    32
  0
VERTEX
  8
0
  5
23CAF
 10
-58.4224
 20
234.699
 30
-5.46894e-14
  70
    32
  0
VERTEX
  8
0
  5
23CB0
 10
-61.3624
 20
236.155
 30
-5.49808e-14
  70
    32
  0
VERTEX
  8
0
  5
23CB1
 10
-64.2650
 20
237.684
 30
-5.52864e-14
  70
    32
  0
VERTEX
  8
0
  5
23CB2
 10
-67.1284
 20
239.282
 30
-5.56061e-14
  70
    32
  0
VERTEX
  8
0
  5
23CB3
 10
-69.9509
 20
240.949
 30
-5.59395e-14
  70
    32
  0
VERTEX
  8
0
  5
23CB4
 10
-72.7308
 20
242.685
 30
-5.62866e-14
  70
    32
  0
VERTEX
  8
0
  5
23CB5
 10
-75.4663
 20
244.487
 30
-5.66472e-14
  70
    32
  0
VERTEX
  8
0
  5
23CB6
 10
-78.1559
 20
246.356
 30
-5.70209e-14
  70
    32
  0
VERTEX
  8
0
  5
23CB7
 10
-80.7978
 20
248.289
 30
-5.74076e-14
  70
    32
  0
VERTEX
  8
0
  5
23CB8
 10
-83.3904
 20
250.286
 30
-5.78070e-14
  70
    32
  0
VERTEX
  8
0
  5
23CB9
 10
-85.9323
 20
252.346
 30
-5.82189e-14
  70
    32
  0
VERTEX
  8
0
  5
23CBA
 10
-88.4217
 20
254.467
 30
-5.86430e-14
  70
    32
  0
VERTEX
  8
0
  5
23CBB
 10
-90.8573
 20
256.647
 30
-5.90792e-14
  70
    32
  0
VERTEX
  8
0
  5
23CBC
 10
-93.2374
 20
258.886
 30
-5.95270e-14
  70
    32
  0
VERTEX
  8
0
  5
23CBD
 10
-95.5608
 20
261.183
 30
-5.99863e-14
  70
    32
  0
VERTEX
  8
0
  5
23CBE
 10
-97.8259
 20
263.535
 30
-6.04567e-14
  70
    32
  0
VERTEX
  8
0
  5
23CBF
 10
-100.031
 20
265.942
 30
-6.09381e-14
  70
    32
  0
VERTEX
  8
0
  5
23CC0
 10
-102.176
 20
268.401
 30
-6.14300e-14
  70
    32
  0
VERTEX
  8
0
  5
23CC1
 10
-104.258
 20
270.912
 30
-6.19322e-14
  70
    32
  0
VERTEX
  8
0
  5
23CC2
 10
-106.277
 20
273.473
 30
-6.24443e-14
  70
    32
  0
VERTEX
  8
0
  5
23CC3
 10
-108.231
 20
276.082
 30
-6.29662e-14
  70
    32
  0
VERTEX
  8
0
  5
23CC4
 10
-110.119
 20
278.738
 30
-6.34973e-14
  70
    32
  0
VERTEX
  8
0
  5
23CC5
 10
-111.940
 20
281.439
 30
-6.40375e-14
  70
    32
  0
VERTEX
  8
0
  5
23CC6
 10
-113.692
 20
284.183
 30
-6.45864e-14
  70
    32
  0
VERTEX
  8
0
  5
23CC7
 10
-115.375
 20
286.970
 30
-6.51437e-14
  70
    32
  0
VERTEX
  8
0
  5
23CC8
 10
-116.988
 20
289.796
 30
-6.57089e-14
  70
    32
  0
VERTEX
  8
0
  5
23CC9
 10
-118.530
 20
292.661
 30
-6.62819e-14
  70
    32
  0
VERTEX
  8
0
  5
23CCA
 10
-120.000
 20
295.562
 30
-6.68621e-14
  70
    32
  0
VERTEX
  8
0
  5
23CCB
 10
-121.396
 20
298.498
 30
-6.74494e-14
  70
    32
  0
VERTEX
  8
0
  5
23CCC
 10
-122.718
 20
301.468
 30
-6.80432e-14
  70
    32
  0
VERTEX
  8
0
  5
23CCD
 10
-123.966
 20
304.468
 30
-6.86433e-14
  70
    32
  0
VERTEX
  8
0
  5
23CCE
 10
-125.138
 20
307.498
 30
-6.92493e-14
  70
    32
  0
VERTEX
  8
0
  5
23CCF
 10
-126.233
 20
310.556
 30
-6.98608e-14
  70
    32
  0
VERTEX
  8
0
  5
23CD0
 10
-127.252
 20
313.639
 30
-7.04775e-14
  70
    32
  0
VERTEX
  8
0
  5
23CD1
 10
-128.193
 20
316.746
 30
-7.10989e-14
  70
    32
  0
VERTEX
  8
0
  5
23CD2
 10
-129.056
 20
319.875
 30
-7.17247e-14
  70
    32
  0
VERTEX
  8
0
  5
23CD3
 10
-129.841
 20
323.024
 30
-7.23545e-14
  70
    32
  0
VERTEX
  8
0
  5
23CD4
 10
-130.546
 20
326.191
 30
-7.29880e-14
  70
    32
  0
VERTEX
  8
0
  5
23CD5
 10
-131.172
 20
329.375
 30
-7.36246e-14
  70
    32
  0
VERTEX
  8
0
  5
23CD6
 10
-131.717
 20
332.572
 30
-7.42642e-14
  70
    32
  0
VERTEX
  8
0
  5
23CD7
 10
-132.183
 20
335.782
 30
-7.49061e-14
  70
    32
  0
VERTEX
  8
0
  5
23CD8
 10
-132.568
 20
339.002
 30
-7.55502e-14
  70
    32
  0
VERTEX
  8
0
  5
23CD9
 10
-132.872
 20
342.231
 30
-7.61959e-14
  70
    32
  0
VERTEX
  8
0
  5
23CDA
 10
-133.095
 20
345.466
 30
-7.68429e-14
  70
    32
  0
VERTEX
  8
0
  5
23CDB
 10
-133.237
 20
348.706
 30
-7.74908e-14
  70
    32
  0
VERTEX
  8
0
  5
23CDC
 10
-133.298
 20
351.948
 30
-7.81392e-14
  70
    32
  0
VERTEX
  8
0
  5
23CDD
 10
-133.277
 20
355.190
 30
-7.87877e-14
  70
    32
  0
SEQEND
  8
0
  5
23CDE
  0
POLYLINE
  5
231C2
  8
0
  6
VERDECKT
 62
     1
 10
133.2770208773210072
 20
355.1900003851768588
 30
-0.0000000000000788
 66
     1
 70
     8
  0
VERTEX
  8
0
  5
23CDF
 10
133.277
 20
355.190
 30
-7.87877e-14
  70
    32
  0
VERTEX
  8
0
  5
23CE0
 10
133.277
 20
355.171
 30
-7.87839e-14
  70
    32
  0
VERTEX
  8
0
  5
23CE1
 10
133.278
 20
355.152
 30
-7.87801e-14
  70
    32
  0
VERTEX
  8
0
  5
23CE2
 10
133.278
 20
355.133
 30
-7.87763e-14
  70
    32
  0
VERTEX
  8
0
  5
23CE3
 10
133.278
 20
355.114
 30
-7.87725e-14
  70
    32
  0
VERTEX
  8
0
  5
23CE4
 10
133.279
 20
355.095
 30
-7.87687e-14
  70
    32
  0
VERTEX
  8
0
  5
23CE5
 10
133.279
 20
355.076
 30
-7.87649e-14
  70
    32
  0
VERTEX
  8
0
  5
23CE6
 10
133.279
 20
355.057
 30
-7.87611e-14
  70
    32
  0
VERTEX
  8
0
  5
23CE7
 10
133.280
 20
355.038
 30
-7.87572e-14
  70
    32
  0
VERTEX
  8
0
  5
23CE8
 10
133.280
 20
355.019
 30
-7.87534e-14
  70
    32
  0
VERTEX
  8
0
  5
23CE9
 10
133.280
 20
355.000
 30
-7.87496e-14
  70
    32
  0
VERTEX
  8
0
  5
23CEA
 10
133.281
 20
354.980
 30
-7.87458e-14
  70
    32
  0
VERTEX
  8
0
  5
23CEB
 10
133.281
 20
354.961
 30
-7.87420e-14
  70
    32
  0
VERTEX
  8
0
  5
23CEC
 10
133.281
 20
354.942
 30
-7.87382e-14
  70
    32
  0
VERTEX
  8
0
  5
23CED
 10
133.282
 20
354.923
 30
-7.87344e-14
  70
    32
  0
VERTEX
  8
0
  5
23CEE
 10
133.282
 20
354.904
 30
-7.87306e-14
  70
    32
  0
VERTEX
  8
0
  5
23CEF
 10
133.282
 20
354.885
 30
-7.87268e-14
  70
    32
  0
VERTEX
  8
0
  5
23CF0
 10
133.283
 20
354.866
 30
-7.87230e-14
  70
    32
  0
VERTEX
  8
0
  5
23CF1
 10
133.283
 20
354.847
 30
-7.87191e-14
  70
    32
  0
VERTEX
  8
0
  5
23CF2
 10
133.283
 20
354.828
 30
-7.87153e-14
  70
    32
  0
VERTEX
  8
0
  5
23CF3
 10
133.284
 20
354.809
 30
-7.87115e-14
  70
    32
  0
VERTEX
  8
0
  5
23CF4
 10
133.284
 20
354.790
 30
-7.87077e-14
  70
    32
  0
VERTEX
  8
0
  5
23CF5
 10
133.284
 20
354.771
 30
-7.87039e-14
  70
    32
  0
VERTEX
  8
0
  5
23CF6
 10
133.285
 20
354.752
 30
-7.87001e-14
  70
    32
  0
VERTEX
  8
0
  5
23CF7
 10
133.285
 20
354.733
 30
-7.86963e-14
  70
    32
  0
VERTEX
  8
0
  5
23CF8
 10
133.285
 20
354.714
 30
-7.86925e-14
  70
    32
  0
VERTEX
  8
0
  5
23CF9
 10
133.285
 20
354.695
 30
-7.86887e-14
  70
    32
  0
VERTEX
  8
0
  5
23CFA
 10
133.286
 20
354.676
 30
-7.86849e-14
  70
    32
  0
VERTEX
  8
0
  5
23CFB
 10
133.286
 20
354.657
 30
-7.86810e-14
  70
    32
  0
VERTEX
  8
0
  5
23CFC
 10
133.286
 20
354.638
 30
-7.86772e-14
  70
    32
  0
VERTEX
  8
0
  5
23CFD
 10
133.287
 20
354.618
 30
-7.86734e-14
  70
    32
  0
VERTEX
  8
0
  5
23CFE
 10
133.287
 20
354.599
 30
-7.86696e-14
  70
    32
  0
VERTEX
  8
0
  5
23CFF
 10
133.287
 20
354.580
 30
-7.86658e-14
  70
    32
  0
VERTEX
  8
0
  5
23D00
 10
133.287
 20
354.561
 30
-7.86620e-14
  70
    32
  0
VERTEX
  8
0
  5
23D01
 10
133.288
 20
354.542
 30
-7.86582e-14
  70
    32
  0
VERTEX
  8
0
  5
23D02
 10
133.288
 20
354.523
 30
-7.86544e-14
  70
    32
  0
VERTEX
  8
0
  5
23D03
 10
133.288
 20
354.504
 30
-7.86506e-14
  70
    32
  0
VERTEX
  8
0
  5
23D04
 10
133.288
 20
354.485
 30
-7.86467e-14
  70
    32
  0
VERTEX
  8
0
  5
23D05
 10
133.289
 20
354.466
 30
-7.86429e-14
  70
    32
  0
VERTEX
  8
0
  5
23D06
 10
133.289
 20
354.447
 30
-7.86391e-14
  70
    32
  0
VERTEX
  8
0
  5
23D07
 10
133.289
 20
354.428
 30
-7.86353e-14
  70
    32
  0
VERTEX
  8
0
  5
23D08
 10
133.289
 20
354.409
 30
-7.86315e-14
  70
    32
  0
VERTEX
  8
0
  5
23D09
 10
133.290
 20
354.390
 30
-7.86277e-14
  70
    32
  0
VERTEX
  8
0
  5
23D0A
 10
133.290
 20
354.371
 30
-7.86239e-14
  70
    32
  0
VERTEX
  8
0
  5
23D0B
 10
133.290
 20
354.352
 30
-7.86201e-14
  70
    32
  0
VERTEX
  8
0
  5
23D0C
 10
133.290
 20
354.333
 30
-7.86163e-14
  70
    32
  0
VERTEX
  8
0
  5
23D0D
 10
133.291
 20
354.314
 30
-7.86125e-14
  70
    32
  0
VERTEX
  8
0
  5
23D0E
 10
133.291
 20
354.295
 30
-7.86086e-14
  70
    32
  0
VERTEX
  8
0
  5
23D0F
 10
133.291
 20
354.276
 30
-7.86048e-14
  70
    32
  0
VERTEX
  8
0
  5
23D10
 10
133.291
 20
354.257
 30
-7.86010e-14
  70
    32
  0
VERTEX
  8
0
  5
23D11
 10
133.291
 20
354.237
 30
-7.85972e-14
  70
    32
  0
VERTEX
  8
0
  5
23D12
 10
133.292
 20
354.218
 30
-7.85934e-14
  70
    32
  0
VERTEX
  8
0
  5
23D13
 10
133.292
 20
354.199
 30
-7.85896e-14
  70
    32
  0
VERTEX
  8
0
  5
23D14
 10
133.292
 20
354.180
 30
-7.85858e-14
  70
    32
  0
VERTEX
  8
0
  5
23D15
 10
133.292
 20
354.161
 30
-7.85820e-14
  70
    32
  0
VERTEX
  8
0
  5
23D16
 10
133.293
 20
354.142
 30
-7.85782e-14
  70
    32
  0
VERTEX
  8
0
  5
23D17
 10
133.293
 20
354.123
 30
-7.85744e-14
  70
    32
  0
VERTEX
  8
0
  5
23D18
 10
133.293
 20
354.104
 30
-7.85705e-14
  70
    32
  0
VERTEX
  8
0
  5
23D19
 10
133.293
 20
354.085
 30
-7.85667e-14
  70
    32
  0
VERTEX
  8
0
  5
23D1A
 10
133.293
 20
354.066
 30
-7.85629e-14
  70
    32
  0
VERTEX
  8
0
  5
23D1B
 10
133.294
 20
354.047
 30
-7.85591e-14
  70
    32
  0
VERTEX
  8
0
  5
23D1C
 10
133.294
 20
354.028
 30
-7.85553e-14
  70
    32
  0
VERTEX
  8
0
  5
23D1D
 10
133.294
 20
354.009
 30
-7.85515e-14
  70
    32
  0
VERTEX
  8
0
  5
23D1E
 10
133.294
 20
353.990
 30
-7.85477e-14
  70
    32
  0
VERTEX
  8
0
  5
23D1F
 10
133.294
 20
353.971
 30
-7.85439e-14
  70
    32
  0
VERTEX
  8
0
  5
23D20
 10
133.294
 20
353.952
 30
-7.85401e-14
  70
    32
  0
VERTEX
  8
0
  5
23D21
 10
133.295
 20
353.933
 30
-7.85363e-14
  70
    32
  0
VERTEX
  8
0
  5
23D22
 10
133.295
 20
353.914
 30
-7.85324e-14
  70
    32
  0
VERTEX
  8
0
  5
23D23
 10
133.295
 20
353.895
 30
-7.85286e-14
  70
    32
  0
VERTEX
  8
0
  5
23D24
 10
133.295
 20
353.875
 30
-7.85248e-14
  70
    32
  0
VERTEX
  8
0
  5
23D25
 10
133.295
 20
353.856
 30
-7.85210e-14
  70
    32
  0
VERTEX
  8
0
  5
23D26
 10
133.295
 20
353.837
 30
-7.85172e-14
  70
    32
  0
VERTEX
  8
0
  5
23D27
 10
133.296
 20
353.818
 30
-7.85134e-14
  70
    32
  0
VERTEX
  8
0
  5
23D28
 10
133.296
 20
353.799
 30
-7.85096e-14
  70
    32
  0
VERTEX
  8
0
  5
23D29
 10
133.296
 20
353.780
 30
-7.85058e-14
  70
    32
  0
VERTEX
  8
0
  5
23D2A
 10
133.296
 20
353.761
 30
-7.85020e-14
  70
    32
  0
VERTEX
  8
0
  5
23D2B
 10
133.296
 20
353.742
 30
-7.84981e-14
  70
    32
  0
VERTEX
  8
0
  5
23D2C
 10
133.296
 20
353.723
 30
-7.84943e-14
  70
    32
  0
VERTEX
  8
0
  5
23D2D
 10
133.296
 20
353.704
 30
-7.84905e-14
  70
    32
  0
VERTEX
  8
0
  5
23D2E
 10
133.297
 20
353.685
 30
-7.84867e-14
  70
    32
  0
VERTEX
  8
0
  5
23D2F
 10
133.297
 20
353.666
 30
-7.84829e-14
  70
    32
  0
VERTEX
  8
0
  5
23D30
 10
133.297
 20
353.647
 30
-7.84791e-14
  70
    32
  0
VERTEX
  8
0
  5
23D31
 10
133.297
 20
353.628
 30
-7.84753e-14
  70
    32
  0
VERTEX
  8
0
  5
23D32
 10
133.297
 20
353.609
 30
-7.84715e-14
  70
    32
  0
VERTEX
  8
0
  5
23D33
 10
133.297
 20
353.590
 30
-7.84677e-14
  70
    32
  0
VERTEX
  8
0
  5
23D34
 10
133.297
 20
353.571
 30
-7.84639e-14
  70
    32
  0
VERTEX
  8
0
  5
23D35
 10
133.298
 20
353.552
 30
-7.84600e-14
  70
    32
  0
VERTEX
  8
0
  5
23D36
 10
133.298
 20
353.533
 30
-7.84562e-14
  70
    32
  0
VERTEX
  8
0
  5
23D37
 10
133.298
 20
353.513
 30
-7.84524e-14
  70
    32
  0
VERTEX
  8
0
  5
23D38
 10
133.298
 20
353.494
 30
-7.84486e-14
  70
    32
  0
VERTEX
  8
0
  5
23D39
 10
133.298
 20
353.475
 30
-7.84448e-14
  70
    32
  0
VERTEX
  8
0
  5
23D3A
 10
133.298
 20
353.456
 30
-7.84410e-14
  70
    32
  0
VERTEX
  8
0
  5
23D3B
 10
133.298
 20
353.437
 30
-7.84372e-14
  70
    32
  0
VERTEX
  8
0
  5
23D3C
 10
133.298
 20
353.418
 30
-7.84334e-14
  70
    32
  0
VERTEX
  8
0
  5
23D3D
 10
133.298
 20
353.399
 30
-7.84296e-14
  70
    32
  0
VERTEX
  8
0
  5
23D3E
 10
133.298
 20
353.380
 30
-7.84257e-14
  70
    32
  0
VERTEX
  8
0
  5
23D3F
 10
133.299
 20
353.361
 30
-7.84219e-14
  70
    32
  0
VERTEX
  8
0
  5
23D40
 10
133.299
 20
353.342
 30
-7.84181e-14
  70
    32
  0
VERTEX
  8
0
  5
23D41
 10
133.299
 20
353.323
 30
-7.84143e-14
  70
    32
  0
VERTEX
  8
0
  5
23D42
 10
133.299
 20
353.304
 30
-7.84105e-14
  70
    32
  0
VERTEX
  8
0
  5
23D43
 10
133.299
 20
353.285
 30
-7.84067e-14
  70
    32
  0
VERTEX
  8
0
  5
23D44
 10
133.299
 20
353.266
 30
-7.84029e-14
  70
    32
  0
VERTEX
  8
0
  5
23D45
 10
133.299
 20
353.247
 30
-7.83991e-14
  70
    32
  0
VERTEX
  8
0
  5
23D46
 10
133.299
 20
353.228
 30
-7.83953e-14
  70
    32
  0
VERTEX
  8
0
  5
23D47
 10
133.299
 20
353.209
 30
-7.83915e-14
  70
    32
  0
VERTEX
  8
0
  5
23D48
 10
133.299
 20
353.190
 30
-7.83876e-14
  70
    32
  0
VERTEX
  8
0
  5
23D49
 10
133.299
 20
353.171
 30
-7.83838e-14
  70
    32
  0
VERTEX
  8
0
  5
23D4A
 10
133.299
 20
353.151
 30
-7.83800e-14
  70
    32
  0
VERTEX
  8
0
  5
23D4B
 10
133.299
 20
353.132
 30
-7.83762e-14
  70
    32
  0
VERTEX
  8
0
  5
23D4C
 10
133.299
 20
353.113
 30
-7.83724e-14
  70
    32
  0
VERTEX
  8
0
  5
23D4D
 10
133.300
 20
353.094
 30
-7.83686e-14
  70
    32
  0
VERTEX
  8
0
  5
23D4E
 10
133.300
 20
353.075
 30
-7.83648e-14
  70
    32
  0
VERTEX
  8
0
  5
23D4F
 10
133.300
 20
353.056
 30
-7.83610e-14
  70
    32
  0
VERTEX
  8
0
  5
23D50
 10
133.300
 20
353.037
 30
-7.83572e-14
  70
    32
  0
VERTEX
  8
0
  5
23D51
 10
133.300
 20
353.018
 30
-7.83533e-14
  70
    32
  0
VERTEX
  8
0
  5
23D52
 10
133.300
 20
352.999
 30
-7.83495e-14
  70
    32
  0
VERTEX
  8
0
  5
23D53
 10
133.300
 20
352.980
 30
-7.83457e-14
  70
    32
  0
VERTEX
  8
0
  5
23D54
 10
133.300
 20
352.961
 30
-7.83419e-14
  70
    32
  0
VERTEX
  8
0
  5
23D55
 10
133.300
 20
352.942
 30
-7.83381e-14
  70
    32
  0
VERTEX
  8
0
  5
23D56
 10
133.300
 20
352.923
 30
-7.83343e-14
  70
    32
  0
VERTEX
  8
0
  5
23D57
 10
133.300
 20
352.904
 30
-7.83305e-14
  70
    32
  0
VERTEX
  8
0
  5
23D58
 10
133.300
 20
352.885
 30
-7.83267e-14
  70
    32
  0
VERTEX
  8
0
  5
23D59
 10
133.300
 20
352.866
 30
-7.83229e-14
  70
    32
  0
VERTEX
  8
0
  5
23D5A
 10
133.300
 20
352.847
 30
-7.83191e-14
  70
    32
  0
VERTEX
  8
0
  5
23D5B
 10
133.300
 20
352.828
 30
-7.83152e-14
  70
    32
  0
VERTEX
  8
0
  5
23D5C
 10
133.300
 20
352.809
 30
-7.83114e-14
  70
    32
  0
VERTEX
  8
0
  5
23D5D
 10
133.300
 20
352.789
 30
-7.83076e-14
  70
    32
  0
VERTEX
  8
0
  5
23D5E
 10
133.300
 20
352.770
 30
-7.83038e-14
  70
    32
  0
VERTEX
  8
0
  5
23D5F
 10
133.300
 20
352.751
 30
-7.83000e-14
  70
    32
  0
SEQEND
  8
0
  5
23D60
  0
POLYLINE
  5
231C3
  8
0
  6
VERDECKT
 62
     1
 10
-0.0000000000001058
 20
300.0000000000001137
 30
-0.0000000000000654
 66
     1
 70
     8
  0
VERTEX
  8
0
  5
23D61
 10
-1.05848e-13
 20
300.000
 30
-6.54299e-14
  70
    32
  0
VERTEX
  8
0
  5
23D62
 10
-1.67506
 20
299.996
 30
-6.54291e-14
  70
    32
  0
VERTEX
  8
0
  5
23D63
 10
-3.34988
 20
299.983
 30
-6.54266e-14
  70
    32
  0
VERTEX
  8
0
  5
23D64
 10
-5.02419
 20
299.963
 30
-6.54224e-14
  70
    32
  0
VERTEX
  8
0
  5
23D65
 10
-6.69774
 20
299.934
 30
-6.54166e-14
  70
    32
  0
VERTEX
  8
0
  5
23D66
 10
-8.37028
 20
299.896
 30
-6.54092e-14
  70
    32
  0
VERTEX
  8
0
  5
23D67
 10
-10.0416
 20
299.851
 30
-6.54000e-14
  70
    32
  0
VERTEX
  8
0
  5
23D68
 10
-11.7113
 20
299.797
 30
-6.53892e-14
  70
    32
  0
VERTEX
  8
0
  5
23D69
 10
-13.3793
 20
299.734
 30
-6.53768e-14
  70
    32
  0
VERTEX
  8
0
  5
23D6A
 10
-15.0453
 20
299.664
 30
-6.53627e-14
  70
    32
  0
VERTEX
  8
0
  5
23D6B
 10
-16.7091
 20
299.585
 30
-6.53470e-14
  70
    32
  0
VERTEX
  8
0
  5
23D6C
 10
-18.3703
 20
299.498
 30
-6.53296e-14
  70
    32
  0
VERTEX
  8
0
  5
23D6D
 10
-20.0287
 20
299.403
 30
-6.53105e-14
  70
    32
  0
VERTEX
  8
0
  5
23D6E
 10
-21.6841
 20
299.300
 30
-6.52899e-14
  70
    32
  0
VERTEX
  8
0
  5
23D6F
 10
-23.3363
 20
299.188
 30
-6.52675e-14
  70
    32
  0
VERTEX
  8
0
  5
23D70
 10
-24.9849
 20
299.068
 30
-6.52436e-14
  70
    32
  0
VERTEX
  8
0
  5
23D71
 10
-26.6298
 20
298.940
 30
-6.52180e-14
  70
    32
  0
VERTEX
  8
0
  5
23D72
 10
-28.2707
 20
298.804
 30
-6.51908e-14
  70
    32
  0
VERTEX
  8
0
  5
23D73
 10
-29.9073
 20
298.660
 30
-6.51619e-14
  70
    32
  0
VERTEX
  8
0
  5
23D74
 10
-31.5394
 20
298.508
 30
-6.51314e-14
  70
    32
  0
VERTEX
  8
0
  5
23D75
 10
-33.1668
 20
298.347
 30
-6.50994e-14
  70
    32
  0
VERTEX
  8
0
  5
23D76
 10
-34.7892
 20
298.179
 30
-6.50657e-14
  70
    32
  0
VERTEX
  8
0
  5
23D77
 10
-36.4063
 20
298.002
 30
-6.50304e-14
  70
    32
  0
VERTEX
  8
0
  5
23D78
 10
-38.0179
 20
297.818
 30
-6.49935e-14
  70
    32
  0
VERTEX
  8
0
  5
23D79
 10
-39.6239
 20
297.625
 30
-6.49550e-14
  70
    32
  0
VERTEX
  8
0
  5
23D7A
 10
-41.2238
 20
297.425
 30
-6.49149e-14
  70
    32
  0
VERTEX
  8
0
  5
23D7B
 10
-42.8176
 20
297.217
 30
-6.48732e-14
  70
    32
  0
VERTEX
  8
0
  5
23D7C
 10
-44.4049
 20
297.000
 30
-6.48300e-14
  70
    32
  0
VERTEX
  8
0
  5
23D7D
 10
-45.9855
 20
296.776
 30
-6.47852e-14
  70
    32
  0
VERTEX
  8
0
  5
23D7E
 10
-47.5591
 20
296.544
 30
-6.47388e-14
  70
    32
  0
VERTEX
  8
0
  5
23D7F
 10
-49.1257
 20
296.305
 30
-6.46908e-14
  70
    32
  0
VERTEX
  8
0
  5
23D80
 10
-50.6848
 20
296.057
 30
-6.46413e-14
  70
    32
  0
VERTEX
  8
0
  5
23D81
 10
-52.2363
 20
295.802
 30
-6.45903e-14
  70
    32
  0
VERTEX
  8
0
  5
23D82
 10
-53.7799
 20
295.539
 30
-6.45377e-14
  70
    32
  0
VERTEX
  8
0
  5
23D83
 10
-55.3154
 20
295.269
 30
-6.44837e-14
  70
    32
  0
VERTEX
  8
0
  5
23D84
 10
-56.8426
 20
294.991
 30
-6.44280e-14
  70
    32
  0
VERTEX
  8
0
  5
23D85
 10
-58.3613
 20
294.705
 30
-6.43709e-14
  70
    32
  0
VERTEX
  8
0
  5
23D86
 10
-59.8711
 20
294.412
 30
-6.43123e-14
  70
    32
  0
VERTEX
  8
0
  5
23D87
 10
-61.3719
 20
294.111
 30
-6.42522e-14
  70
    32
  0
VERTEX
  8
0
  5
23D88
 10
-62.8635
 20
293.803
 30
-6.41906e-14
  70
    32
  0
VERTEX
  8
0
  5
23D89
 10
-64.3457
 20
293.488
 30
-6.41275e-14
  70
    32
  0
VERTEX
  8
0
  5
23D8A
 10
-65.8181
 20
293.165
 30
-6.40630e-14
  70
    32
  0
VERTEX
  8
0
  5
23D8B
 10
-67.2806
 20
292.835
 30
-6.39970e-14
  70
    32
  0
VERTEX
  8
0
  5
23D8C
 10
-68.7330
 20
292.498
 30
-6.39295e-14
  70
    32
  0
VERTEX
  8
0
  5
23D8D
 10
-70.1750
 20
292.154
 30
-6.38607e-14
  70
    32
  0
VERTEX
  8
0
  5
23D8E
 10
-71.6065
 20
291.802
 30
-6.37904e-14
  70
    32
  0
VERTEX
  8
0
  5
23D8F
 10
-73.0272
 20
291.444
 30
-6.37187e-14
  70
    32
  0
VERTEX
  8
0
  5
23D90
 10
-74.4369
 20
291.078
 30
-6.36455e-14
  70
    32
  0
VERTEX
  8
0
  5
23D91
 10
-75.8353
 20
290.706
 30
-6.35710e-14
  70
    32
  0
VERTEX
  8
0
  5
23D92
 10
-77.2224
 20
290.326
 30
-6.34952e-14
  70
    32
  0
VERTEX
  8
0
  5
23D93
 10
-78.5978
 20
289.940
 30
-6.34179e-14
  70
    32
  0
VERTEX
  8
0
  5
23D94
 10
-79.9614
 20
289.547
 30
-6.33393e-14
  70
    32
  0
VERTEX
  8
0
  5
23D95
 10
-81.3130
 20
289.147
 30
-6.32593e-14
  70
    32
  0
VERTEX
  8
0
  5
23D96
 10
-82.6523
 20
288.740
 30
-6.31780e-14
  70
    32
  0
VERTEX
  8
0
  5
23D97
 10
-83.9791
 20
288.327
 30
-6.30954e-14
  70
    32
  0
VERTEX
  8
0
  5
23D98
 10
-85.2933
 20
287.908
 30
-6.30115e-14
  70
    32
  0
VERTEX
  8
0
  5
23D99
 10
-86.5947
 20
287.482
 30
-6.29262e-14
  70
    32
  0
VERTEX
  8
0
  5
23D9A
 10
-87.8830
 20
287.049
 30
-6.28397e-14
  70
    32
  0
VERTEX
  8
0
  5
23D9B
 10
-89.1581
 20
286.610
 30
-6.27519e-14
  70
    32
  0
VERTEX
  8
0
  5
23D9C
 10
-90.4198
 20
286.165
 30
-6.26629e-14
  70
    32
  0
VERTEX
  8
0
  5
23D9D
 10
-91.6678
 20
285.714
 30
-6.25726e-14
  70
    32
  0
VERTEX
  8
0
  5
23D9E
 10
-92.9020
 20
285.256
 30
-6.24811e-14
  70
    32
  0
VERTEX
  8
0
  5
23D9F
 10
-94.1223
 20
284.792
 30
-6.23884e-14
  70
    32
  0
VERTEX
  8
0
  5
23DA0
 10
-95.3284
 20
284.323
 30
-6.22945e-14
  70
    32
  0
VERTEX
  8
0
  5
23DA1
 10
-96.5201
 20
283.847
 30
-6.21993e-14
  70
    32
  0
VERTEX
  8
0
  5
23DA2
 10
-97.6973
 20
283.366
 30
-6.21030e-14
  70
    32
  0
VERTEX
  8
0
  5
23DA3
 10
-98.8597
 20
282.878
 30
-6.20056e-14
  70
    32
  0
VERTEX
  8
0
  5
23DA4
 10
-100.007
 20
282.385
 30
-6.19070e-14
  70
    32
  0
VERTEX
  8
0
  5
23DA5
 10
-101.140
 20
281.887
 30
-6.18072e-14
  70
    32
  0
VERTEX
  8
0
  5
23DA6
 10
-102.257
 20
281.382
 30
-6.17064e-14
  70
    32
  0
VERTEX
  8
0
  5
23DA7
 10
-103.359
 20
280.873
 30
-6.16044e-14
  70
    32
  0
VERTEX
  8
0
  5
23DA8
 10
-104.445
 20
280.357
 30
-6.15014e-14
  70
    32
  0
VERTEX
  8
0
  5
23DA9
 10
-105.516
 20
279.837
 30
-6.13973e-14
  70
    32
  0
VERTEX
  8
0
  5
23DAA
 10
-106.571
 20
279.311
 30
-6.12921e-14
  70
    32
  0
VERTEX
  8
0
  5
23DAB
 10
-107.609
 20
278.780
 30
-6.11860e-14
  70
    32
  0
VERTEX
  8
0
  5
23DAC
 10
-108.632
 20
278.244
 30
-6.10787e-14
  70
    32
  0
VERTEX
  8
0
  5
23DAD
 10
-109.638
 20
277.703
 30
-6.09705e-14
  70
    32
  0
VERTEX
  8
0
  5
23DAE
 10
-110.627
 20
277.157
 30
-6.08613e-14
  70
    32
  0
VERTEX
  8
0
  5
23DAF
 10
-111.600
 20
276.606
 30
-6.07511e-14
  70
    32
  0
VERTEX
  8
0
  5
23DB0
 10
-112.556
 20
276.050
 30
-6.06400e-14
  70
    32
  0
VERTEX
  8
0
  5
23DB1
 10
-113.496
 20
275.490
 30
-6.05279e-14
  70
    32
  0
VERTEX
  8
0
  5
23DB2
 10
-114.418
 20
274.925
 30
-6.04149e-14
  70
    32
  0
VERTEX
  8
0
  5
23DB3
 10
-115.323
 20
274.355
 30
-6.03010e-14
  70
    32
  0
VERTEX
  8
0
  5
23DB4
 10
-116.210
 20
273.781
 30
-6.01862e-14
  70
    32
  0
VERTEX
  8
0
  5
23DB5
 10
-117.080
 20
273.203
 30
-6.00705e-14
  70
    32
  0
VERTEX
  8
0
  5
23DB6
 10
-117.932
 20
272.620
 30
-5.99540e-14
  70
    32
  0
VERTEX
  8
0
  5
23DB7
 10
-118.767
 20
272.034
 30
-5.98366e-14
  70
    32
  0
VERTEX
  8
0
  5
23DB8
 10
-119.584
 20
271.443
 30
-5.97184e-14
  70
    32
  0
VERTEX
  8
0
  5
23DB9
 10
-120.382
 20
270.848
 30
-5.95995e-14
  70
    32
  0
VERTEX
  8
0
  5
23DBA
 10
-121.163
 20
270.249
 30
-5.94797e-14
  70
    32
  0
VERTEX
  8
0
  5
23DBB
 10
-121.925
 20
269.646
 30
-5.93592e-14
  70
    32
  0
VERTEX
  8
0
  5
23DBC
 10
-122.669
 20
269.040
 30
-5.92379e-14
  70
    32
  0
VERTEX
  8
0
  5
23DBD
 10
-123.395
 20
268.430
 30
-5.91159e-14
  70
    32
  0
VERTEX
  8
0
  5
23DBE
 10
-124.101
 20
267.816
 30
-5.89932e-14
  70
    32
  0
VERTEX
  8
0
  5
23DBF
 10
-124.790
 20
267.199
 30
-5.88698e-14
  70
    32
  0
VERTEX
  8
0
  5
23DC0
 10
-125.459
 20
266.579
 30
-5.87457e-14
  70
    32
  0
VERTEX
  8
0
  5
23DC1
 10
-126.110
 20
265.955
 30
-5.86210e-14
  70
    32
  0
VERTEX
  8
0
  5
23DC2
 10
-126.741
 20
265.328
 30
-5.84956e-14
  70
    32
  0
VERTEX
  8
0
  5
23DC3
 10
-127.354
 20
264.698
 30
-5.83696e-14
  70
    32
  0
VERTEX
  8
0
  5
23DC4
 10
-127.947
 20
264.066
 30
-5.82430e-14
  70
    32
  0
VERTEX
  8
0
  5
23DC5
 10
-128.521
 20
263.430
 30
-5.81159e-14
  70
    32
  0
VERTEX
  8
0
  5
23DC6
 10
-129.075
 20
262.791
 30
-5.79881e-14
  70
    32
  0
VERTEX
  8
0
  5
23DC7
 10
-129.611
 20
262.150
 30
-5.78599e-14
  70
    32
  0
VERTEX
  8
0
  5
23DC8
 10
-130.126
 20
261.506
 30
-5.77311e-14
  70
    32
  0
VERTEX
  8
0
  5
23DC9
 10
-130.622
 20
260.859
 30
-5.76018e-14
  70
    32
  0
VERTEX
  8
0
  5
23DCA
 10
-131.099
 20
260.211
 30
-5.74720e-14
  70
    32
  0
VERTEX
  8
0
  5
23DCB
 10
-131.555
 20
259.560
 30
-5.73418e-14
  70
    32
  0
VERTEX
  8
0
  5
23DCC
 10
-131.992
 20
258.906
 30
-5.72111e-14
  70
    32
  0
VERTEX
  8
0
  5
23DCD
 10
-132.409
 20
258.251
 30
-5.70801e-14
  70
    32
  0
VERTEX
  8
0
  5
23DCE
 10
-132.806
 20
257.593
 30
-5.69486e-14
  70
    32
  0
VERTEX
  8
0
  5
23DCF
 10
-133.183
 20
256.934
 30
-5.68167e-14
  70
    32
  0
VERTEX
  8
0
  5
23DD0
 10
-133.540
 20
256.273
 30
-5.66844e-14
  70
    32
  0
VERTEX
  8
0
  5
23DD1
 10
-133.877
 20
255.610
 30
-5.65518e-14
  70
    32
  0
VERTEX
  8
0
  5
23DD2
 10
-134.194
 20
254.945
 30
-5.64189e-14
  70
    32
  0
VERTEX
  8
0
  5
23DD3
 10
-134.490
 20
254.279
 30
-5.62857e-14
  70
    32
  0
VERTEX
  8
0
  5
23DD4
 10
-134.767
 20
253.611
 30
-5.61522e-14
  70
    32
  0
VERTEX
  8
0
  5
23DD5
 10
-135.023
 20
252.943
 30
-5.60184e-14
  70
    32
  0
VERTEX
  8
0
  5
23DD6
 10
-135.258
 20
252.272
 30
-5.58844e-14
  70
    32
  0
VERTEX
  8
0
  5
23DD7
 10
-135.473
 20
251.601
 30
-5.57502e-14
  70
    32
  0
VERTEX
  8
0
  5
23DD8
 10
-135.668
 20
250.929
 30
-5.56157e-14
  70
    32
  0
VERTEX
  8
0
  5
23DD9
 10
-135.843
 20
250.256
 30
-5.54811e-14
  70
    32
  0
VERTEX
  8
0
  5
23DDA
 10
-135.997
 20
249.582
 30
-5.53463e-14
  70
    32
  0
VERTEX
  8
0
  5
23DDB
 10
-136.130
 20
248.907
 30
-5.52114e-14
  70
    32
  0
VERTEX
  8
0
  5
23DDC
 10
-136.243
 20
248.232
 30
-5.50764e-14
  70
    32
  0
VERTEX
  8
0
  5
23DDD
 10
-136.336
 20
247.556
 30
-5.49412e-14
  70
    32
  0
VERTEX
  8
0
  5
23DDE
 10
-136.408
 20
246.880
 30
-5.48060e-14
  70
    32
  0
VERTEX
  8
0
  5
23DDF
 10
-136.459
 20
246.204
 30
-5.46707e-14
  70
    32
  0
VERTEX
  8
0
  5
23DE0
 10
-136.490
 20
245.527
 30
-5.45354e-14
  70
    32
  0
VERTEX
  8
0
  5
23DE1
 10
-136.500
 20
244.850
 30
-5.44000e-14
  70
    32
  0
SEQEND
  8
0
  5
23DE2
  0
POLYLINE
  5
231C4
  8
0
  6
VERDECKT
 62
     1
 10
136.5
 20
244.8504201735011634
 30
-0.0000000000000544
 66
     1
 70
     8
  0
VERTEX
  8
0
  5
23DE3
 10
136.500
 20
244.850
 30
-5.44000e-14
  70
    32
  0
VERTEX
  8
0
  5
23DE4
 10
136.490
 20
245.527
 30
-5.45354e-14
  70
    32
  0
VERTEX
  8
0
  5
23DE5
 10
136.459
 20
246.204
 30
-5.46707e-14
  70
    32
  0
VERTEX
  8
0
  5
23DE6
 10
136.408
 20
246.880
 30
-5.48060e-14
  70
    32
  0
VERTEX
  8
0
  5
23DE7
 10
136.336
 20
247.556
 30
-5.49412e-14
  70
    32
  0
VERTEX
  8
0
  5
23DE8
 10
136.243
 20
248.232
 30
-5.50764e-14
  70
    32
  0
VERTEX
  8
0
  5
23DE9
 10
136.130
 20
248.907
 30
-5.52114e-14
  70
    32
  0
VERTEX
  8
0
  5
23DEA
 10
135.997
 20
249.582
 30
-5.53463e-14
  70
    32
  0
VERTEX
  8
0
  5
23DEB
 10
135.843
 20
250.256
 30
-5.54811e-14
  70
    32
  0
VERTEX
  8
0
  5
23DEC
 10
135.668
 20
250.929
 30
-5.56157e-14
  70
    32
  0
VERTEX
  8
0
  5
23DED
 10
135.473
 20
251.601
 30
-5.57502e-14
  70
    32
  0
VERTEX
  8
0
  5
23DEE
 10
135.258
 20
252.272
 30
-5.58844e-14
  70
    32
  0
VERTEX
  8
0
  5
23DEF
 10
135.023
 20
252.943
 30
-5.60184e-14
  70
    32
  0
VERTEX
  8
0
  5
23DF0
 10
134.767
 20
253.611
 30
-5.61522e-14
  70
    32
  0
VERTEX
  8
0
  5
23DF1
 10
134.490
 20
254.279
 30
-5.62857e-14
  70
    32
  0
VERTEX
  8
0
  5
23DF2
 10
134.194
 20
254.945
 30
-5.64189e-14
  70
    32
  0
VERTEX
  8
0
  5
23DF3
 10
133.877
 20
255.610
 30
-5.65518e-14
  70
    32
  0
VERTEX
  8
0
  5
23DF4
 10
133.540
 20
256.273
 30
-5.66844e-14
  70
    32
  0
VERTEX
  8
0
  5
23DF5
 10
133.183
 20
256.934
 30
-5.68167e-14
  70
    32
  0
VERTEX
  8
0
  5
23DF6
 10
132.806
 20
257.593
 30
-5.69486e-14
  70
    32
  0
VERTEX
  8
0
  5
23DF7
 10
132.409
 20
258.251
 30
-5.70801e-14
  70
    32
  0
VERTEX
  8
0
  5
23DF8
 10
131.992
 20
258.906
 30
-5.72111e-14
  70
    32
  0
VERTEX
  8
0
  5
23DF9
 10
131.555
 20
259.560
 30
-5.73418e-14
  70
    32
  0
VERTEX
  8
0
  5
23DFA
 10
131.099
 20
260.211
 30
-5.74720e-14
  70
    32
  0
VERTEX
  8
0
  5
23DFB
 10
130.622
 20
260.859
 30
-5.76018e-14
  70
    32
  0
VERTEX
  8
0
  5
23DFC
 10
130.126
 20
261.506
 30
-5.77311e-14
  70
    32
  0
VERTEX
  8
0
  5
23DFD
 10
129.611
 20
262.150
 30
-5.78599e-14
  70
    32
  0
VERTEX
  8
0
  5
23DFE
 10
129.075
 20
262.791
 30
-5.79881e-14
  70
    32
  0
VERTEX
  8
0
  5
23DFF
 10
128.521
 20
263.430
 30
-5.81159e-14
  70
    32
  0
VERTEX
  8
0
  5
23E00
 10
127.947
 20
264.066
 30
-5.82430e-14
  70
    32
  0
VERTEX
  8
0
  5
23E01
 10
127.354
 20
264.698
 30
-5.83696e-14
  70
    32
  0
VERTEX
  8
0
  5
23E02
 10
126.741
 20
265.328
 30
-5.84956e-14
  70
    32
  0
VERTEX
  8
0
  5
23E03
 10
126.110
 20
265.955
 30
-5.86210e-14
  70
    32
  0
VERTEX
  8
0
  5
23E04
 10
125.459
 20
266.579
 30
-5.87457e-14
  70
    32
  0
VERTEX
  8
0
  5
23E05
 10
124.790
 20
267.199
 30
-5.88698e-14
  70
    32
  0
VERTEX
  8
0
  5
23E06
 10
124.101
 20
267.816
 30
-5.89932e-14
  70
    32
  0
VERTEX
  8
0
  5
23E07
 10
123.395
 20
268.430
 30
-5.91159e-14
  70
    32
  0
VERTEX
  8
0
  5
23E08
 10
122.669
 20
269.040
 30
-5.92379e-14
  70
    32
  0
VERTEX
  8
0
  5
23E09
 10
121.925
 20
269.646
 30
-5.93592e-14
  70
    32
  0
VERTEX
  8
0
  5
23E0A
 10
121.163
 20
270.249
 30
-5.94797e-14
  70
    32
  0
VERTEX
  8
0
  5
23E0B
 10
120.382
 20
270.848
 30
-5.95995e-14
  70
    32
  0
VERTEX
  8
0
  5
23E0C
 10
119.584
 20
271.443
 30
-5.97184e-14
  70
    32
  0
VERTEX
  8
0
  5
23E0D
 10
118.767
 20
272.034
 30
-5.98366e-14
  70
    32
  0
VERTEX
  8
0
  5
23E0E
 10
117.932
 20
272.620
 30
-5.99540e-14
  70
    32
  0
VERTEX
  8
0
  5
23E0F
 10
117.080
 20
273.203
 30
-6.00705e-14
  70
    32
  0
VERTEX
  8
0
  5
23E10
 10
116.210
 20
273.781
 30
-6.01862e-14
  70
    32
  0
VERTEX
  8
0
  5
23E11
 10
115.323
 20
274.355
 30
-6.03010e-14
  70
    32
  0
VERTEX
  8
0
  5
23E12
 10
114.418
 20
274.925
 30
-6.04149e-14
  70
    32
  0
VERTEX
  8
0
  5
23E13
 10
113.496
 20
275.490
 30
-6.05279e-14
  70
    32
  0
VERTEX
  8
0
  5
23E14
 10
112.556
 20
276.050
 30
-6.06400e-14
  70
    32
  0
VERTEX
  8
0
  5
23E15
 10
111.600
 20
276.606
 30
-6.07511e-14
  70
    32
  0
VERTEX
  8
0
  5
23E16
 10
110.627
 20
277.157
 30
-6.08613e-14
  70
    32
  0
VERTEX
  8
0
  5
23E17
 10
109.638
 20
277.703
 30
-6.09705e-14
  70
    32
  0
VERTEX
  8
0
  5
23E18
 10
108.632
 20
278.244
 30
-6.10787e-14
  70
    32
  0
VERTEX
  8
0
  5
23E19
 10
107.609
 20
278.780
 30
-6.11860e-14
  70
    32
  0
VERTEX
  8
0
  5
23E1A
 10
106.571
 20
279.311
 30
-6.12921e-14
  70
    32
  0
VERTEX
  8
0
  5
23E1B
 10
105.516
 20
279.837
 30
-6.13973e-14
  70
    32
  0
VERTEX
  8
0
  5
23E1C
 10
104.445
 20
280.357
 30
-6.15014e-14
  70
    32
  0
VERTEX
  8
0
  5
23E1D
 10
103.359
 20
280.873
 30
-6.16044e-14
  70
    32
  0
VERTEX
  8
0
  5
23E1E
 10
102.257
 20
281.382
 30
-6.17064e-14
  70
    32
  0
VERTEX
  8
0
  5
23E1F
 10
101.140
 20
281.887
 30
-6.18072e-14
  70
    32
  0
VERTEX
  8
0
  5
23E20
 10
100.007
 20
282.385
 30
-6.19070e-14
  70
    32
  0
VERTEX
  8
0
  5
23E21
 10
98.8597
 20
282.878
 30
-6.20056e-14
  70
    32
  0
VERTEX
  8
0
  5
23E22
 10
97.6973
 20
283.366
 30
-6.21030e-14
  70
    32
  0
VERTEX
  8
0
  5
23E23
 10
96.5201
 20
283.847
 30
-6.21993e-14
  70
    32
  0
VERTEX
  8
0
  5
23E24
 10
95.3284
 20
284.323
 30
-6.22945e-14
  70
    32
  0
VERTEX
  8
0
  5
23E25
 10
94.1223
 20
284.792
 30
-6.23884e-14
  70
    32
  0
VERTEX
  8
0
  5
23E26
 10
92.9020
 20
285.256
 30
-6.24811e-14
  70
    32
  0
VERTEX
  8
0
  5
23E27
 10
91.6678
 20
285.714
 30
-6.25726e-14
  70
    32
  0
VERTEX
  8
0
  5
23E28
 10
90.4198
 20
286.165
 30
-6.26629e-14
  70
    32
  0
VERTEX
  8
0
  5
23E29
 10
89.1581
 20
286.610
 30
-6.27519e-14
  70
    32
  0
VERTEX
  8
0
  5
23E2A
 10
87.8830
 20
287.049
 30
-6.28397e-14
  70
    32
  0
VERTEX
  8
0
  5
23E2B
 10
86.5947
 20
287.482
 30
-6.29262e-14
  70
    32
  0
VERTEX
  8
0
  5
23E2C
 10
85.2933
 20
287.908
 30
-6.30115e-14
  70
    32
  0
VERTEX
  8
0
  5
23E2D
 10
83.9791
 20
288.327
 30
-6.30954e-14
  70
    32
  0
VERTEX
  8
0
  5
23E2E
 10
82.6523
 20
288.740
 30
-6.31780e-14
  70
    32
  0
VERTEX
  8
0
  5
23E2F
 10
81.3130
 20
289.147
 30
-6.32593e-14
  70
    32
  0
VERTEX
  8
0
  5
23E30
 10
79.9614
 20
289.547
 30
-6.33393e-14
  70
    32
  0
VERTEX
  8
0
  5
23E31
 10
78.5978
 20
289.940
 30
-6.34179e-14
  70
    32
  0
VERTEX
  8
0
  5
23E32
 10
77.2224
 20
290.326
 30
-6.34952e-14
  70
    32
  0
VERTEX
  8
0
  5
23E33
 10
75.8353
 20
290.706
 30
-6.35710e-14
  70
    32
  0
VERTEX
  8
0
  5
23E34
 10
74.4369
 20
291.078
 30
-6.36455e-14
  70
    32
  0
VERTEX
  8
0
  5
23E35
 10
73.0272
 20
291.444
 30
-6.37187e-14
  70
    32
  0
VERTEX
  8
0
  5
23E36
 10
71.6065
 20
291.802
 30
-6.37904e-14
  70
    32
  0
VERTEX
  8
0
  5
23E37
 10
70.1750
 20
292.154
 30
-6.38607e-14
  70
    32
  0
VERTEX
  8
0
  5
23E38
 10
68.7330
 20
292.498
 30
-6.39295e-14
  70
    32
  0
VERTEX
  8
0
  5
23E39
 10
67.2806
 20
292.835
 30
-6.39970e-14
  70
    32
  0
VERTEX
  8
0
  5
23E3A
 10
65.8181
 20
293.165
 30
-6.40630e-14
  70
    32
  0
VERTEX
  8
0
  5
23E3B
 10
64.3457
 20
293.488
 30
-6.41275e-14
  70
    32
  0
VERTEX
  8
0
  5
23E3C
 10
62.8635
 20
293.803
 30
-6.41906e-14
  70
    32
  0
VERTEX
  8
0
  5
23E3D
 10
61.3719
 20
294.111
 30
-6.42522e-14
  70
    32
  0
VERTEX
  8
0
  5
23E3E
 10
59.8711
 20
294.412
 30
-6.43123e-14
  70
    32
  0
VERTEX
  8
0
  5
23E3F
 10
58.3613
 20
294.705
 30
-6.43709e-14
  70
    32
  0
VERTEX
  8
0
  5
23E40
 10
56.8426
 20
294.991
 30
-6.44280e-14
  70
    32
  0
VERTEX
  8
0
  5
23E41
 10
55.3154
 20
295.269
 30
-6.44837e-14
  70
    32
  0
VERTEX
  8
0
  5
23E42
 10
53.7799
 20
295.539
 30
-6.45377e-14
  70
    32
  0
VERTEX
  8
0
  5
23E43
 10
52.2363
 20
295.802
 30
-6.45903e-14
  70
    32
  0
VERTEX
  8
0
  5
23E44
 10
50.6848
 20
296.057
 30
-6.46413e-14
  70
    32
  0
VERTEX
  8
0
  5
23E45
 10
49.1257
 20
296.305
 30
-6.46908e-14
  70
    32
  0
VERTEX
  8
0
  5
23E46
 10
47.5591
 20
296.544
 30
-6.47388e-14
  70
    32
  0
VERTEX
  8
0
  5
23E47
 10
45.9855
 20
296.776
 30
-6.47852e-14
  70
    32
  0
VERTEX
  8
0
  5
23E48
 10
44.4049
 20
297.000
 30
-6.48300e-14
  70
    32
  0
VERTEX
  8
0
  5
23E49
 10
42.8176
 20
297.217
 30
-6.48732e-14
  70
    32
  0
VERTEX
  8
0
  5
23E4A
 10
41.2238
 20
297.425
 30
-6.49149e-14
  70
    32
  0
VERTEX
  8
0
  5
23E4B
 10
39.6239
 20
297.625
 30
-6.49550e-14
  70
    32
  0
VERTEX
  8
0
  5
23E4C
 10
38.0179
 20
297.818
 30
-6.49935e-14
  70
    32
  0
VERTEX
  8
0
  5
23E4D
 10
36.4063
 20
298.002
 30
-6.50304e-14
  70
    32
  0
VERTEX
  8
0
  5
23E4E
 10
34.7892
 20
298.179
 30
-6.50657e-14
  70
    32
  0
VERTEX
  8
0
  5
23E4F
 10
33.1668
 20
298.347
 30
-6.50994e-14
  70
    32
  0
VERTEX
  8
0
  5
23E50
 10
31.5394
 20
298.508
 30
-6.51314e-14
  70
    32
  0
VERTEX
  8
0
  5
23E51
 10
29.9073
 20
298.660
 30
-6.51619e-14
  70
    32
  0
VERTEX
  8
0
  5
23E52
 10
28.2707
 20
298.804
 30
-6.51908e-14
  70
    32
  0
VERTEX
  8
0
  5
23E53
 10
26.6298
 20
298.940
 30
-6.52180e-14
  70
    32
  0
VERTEX
  8
0
  5
23E54
 10
24.9849
 20
299.068
 30
-6.52436e-14
  70
    32
  0
VERTEX
  8
0
  5
23E55
 10
23.3363
 20
299.188
 30
-6.52675e-14
  70
    32
  0
VERTEX
  8
0
  5
23E56
 10
21.6841
 20
299.300
 30
-6.52899e-14
  70
    32
  0
VERTEX
  8
0
  5
23E57
 10
20.0287
 20
299.403
 30
-6.53105e-14
  70
    32
  0
VERTEX
  8
0
  5
23E58
 10
18.3703
 20
299.498
 30
-6.53296e-14
  70
    32
  0
VERTEX
  8
0
  5
23E59
 10
16.7091
 20
299.585
 30
-6.53470e-14
  70
    32
  0
VERTEX
  8
0
  5
23E5A
 10
15.0453
 20
299.664
 30
-6.53627e-14
  70
    32
  0
VERTEX
  8
0
  5
23E5B
 10
13.3793
 20
299.734
 30
-6.53768e-14
  70
    32
  0
VERTEX
  8
0
  5
23E5C
 10
11.7113
 20
299.797
 30
-6.53892e-14
  70
    32
  0
VERTEX
  8
0
  5
23E5D
 10
10.0416
 20
299.851
 30
-6.54000e-14
  70
    32
  0
VERTEX
  8
0
  5
23E5E
 10
8.37028
 20
299.896
 30
-6.54092e-14
  70
    32
  0
VERTEX
  8
0
  5
23E5F
 10
6.69774
 20
299.934
 30
-6.54166e-14
  70
    32
  0
VERTEX
  8
0
  5
23E60
 10
5.02419
 20
299.963
 30
-6.54224e-14
  70
    32
  0
VERTEX
  8
0
  5
23E61
 10
3.34988
 20
299.983
 30
-6.54266e-14
  70
    32
  0
VERTEX
  8
0
  5
23E62
 10
1.67506
 20
299.996
 30
-6.54291e-14
  70
    32
  0
VERTEX
  8
0
  5
23E63
 10
1.06316e-13
 20
300.000
 30
-6.54299e-14
  70
    32
  0
SEQEND
  8
0
  5
23E64
  0
POLYLINE
  5
231C5
  8
0
  6
VERDECKT
 62
     1
 10
0.00000000000013
 20
487.2435455331063849
 30
-0.0000000000001052
 66
     1
 70
     8
  0
VERTEX
  8
0
  5
23E65
 10
1.30022e-13
 20
487.244
 30
-1.05198e-13
  70
    32
  0
VERTEX
  8
0
  5
23E66
 10
1.67506
 20
487.233
 30
-1.05196e-13
  70
    32
  0
VERTEX
  8
0
  5
23E67
 10
3.34988
 20
487.203
 30
-1.05190e-13
  70
    32
  0
VERTEX
  8
0
  5
23E68
 10
5.02419
 20
487.152
 30
-1.05180e-13
  70
    32
  0
VERTEX
  8
0
  5
23E69
 10
6.69774
 20
487.082
 30
-1.05166e-13
  70
    32
  0
VERTEX
  8
0
  5
23E6A
 10
8.37028
 20
486.990
 30
-1.05148e-13
  70
    32
  0
VERTEX
  8
0
  5
23E6B
 10
10.0416
 20
486.879
 30
-1.05126e-13
  70
    32
  0
VERTEX
  8
0
  5
23E6C
 10
11.7113
 20
486.748
 30
-1.05099e-13
  70
    32
  0
VERTEX
  8
0
  5
23E6D
 10
13.3793
 20
486.596
 30
-1.05069e-13
  70
    32
  0
VERTEX
  8
0
  5
23E6E
 10
15.0453
 20
486.424
 30
-1.05035e-13
  70
    32
  0
VERTEX
  8
0
  5
23E6F
 10
16.7091
 20
486.232
 30
-1.04996e-13
  70
    32
  0
VERTEX
  8
0
  5
23E70
 10
18.3703
 20
486.020
 30
-1.04954e-13
  70
    32
  0
VERTEX
  8
0
  5
23E71
 10
20.0287
 20
485.788
 30
-1.04907e-13
  70
    32
  0
VERTEX
  8
0
  5
23E72
 10
21.6841
 20
485.536
 30
-1.04857e-13
  70
    32
  0
VERTEX
  8
0
  5
23E73
 10
23.3363
 20
485.264
 30
-1.04802e-13
  70
    32
  0
VERTEX
  8
0
  5
23E74
 10
24.9849
 20
484.971
 30
-1.04744e-13
  70
    32
  0
VERTEX
  8
0
  5
23E75
 10
26.6298
 20
484.659
 30
-1.04682e-13
  70
    32
  0
VERTEX
  8
0
  5
23E76
 10
28.2707
 20
484.327
 30
-1.04615e-13
  70
    32
  0
VERTEX
  8
0
  5
23E77
 10
29.9073
 20
483.976
 30
-1.04545e-13
  70
    32
  0
VERTEX
  8
0
  5
23E78
 10
31.5394
 20
483.604
 30
-1.04471e-13
  70
    32
  0
VERTEX
  8
0
  5
23E79
 10
33.1668
 20
483.213
 30
-1.04392e-13
  70
    32
  0
VERTEX
  8
0
  5
23E7A
 10
34.7892
 20
482.802
 30
-1.04310e-13
  70
    32
  0
VERTEX
  8
0
  5
23E7B
 10
36.4063
 20
482.372
 30
-1.04224e-13
  70
    32
  0
VERTEX
  8
0
  5
23E7C
 10
38.0179
 20
481.922
 30
-1.04134e-13
  70
    32
  0
VERTEX
  8
0
  5
23E7D
 10
39.6239
 20
481.452
 30
-1.04040e-13
  70
    32
  0
VERTEX
  8
0
  5
23E7E
 10
41.2238
 20
480.964
 30
-1.03942e-13
  70
    32
  0
VERTEX
  8
0
  5
23E7F
 10
42.8176
 20
480.455
 30
-1.03841e-13
  70
    32
  0
VERTEX
  8
0
  5
23E80
 10
44.4049
 20
479.928
 30
-1.03735e-13
  70
    32
  0
VERTEX
  8
0
  5
23E81
 10
45.9855
 20
479.382
 30
-1.03626e-13
  70
    32
  0
VERTEX
  8
0
  5
23E82
 10
47.5591
 20
478.816
 30
-1.03513e-13
  70
    32
  0
VERTEX
  8
0
  5
23E83
 10
49.1257
 20
478.232
 30
-1.03396e-13
  70
    32
  0
VERTEX
  8
0
  5
23E84
 10
50.6848
 20
477.628
 30
-1.03275e-13
  70
    32
  0
VERTEX
  8
0
  5
23E85
 10
52.2363
 20
477.006
 30
-1.03151e-13
  70
    32
  0
VERTEX
  8
0
  5
23E86
 10
53.7799
 20
476.365
 30
-1.03023e-13
  70
    32
  0
VERTEX
  8
0
  5
23E87
 10
55.3154
 20
475.705
 30
-1.02891e-13
  70
    32
  0
VERTEX
  8
0
  5
23E88
 10
56.8426
 20
475.027
 30
-1.02755e-13
  70
    32
  0
VERTEX
  8
0
  5
23E89
 10
58.3613
 20
474.331
 30
-1.02616e-13
  70
    32
  0
VERTEX
  8
0
  5
23E8A
 10
59.8711
 20
473.616
 30
-1.02473e-13
  70
    32
  0
VERTEX
  8
0
  5
23E8B
 10
61.3719
 20
472.883
 30
-1.02326e-13
  70
    32
  0
VERTEX
  8
0
  5
23E8C
 10
62.8635
 20
472.132
 30
-1.02176e-13
  70
    32
  0
VERTEX
  8
0
  5
23E8D
 10
64.3457
 20
471.363
 30
-1.02022e-13
  70
    32
  0
VERTEX
  8
0
  5
23E8E
 10
65.8181
 20
470.576
 30
-1.01865e-13
  70
    32
  0
VERTEX
  8
0
  5
23E8F
 10
67.2806
 20
469.771
 30
-1.01704e-13
  70
    32
  0
VERTEX
  8
0
  5
23E90
 10
68.7330
 20
468.949
 30
-1.01540e-13
  70
    32
  0
VERTEX
  8
0
  5
23E91
 10
70.1750
 20
468.109
 30
-1.01372e-13
  70
    32
  0
VERTEX
  8
0
  5
23E92
 10
71.6065
 20
467.252
 30
-1.01200e-13
  70
    32
  0
VERTEX
  8
0
  5
23E93
 10
73.0272
 20
466.378
 30
-1.01025e-13
  70
    32
  0
VERTEX
  8
0
  5
23E94
 10
74.4369
 20
465.486
 30
-1.00847e-13
  70
    32
  0
VERTEX
  8
0
  5
23E95
 10
75.8353
 20
464.578
 30
-1.00665e-13
  70
    32
  0
VERTEX
  8
0
  5
23E96
 10
77.2224
 20
463.652
 30
-1.00480e-13
  70
    32
  0
VERTEX
  8
0
  5
23E97
 10
78.5978
 20
462.710
 30
-1.00292e-13
  70
    32
  0
VERTEX
  8
0
  5
23E98
 10
79.9614
 20
461.752
 30
-1.00100e-13
  70
    32
  0
VERTEX
  8
0
  5
23E99
 10
81.3130
 20
460.777
 30
-9.99050e-14
  70
    32
  0
VERTEX
  8
0
  5
23E9A
 10
82.6523
 20
459.785
 30
-9.97068e-14
  70
    32
  0
VERTEX
  8
0
  5
23E9B
 10
83.9791
 20
458.778
 30
-9.95053e-14
  70
    32
  0
VERTEX
  8
0
  5
23E9C
 10
85.2933
 20
457.754
 30
-9.93006e-14
  70
    32
  0
VERTEX
  8
0
  5
23E9D
 10
86.5947
 20
456.715
 30
-9.90928e-14
  70
    32
  0
VERTEX
  8
0
  5
23E9E
 10
87.8830
 20
455.660
 30
-9.88818e-14
  70
    32
  0
VERTEX
  8
0
  5
23E9F
 10
89.1581
 20
454.590
 30
-9.86677e-14
  70
    32
  0
VERTEX
  8
0
  5
23EA0
 10
90.4198
 20
453.504
 30
-9.84506e-14
  70
    32
  0
VERTEX
  8
0
  5
23EA1
 10
91.6678
 20
452.404
 30
-9.82304e-14
  70
    32
  0
VERTEX
  8
0
  5
23EA2
 10
92.9020
 20
451.288
 30
-9.80073e-14
  70
    32
  0
VERTEX
  8
0
  5
23EA3
 10
94.1223
 20
450.157
 30
-9.77811e-14
  70
    32
  0
VERTEX
  8
0
  5
23EA4
 10
95.3284
 20
449.012
 30
-9.75520e-14
  70
    32
  0
VERTEX
  8
0
  5
23EA5
 10
96.5201
 20
447.852
 30
-9.73201e-14
  70
    32
  0
VERTEX
  8
0
  5
23EA6
 10
97.6973
 20
446.678
 30
-9.70852e-14
  70
    32
  0
VERTEX
  8
0
  5
23EA7
 10
98.8597
 20
445.489
 30
-9.68476e-14
  70
    32
  0
VERTEX
  8
0
  5
23EA8
 10
100.007
 20
444.287
 30
-9.66071e-14
  70
    32
  0
VERTEX
  8
0
  5
23EA9
 10
101.140
 20
443.071
 30
-9.63639e-14
  70
    32
  0
VERTEX
  8
0
  5
23EAA
 10
102.257
 20
441.841
 30
-9.61179e-14
  70
    32
  0
VERTEX
  8
0
  5
23EAB
 10
103.359
 20
440.598
 30
-9.58693e-14
  70
    32
  0
VERTEX
  8
0
  5
23EAC
 10
104.445
 20
439.342
 30
-9.56181e-14
  70
    32
  0
VERTEX
  8
0
  5
23EAD
 10
105.516
 20
438.072
 30
-9.53642e-14
  70
    32
  0
VERTEX
  8
0
  5
23EAE
 10
106.571
 20
436.790
 30
-9.51077e-14
  70
    32
  0
VERTEX
  8
0
  5
23EAF
 10
107.609
 20
435.495
 30
-9.48488e-14
  70
    32
  0
VERTEX
  8
0
  5
23EB0
 10
108.632
 20
434.188
 30
-9.45873e-14
  70
    32
  0
VERTEX
  8
0
  5
23EB1
 10
109.638
 20
432.868
 30
-9.43234e-14
  70
    32
  0
VERTEX
  8
0
  5
23EB2
 10
110.627
 20
431.537
 30
-9.40570e-14
  70
    32
  0
VERTEX
  8
0
  5
23EB3
 10
111.600
 20
430.193
 30
-9.37883e-14
  70
    32
  0
VERTEX
  8
0
  5
23EB4
 10
112.556
 20
428.838
 30
-9.35173e-14
  70
    32
  0
VERTEX
  8
0
  5
23EB5
 10
113.496
 20
427.471
 30
-9.32440e-14
  70
    32
  0
VERTEX
  8
0
  5
23EB6
 10
114.418
 20
426.093
 30
-9.29684e-14
  70
    32
  0
VERTEX
  8
0
  5
23EB7
 10
115.323
 20
424.704
 30
-9.26906e-14
  70
    32
  0
VERTEX
  8
0
  5
23EB8
 10
116.210
 20
423.305
 30
-9.24106e-14
  70
    32
  0
VERTEX
  8
0
  5
23EB9
 10
117.080
 20
421.894
 30
-9.21286e-14
  70
    32
  0
VERTEX
  8
0
  5
23EBA
 10
117.932
 20
420.473
 30
-9.18444e-14
  70
    32
  0
VERTEX
  8
0
  5
23EBB
 10
118.767
 20
419.042
 30
-9.15582e-14
  70
    32
  0
VERTEX
  8
0
  5
23EBC
 10
119.584
 20
417.601
 30
-9.12700e-14
  70
    32
  0
VERTEX
  8
0
  5
23EBD
 10
120.382
 20
416.151
 30
-9.09798e-14
  70
    32
  0
VERTEX
  8
0
  5
23EBE
 10
121.163
 20
414.690
 30
-9.06878e-14
  70
    32
  0
VERTEX
  8
0
  5
23EBF
 10
121.925
 20
413.221
 30
-9.03938e-14
  70
    32
  0
VERTEX
  8
0
  5
23EC0
 10
122.669
 20
411.742
 30
-9.00981e-14
  70
    32
  0
VERTEX
  8
0
  5
23EC1
 10
123.395
 20
410.254
 30
-8.98006e-14
  70
    32
  0
VERTEX
  8
0
  5
23EC2
 10
124.101
 20
408.758
 30
-8.95013e-14
  70
    32
  0
VERTEX
  8
0
  5
23EC3
 10
124.790
 20
407.253
 30
-8.92004e-14
  70
    32
  0
VERTEX
  8
0
  5
23EC4
 10
125.459
 20
405.740
 30
-8.88978e-14
  70
    32
  0
VERTEX
  8
0
  5
23EC5
 10
126.110
 20
404.219
 30
-8.85936e-14
  70
    32
  0
VERTEX
  8
0
  5
23EC6
 10
126.741
 20
402.691
 30
-8.82878e-14
  70
    32
  0
VERTEX
  8
0
  5
23EC7
 10
127.354
 20
401.154
 30
-8.79806e-14
  70
    32
  0
VERTEX
  8
0
  5
23EC8
 10
127.947
 20
399.611
 30
-8.76719e-14
  70
    32
  0
VERTEX
  8
0
  5
23EC9
 10
128.521
 20
398.060
 30
-8.73618e-14
  70
    32
  0
VERTEX
  8
0
  5
23ECA
 10
129.075
 20
396.503
 30
-8.70503e-14
  70
    32
  0
VERTEX
  8
0
  5
23ECB
 10
129.611
 20
394.939
 30
-8.67375e-14
  70
    32
  0
VERTEX
  8
0
  5
23ECC
 10
130.126
 20
393.369
 30
-8.64235e-14
  70
    32
  0
VERTEX
  8
0
  5
23ECD
 10
130.622
 20
391.792
 30
-8.61082e-14
  70
    32
  0
VERTEX
  8
0
  5
23ECE
 10
131.099
 20
390.210
 30
-8.57917e-14
  70
    32
  0
VERTEX
  8
0
  5
23ECF
 10
131.555
 20
388.622
 30
-8.54742e-14
  70
    32
  0
VERTEX
  8
0
  5
23ED0
 10
131.992
 20
387.029
 30
-8.51555e-14
  70
    32
  0
VERTEX
  8
0
  5
23ED1
 10
132.409
 20
385.430
 30
-8.48358e-14
  70
    32
  0
VERTEX
  8
0
  5
23ED2
 10
132.806
 20
383.827
 30
-8.45151e-14
  70
    32
  0
VERTEX
  8
0
  5
23ED3
 10
133.183
 20
382.219
 30
-8.41935e-14
  70
    32
  0
VERTEX
  8
0
  5
23ED4
 10
133.540
 20
380.606
 30
-8.38710e-14
  70
    32
  0
VERTEX
  8
0
  5
23ED5
 10
133.877
 20
378.990
 30
-8.35476e-14
  70
    32
  0
VERTEX
  8
0
  5
23ED6
 10
134.194
 20
377.369
 30
-8.32235e-14
  70
    32
  0
VERTEX
  8
0
  5
23ED7
 10
134.490
 20
375.744
 30
-8.28986e-14
  70
    32
  0
VERTEX
  8
0
  5
23ED8
 10
134.767
 20
374.117
 30
-8.25730e-14
  70
    32
  0
VERTEX
  8
0
  5
23ED9
 10
135.023
 20
372.485
 30
-8.22468e-14
  70
    32
  0
VERTEX
  8
0
  5
23EDA
 10
135.258
 20
370.851
 30
-8.19200e-14
  70
    32
  0
VERTEX
  8
0
  5
23EDB
 10
135.473
 20
369.215
 30
-8.15927e-14
  70
    32
  0
VERTEX
  8
0
  5
23EDC
 10
135.668
 20
367.575
 30
-8.12648e-14
  70
    32
  0
VERTEX
  8
0
  5
23EDD
 10
135.843
 20
365.934
 30
-8.09365e-14
  70
    32
  0
VERTEX
  8
0
  5
23EDE
 10
135.997
 20
364.290
 30
-8.06078e-14
  70
    32
  0
VERTEX
  8
0
  5
23EDF
 10
136.130
 20
362.645
 30
-8.02788e-14
  70
    32
  0
VERTEX
  8
0
  5
23EE0
 10
136.243
 20
360.999
 30
-7.99494e-14
  70
    32
  0
VERTEX
  8
0
  5
23EE1
 10
136.336
 20
359.351
 30
-7.96198e-14
  70
    32
  0
VERTEX
  8
0
  5
23EE2
 10
136.408
 20
357.702
 30
-7.92901e-14
  70
    32
  0
VERTEX
  8
0
  5
23EE3
 10
136.459
 20
356.052
 30
-7.89601e-14
  70
    32
  0
VERTEX
  8
0
  5
23EE4
 10
136.490
 20
354.402
 30
-7.86301e-14
  70
    32
  0
VERTEX
  8
0
  5
23EE5
 10
136.500
 20
352.751
 30
-7.83000e-14
  70
    32
  0
SEQEND
  8
0
  5
23EE6
  0
POLYLINE
  5
231C6
  8
0
  6
VERDECKT
 62
     1
 10
-136.5
 20
352.7513902243068173
 30
-0.0000000000000783
 66
     1
 70
     8
  0
VERTEX
  8
0
  5
23EE7
 10
-136.500
 20
352.751
 30
-7.83000e-14
  70
    32
  0
VERTEX
  8
0
  5
23EE8
 10
-136.490
 20
354.402
 30
-7.86301e-14
  70
    32
  0
VERTEX
  8
0
  5
23EE9
 10
-136.459
 20
356.052
 30
-7.89601e-14
  70
    32
  0
VERTEX
  8
0
  5
23EEA
 10
-136.408
 20
357.702
 30
-7.92901e-14
  70
    32
  0
VERTEX
  8
0
  5
23EEB
 10
-136.336
 20
359.351
 30
-7.96198e-14
  70
    32
  0
VERTEX
  8
0
  5
23EEC
 10
-136.243
 20
360.999
 30
-7.99494e-14
  70
    32
  0
VERTEX
  8
0
  5
23EED
 10
-136.130
 20
362.645
 30
-8.02788e-14
  70
    32
  0
VERTEX
  8
0
  5
23EEE
 10
-135.997
 20
364.290
 30
-8.06078e-14
  70
    32
  0
VERTEX
  8
0
  5
23EEF
 10
-135.843
 20
365.934
 30
-8.09365e-14
  70
    32
  0
VERTEX
  8
0
  5
23EF0
 10
-135.668
 20
367.575
 30
-8.12648e-14
  70
    32
  0
VERTEX
  8
0
  5
23EF1
 10
-135.473
 20
369.215
 30
-8.15927e-14
  70
    32
  0
VERTEX
  8
0
  5
23EF2
 10
-135.258
 20
370.851
 30
-8.19200e-14
  70
    32
  0
VERTEX
  8
0
  5
23EF3
 10
-135.023
 20
372.485
 30
-8.22468e-14
  70
    32
  0
VERTEX
  8
0
  5
23EF4
 10
-134.767
 20
374.117
 30
-8.25730e-14
  70
    32
  0
VERTEX
  8
0
  5
23EF5
 10
-134.490
 20
375.744
 30
-8.28986e-14
  70
    32
  0
VERTEX
  8
0
  5
23EF6
 10
-134.194
 20
377.369
 30
-8.32235e-14
  70
    32
  0
VERTEX
  8
0
  5
23EF7
 10
-133.877
 20
378.990
 30
-8.35476e-14
  70
    32
  0
VERTEX
  8
0
  5
23EF8
 10
-133.540
 20
380.606
 30
-8.38710e-14
  70
    32
  0
VERTEX
  8
0
  5
23EF9
 10
-133.183
 20
382.219
 30
-8.41935e-14
  70
    32
  0
VERTEX
  8
0
  5
23EFA
 10
-132.806
 20
383.827
 30
-8.45151e-14
  70
    32
  0
VERTEX
  8
0
  5
23EFB
 10
-132.409
 20
385.430
 30
-8.48358e-14
  70
    32
  0
VERTEX
  8
0
  5
23EFC
 10
-131.992
 20
387.029
 30
-8.51555e-14
  70
    32
  0
VERTEX
  8
0
  5
23EFD
 10
-131.555
 20
388.622
 30
-8.54742e-14
  70
    32
  0
VERTEX
  8
0
  5
23EFE
 10
-131.099
 20
390.210
 30
-8.57917e-14
  70
    32
  0
VERTEX
  8
0
  5
23EFF
 10
-130.622
 20
391.792
 30
-8.61082e-14
  70
    32
  0
VERTEX
  8
0
  5
23F00
 10
-130.126
 20
393.369
 30
-8.64235e-14
  70
    32
  0
VERTEX
  8
0
  5
23F01
 10
-129.611
 20
394.939
 30
-8.67375e-14
  70
    32
  0
VERTEX
  8
0
  5
23F02
 10
-129.075
 20
396.503
 30
-8.70503e-14
  70
    32
  0
VERTEX
  8
0
  5
23F03
 10
-128.521
 20
398.060
 30
-8.73618e-14
  70
    32
  0
VERTEX
  8
0
  5
23F04
 10
-127.947
 20
399.611
 30
-8.76719e-14
  70
    32
  0
VERTEX
  8
0
  5
23F05
 10
-127.354
 20
401.154
 30
-8.79806e-14
  70
    32
  0
VERTEX
  8
0
  5
23F06
 10
-126.741
 20
402.691
 30
-8.82878e-14
  70
    32
  0
VERTEX
  8
0
  5
23F07
 10
-126.110
 20
404.219
 30
-8.85936e-14
  70
    32
  0
VERTEX
  8
0
  5
23F08
 10
-125.459
 20
405.740
 30
-8.88978e-14
  70
    32
  0
VERTEX
  8
0
  5
23F09
 10
-124.790
 20
407.253
 30
-8.92004e-14
  70
    32
  0
VERTEX
  8
0
  5
23F0A
 10
-124.101
 20
408.758
 30
-8.95013e-14
  70
    32
  0
VERTEX
  8
0
  5
23F0B
 10
-123.395
 20
410.254
 30
-8.98006e-14
  70
    32
  0
VERTEX
  8
0
  5
23F0C
 10
-122.669
 20
411.742
 30
-9.00981e-14
  70
    32
  0
VERTEX
  8
0
  5
23F0D
 10
-121.925
 20
413.221
 30
-9.03938e-14
  70
    32
  0
VERTEX
  8
0
  5
23F0E
 10
-121.163
 20
414.690
 30
-9.06878e-14
  70
    32
  0
VERTEX
  8
0
  5
23F0F
 10
-120.382
 20
416.151
 30
-9.09798e-14
  70
    32
  0
VERTEX
  8
0
  5
23F10
 10
-119.584
 20
417.601
 30
-9.12700e-14
  70
    32
  0
VERTEX
  8
0
  5
23F11
 10
-118.767
 20
419.042
 30
-9.15582e-14
  70
    32
  0
VERTEX
  8
0
  5
23F12
 10
-117.932
 20
420.473
 30
-9.18444e-14
  70
    32
  0
VERTEX
  8
0
  5
23F13
 10
-117.080
 20
421.894
 30
-9.21286e-14
  70
    32
  0
VERTEX
  8
0
  5
23F14
 10
-116.210
 20
423.305
 30
-9.24106e-14
  70
    32
  0
VERTEX
  8
0
  5
23F15
 10
-115.323
 20
424.704
 30
-9.26906e-14
  70
    32
  0
VERTEX
  8
0
  5
23F16
 10
-114.418
 20
426.093
 30
-9.29684e-14
  70
    32
  0
VERTEX
  8
0
  5
23F17
 10
-113.496
 20
427.471
 30
-9.32440e-14
  70
    32
  0
VERTEX
  8
0
  5
23F18
 10
-112.556
 20
428.838
 30
-9.35173e-14
  70
    32
  0
VERTEX
  8
0
  5
23F19
 10
-111.600
 20
430.193
 30
-9.37883e-14
  70
    32
  0
VERTEX
  8
0
  5
23F1A
 10
-110.627
 20
431.537
 30
-9.40570e-14
  70
    32
  0
VERTEX
  8
0
  5
23F1B
 10
-109.638
 20
432.868
 30
-9.43234e-14
  70
    32
  0
VERTEX
  8
0
  5
23F1C
 10
-108.632
 20
434.188
 30
-9.45873e-14
  70
    32
  0
VERTEX
  8
0
  5
23F1D
 10
-107.609
 20
435.495
 30
-9.48488e-14
  70
    32
  0
VERTEX
  8
0
  5
23F1E
 10
-106.571
 20
436.790
 30
-9.51077e-14
  70
    32
  0
VERTEX
  8
0
  5
23F1F
 10
-105.516
 20
438.072
 30
-9.53642e-14
  70
    32
  0
VERTEX
  8
0
  5
23F20
 10
-104.445
 20
439.342
 30
-9.56181e-14
  70
    32
  0
VERTEX
  8
0
  5
23F21
 10
-103.359
 20
440.598
 30
-9.58693e-14
  70
    32
  0
VERTEX
  8
0
  5
23F22
 10
-102.257
 20
441.841
 30
-9.61179e-14
  70
    32
  0
VERTEX
  8
0
  5
23F23
 10
-101.140
 20
443.071
 30
-9.63639e-14
  70
    32
  0
VERTEX
  8
0
  5
23F24
 10
-100.007
 20
444.287
 30
-9.66071e-14
  70
    32
  0
VERTEX
  8
0
  5
23F25
 10
-98.8597
 20
445.489
 30
-9.68476e-14
  70
    32
  0
VERTEX
  8
0
  5
23F26
 10
-97.6973
 20
446.678
 30
-9.70852e-14
  70
    32
  0
VERTEX
  8
0
  5
23F27
 10
-96.5201
 20
447.852
 30
-9.73201e-14
  70
    32
  0
VERTEX
  8
0
  5
23F28
 10
-95.3284
 20
449.012
 30
-9.75520e-14
  70
    32
  0
VERTEX
  8
0
  5
23F29
 10
-94.1223
 20
450.157
 30
-9.77811e-14
  70
    32
  0
VERTEX
  8
0
  5
23F2A
 10
-92.9020
 20
451.288
 30
-9.80073e-14
  70
    32
  0
VERTEX
  8
0
  5
23F2B
 10
-91.6678
 20
452.404
 30
-9.82304e-14
  70
    32
  0
VERTEX
  8
0
  5
23F2C
 10
-90.4198
 20
453.504
 30
-9.84506e-14
  70
    32
  0
VERTEX
  8
0
  5
23F2D
 10
-89.1581
 20
454.590
 30
-9.86677e-14
  70
    32
  0
VERTEX
  8
0
  5
23F2E
 10
-87.8830
 20
455.660
 30
-9.88818e-14
  70
    32
  0
VERTEX
  8
0
  5
23F2F
 10
-86.5947
 20
456.715
 30
-9.90928e-14
  70
    32
  0
VERTEX
  8
0
  5
23F30
 10
-85.2933
 20
457.754
 30
-9.93006e-14
  70
    32
  0
VERTEX
  8
0
  5
23F31
 10
-83.9791
 20
458.778
 30
-9.95053e-14
  70
    32
  0
VERTEX
  8
0
  5
23F32
 10
-82.6523
 20
459.785
 30
-9.97068e-14
  70
    32
  0
VERTEX
  8
0
  5
23F33
 10
-81.3130
 20
460.777
 30
-9.99050e-14
  70
    32
  0
VERTEX
  8
0
  5
23F34
 10
-79.9614
 20
461.752
 30
-1.00100e-13
  70
    32
  0
VERTEX
  8
0
  5
23F35
 10
-78.5978
 20
462.710
 30
-1.00292e-13
  70
    32
  0
VERTEX
  8
0
  5
23F36
 10
-77.2224
 20
463.652
 30
-1.00480e-13
  70
    32
  0
VERTEX
  8
0
  5
23F37
 10
-75.8353
 20
464.578
 30
-1.00665e-13
  70
    32
  0
VERTEX
  8
0
  5
23F38
 10
-74.4369
 20
465.486
 30
-1.00847e-13
  70
    32
  0
VERTEX
  8
0
  5
23F39
 10
-73.0272
 20
466.378
 30
-1.01025e-13
  70
    32
  0
VERTEX
  8
0
  5
23F3A
 10
-71.6065
 20
467.252
 30
-1.01200e-13
  70
    32
  0
VERTEX
  8
0
  5
23F3B
 10
-70.1750
 20
468.109
 30
-1.01372e-13
  70
    32
  0
VERTEX
  8
0
  5
23F3C
 10
-68.7330
 20
468.949
 30
-1.01540e-13
  70
    32
  0
VERTEX
  8
0
  5
23F3D
 10
-67.2806
 20
469.771
 30
-1.01704e-13
  70
    32
  0
VERTEX
  8
0
  5
23F3E
 10
-65.8181
 20
470.576
 30
-1.01865e-13
  70
    32
  0
VERTEX
  8
0
  5
23F3F
 10
-64.3457
 20
471.363
 30
-1.02022e-13
  70
    32
  0
VERTEX
  8
0
  5
23F40
 10
-62.8635
 20
472.132
 30
-1.02176e-13
  70
    32
  0
VERTEX
  8
0
  5
23F41
 10
-61.3719
 20
472.883
 30
-1.02326e-13
  70
    32
  0
VERTEX
  8
0
  5
23F42
 10
-59.8711
 20
473.616
 30
-1.02473e-13
  70
    32
  0
VERTEX
  8
0
  5
23F43
 10
-58.3613
 20
474.331
 30
-1.02616e-13
  70
    32
  0
VERTEX
  8
0
  5
23F44
 10
-56.8426
 20
475.027
 30
-1.02755e-13
  70
    32
  0
VERTEX
  8
0
  5
23F45
 10
-55.3154
 20
475.705
 30
-1.02891e-13
  70
    32
  0
VERTEX
  8
0
  5
23F46
 10
-53.7799
 20
476.365
 30
-1.03023e-13
  70
    32
  0
VERTEX
  8
0
  5
23F47
 10
-52.2363
 20
477.006
 30
-1.03151e-13
  70
    32
  0
VERTEX
  8
0
  5
23F48
 10
-50.6848
 20
477.628
 30
-1.03275e-13
  70
    32
  0
VERTEX
  8
0
  5
23F49
 10
-49.1257
 20
478.232
 30
-1.03396e-13
  70
    32
  0
VERTEX
  8
0
  5
23F4A
 10
-47.5591
 20
478.816
 30
-1.03513e-13
  70
    32
  0
VERTEX
  8
0
  5
23F4B
 10
-45.9855
 20
479.382
 30
-1.03626e-13
  70
    32
  0
VERTEX
  8
0
  5
23F4C
 10
-44.4049
 20
479.928
 30
-1.03735e-13
  70
    32
  0
VERTEX
  8
0
  5
23F4D
 10
-42.8176
 20
480.455
 30
-1.03841e-13
  70
    32
  0
VERTEX
  8
0
  5
23F4E
 10
-41.2238
 20
480.964
 30
-1.03942e-13
  70
    32
  0
VERTEX
  8
0
  5
23F4F
 10
-39.6239
 20
481.452
 30
-1.04040e-13
  70
    32
  0
VERTEX
  8
0
  5
23F50
 10
-38.0179
 20
481.922
 30
-1.04134e-13
  70
    32
  0
VERTEX
  8
0
  5
23F51
 10
-36.4063
 20
482.372
 30
-1.04224e-13
  70
    32
  0
VERTEX
  8
0
  5
23F52
 10
-34.7892
 20
482.802
 30
-1.04310e-13
  70
    32
  0
VERTEX
  8
0
  5
23F53
 10
-33.1668
 20
483.213
 30
-1.04392e-13
  70
    32
  0
VERTEX
  8
0
  5
23F54
 10
-31.5394
 20
483.604
 30
-1.04471e-13
  70
    32
  0
VERTEX
  8
0
  5
23F55
 10
-29.9073
 20
483.976
 30
-1.04545e-13
  70
    32
  0
VERTEX
  8
0
  5
23F56
 10
-28.2707
 20
484.327
 30
-1.04615e-13
  70
    32
  0
VERTEX
  8
0
  5
23F57
 10
-26.6298
 20
484.659
 30
-1.04682e-13
  70
    32
  0
VERTEX
  8
0
  5
23F58
 10
-24.9849
 20
484.971
 30
-1.04744e-13
  70
    32
  0
VERTEX
  8
0
  5
23F59
 10
-23.3363
 20
485.264
 30
-1.04802e-13
  70
    32
  0
VERTEX
  8
0
  5
23F5A
 10
-21.6841
 20
485.536
 30
-1.04857e-13
  70
    32
  0
VERTEX
  8
0
  5
23F5B
 10
-20.0287
 20
485.788
 30
-1.04907e-13
  70
    32
  0
VERTEX
  8
0
  5
23F5C
 10
-18.3703
 20
486.020
 30
-1.04954e-13
  70
    32
  0
VERTEX
  8
0
  5
23F5D
 10
-16.7091
 20
486.232
 30
-1.04996e-13
  70
    32
  0
VERTEX
  8
0
  5
23F5E
 10
-15.0453
 20
486.424
 30
-1.05035e-13
  70
    32
  0
VERTEX
  8
0
  5
23F5F
 10
-13.3793
 20
486.596
 30
-1.05069e-13
  70
    32
  0
VERTEX
  8
0
  5
23F60
 10
-11.7113
 20
486.748
 30
-1.05099e-13
  70
    32
  0
VERTEX
  8
0
  5
23F61
 10
-10.0416
 20
486.879
 30
-1.05126e-13
  70
    32
  0
VERTEX
  8
0
  5
23F62
 10
-8.37028
 20
486.990
 30
-1.05148e-13
  70
    32
  0
VERTEX
  8
0
  5
23F63
 10
-6.69774
 20
487.082
 30
-1.05166e-13
  70
    32
  0
VERTEX
  8
0
  5
23F64
 10
-5.02419
 20
487.152
 30
-1.05180e-13
  70
    32
  0
VERTEX
  8
0
  5
23F65
 10
-3.34988
 20
487.203
 30
-1.05190e-13
  70
    32
  0
VERTEX
  8
0
  5
23F66
 10
-1.67506
 20
487.233
 30
-1.05196e-13
  70
    32
  0
VERTEX
  8
0
  5
23F67
 10
-8.21414e-14
 20
487.244
 30
-1.05198e-13
  70
    32
  0
SEQEND
  8
0
  5
23F68
  0
LINE
  5
231C7
  8
0
  6
VERDECKT
 62
     1
 10
-133.3000000000000114
 20
244.8504201735011918
 30
-0.0000000000000544
 11
-133.3000000000000114
 21
352.7513902242989161
 31
-0.0000000000000783
210
0.0
220
1.0
230
-0.0000000000000002
  0
LINE
  5
231C8
  8
0
  6
VERDECKT
 62
     1
 10
133.3000000000000114
 20
244.8504201735011918
 30
-0.0000000000000544
 11
133.3000000000000114
 21
352.7513902242989161
 31
-0.0000000000000783
210
0.0
220
1.0
230
-0.0000000000000002
  0
ENDBLK
  5
231CA
  8
0
  0
BLOCK
  8
0
  2
A$C9FC731FA
 70
     0
 10
0.0
 20
0.0
 30
0.0
  3
A$C9FC731FA
  1

  0
LINE
  5
231CE
  8
0
  6
CONTINUOUS
 62
     3
 10
240.0996530894385899
 20
494.0803569371269077
 30
-0.0000000000001097
 11
249.6272156892219982
 21
221.2466611609135043
 31
-0.0000000000000491
210
-0.0000000000000002
220
1.0
230
-0.0000000000000002
  0
LINE
  5
231CF
  8
0
  6
CONTINUOUS
 62
     3
 10
164.0785210613018137
 20
218.2592349154917883
 30
-0.0000000000000485
 11
44.3189900763977533
 21
487.2435455331066123
 31
-0.0000000000001082
210
-0.0000000000000002
220
1.0
230
-0.0000000000000002
  0
LINE
  5
231D0
  8
0
  6
CONTINUOUS
 62
     3
 10
249.627215689221913
 20
221.2466611609135896
 30
-0.0000000000000491
 11
164.0785210613015863
 21
218.259234915491902
 31
-0.0000000000000485
210
-0.0000000000000002
220
1.0
230
-0.0000000000000002
  0
LINE
  5
231D1
  8
0
  6
CONTINUOUS
 62
     3
 10
240.0996530894385046
 20
494.080356937126794
 30
-0.0000000000001097
 11
44.3189900763973768
 21
487.2435455331063849
 31
-0.0000000000001082
210
-0.0000000000000002
220
1.0
230
-0.0000000000000002
  0
LINE
  5
231D2
  8
0
  6
CONTINUOUS
 62
     3
 10
136.5
 20
104.0999999999999943
 30
-0.0000000000000231
 11
-136.5
 21
104.0999999999999943
 31
-0.0000000000000231
210
-0.0000000000000002
220
1.0
230
-0.0000000000000002
  0
LINE
  5
231D3
  8
0
  6
CONTINUOUS
 62
     3
 10
-136.5
 20
300.0
 30
-0.0000000000000666
 11
136.5
 21
189.700840347002412
 31
-0.0000000000000421
210
-0.0000000000000002
220
1.0
230
-0.0000000000000002
  0
LINE
  5
231D4
  8
0
  6
CONTINUOUS
 62
     3
 10
-136.5
 20
104.0999999999999943
 30
-0.0000000000000231
 11
-136.5
 21
300.0000000000001137
 31
-0.0000000000000666
210
-0.0000000000000002
220
1.0
230
-0.0000000000000002
  0
LINE
  5
231D5
  8
0
  6
CONTINUOUS
 62
     3
 10
136.5
 20
104.0999999999999943
 30
-0.0000000000000231
 11
136.5
 21
189.700840347002412
 31
-0.0000000000000421
210
-0.0000000000000002
220
1.0
230
-0.0000000000000002
  0
LINE
  5
231D6
  8
0
  6
CONTINUOUS
 62
     3
 10
136.5
 20
189.7008403470022984
 30
-0.0000000000000421
 11
-136.5000000000001137
 21
300.0000000000002274
 31
-0.0000000000000666
210
-0.0000000000000002
220
1.0
230
-0.0000000000000002
  0
LINE
  5
231D7
  8
0
  6
CONTINUOUS
 62
     3
 10
44.3189900763977818
 20
487.2435455331066123
 30
-0.0000000000001082
 11
164.0785210613013021
 21
218.2592349154915894
 31
-0.0000000000000485
210
-0.0000000000000002
220
1.0
230
-0.0000000000000002
  0
LINE
  5
231D8
  8
0
  6
CONTINUOUS
 62
     3
 10
-136.5000000000001137
 20
300.0000000000002274
 30
-0.0000000000000666
 11
44.3189900763979168
 21
487.2435455331066123
 31
-0.0000000000001082
210
-0.0000000000000002
220
1.0
230
-0.0000000000000002
  0
LINE
  5
231D9
  8
0
  6
CONTINUOUS
 62
     3
 10
136.5
 20
189.700840347002412
 30
-0.0000000000000421
 11
164.0785210613013874
 21
218.2592349154917031
 31
-0.0000000000000485
210
-0.0000000000000002
220
1.0
230
-0.0000000000000002
  0
LINE
  5
231DA
  8
0
  6
VERDECKT
 62
     1
 10
249.515537299773996
 20
224.4447118073746879
 30
-0.0000000000000498
 11
162.6747463391342876
 21
221.4121645637569884
 31
-0.0000000000000492
210
-0.0000000000000002
220
1.0
230
-0.0000000000000002
  0
LINE
  5
231DB
  8
0
  6
VERDECKT
 62
     1
 10
240.2113314788865921
 20
490.8823062906658947
 30
-0.000000000000109
 11
45.7227647985647607
 21
484.0906158848417249
 31
-0.0000000000001075
210
-0.0000000000000002
220
1.0
230
-0.0000000000000002
  0
LINE
  5
231DC
  8
0
  6
VERDECKT
 62
     1
 10
-133.3000000000000114
 20
104.0999999999999943
 30
-0.0000000000000231
 11
-133.3000000000000966
 21
298.7071160773276119
 31
-0.0000000000000663
210
-0.0000000000000002
220
1.0
230
-0.0000000000000002
  0
LINE
  5
231DD
  8
0
  6
VERDECKT
 62
     1
 10
133.3000000000000114
 20
104.0999999999999943
 30
-0.0000000000000231
 11
133.3000000000000114
 21
190.9937242696749991
 31
-0.0000000000000424
210
-0.0000000000000002
220
1.0
230
-0.0000000000000002
  0
LINE
  5
231DE
  8
0
  6
VERDECKT
 62
     1
 10
-133.3000000000000114
 20
298.7071160773276119
 30
-0.0000000000000663
 11
45.7227647985653931
 21
484.0906158848413838
 31
-0.0000000000001075
210
-0.0000000000000002
220
1.0
230
-0.0000000000000002
  0
LINE
  5
231DF
  8
0
  6
VERDECKT
 62
     1
 10
133.3000000000000966
 20
190.9937242696748001
 30
-0.0000000000000424
 11
162.6747463391340887
 21
221.4121645637565905
 31
-0.0000000000000492
210
-0.0000000000000002
220
1.0
230
-0.0000000000000002
  0
ENDBLK
  5
231E1
  8
0
  0
ENDSEC
  0
SECTION
  2
ENTITIES
  0
TEXT
  5
8F
  8
VOLL
 10
78.076754716981128
 20
31.025947764705851
 30
0.0
 40
1.8
  1

  7
GREEKS
  0
INSERT
  5
18BF
  8
ADSK_ASSOC_ENTITY_BACKUPS
  2
*S0
 10
0.0
 20
0.0
 30
0.0
  0
INSERT
  5
231CB
  8
STEMPEL
  2
A$CE31D7583
 10
322.2490538062742758
 20
-56.5636062622070312
 30
413.3555388283647858
  0
INSERT
  5
231E2
  8
STEMPEL
  2
A$C9FC731FA
 10
672.2490538062743326
 20
-56.5636062622070312
 30
413.3555388283647858
  0
VIEWPORT
  5
C68
 67
     1
  8
0
 10
-86.7499999999999858
 20
-148.2447509765625
 30
0.0
 40
567.3581314878892954
 41
298.5415224913494967
 68
     1
 69
     1
1001
ACAD
1000
MVIEW
1002
{
1070
    16
1010
0.0
1020
0.0
1030
0.0
1010
0.0
1020
0.0
1030
1.0
1040
0.0
1040
298.5415224913494967
1040
-86.7499999999999858
1040
-148.2447509765625
1040
50.0
1040
0.0
1040
0.0
1070
     0
1070
     0
1070
     1
1070
     1
1070
     0
1070
     0
1070
     0
1070
     0
1040
0.0
1040
0.0
1040
0.0
1040
10.0
1040
10.0
1040
10.0
1040
10.0
1070
     0
1002
{
1002
}
1002
}
  0
TEXT
  5
1986
 67
     1
  8
VOLL
 10
405.6964831740547766
 20
-245.0781761654644981
 30
0.0
 40
3.6000000000000001
  1

  7
GREEKS
  0
ENDSEC
  0
EOF
