  0
SECTION
  2
HEADER
  9
$ACADVER
  1
AC1009
  9
$INSBASE
 10
0.0
 20
0.0
 30
0.0
  9
$EXTMIN
 10
1213.3038504617609
 20
-140.77209003916551
 30
-0.0000000100000581
  9
$EXTMAX
 10
3076.5279118291119
 20
841.41657202226759
 30
457.0
  9
$LIMMIN
 10
0.0
 20
0.0
  9
$LIMMAX
 10
840.00000000000023
 20
594.0
  9
$ORTHOMODE
 70
     1
  9
$REGENMODE
 70
     1
  9
$FILLMODE
 70
     1
  9
$QTEXTMODE
 70
     0
  9
$MIRRTEXT
 70
     1
  9
$DRAGMODE
 70
     2
  9
$LTSCALE
 40
20.0
  9
$OSMODE
 70
   311
  9
$ATTMODE
 70
     1
  9
$TEXTSIZE
 40
3.5
  9
$TRACEWID
 40
1.0
  9
$TEXTSTYLE
  7
STANDARD
  9
$CLAYER
  8
VOLL
  9
$CELTYPE
  6
BYLAYER
  9
$CECOLOR
 62
   256
  9
$DIMSCALE
 40
2.0
  9
$DIMASZ
 40
3.5
  9
$DIMEXO
 40
1.0
  9
$DIMDLI
 40
8.0
  9
$DIMRND
 40
0.0
  9
$DIMDLE
 40
0.0
  9
$DIMEXE
 40
1.0
  9
$DIMTP
 40
1.1999999999999991
  9
$DIMTM
 40
1.1999999999999991
  9
$DIMTXT
 40
3.5
  9
$DIMCEN
 40
1.5
  9
$DIMTSZ
 40
0.0
  9
$DIMTOL
 70
     0
  9
$DIMLIM
 70
     0
  9
$DIMTIH
 70
     0
  9
$DIMTOH
 70
     0
  9
$DIMSE1
 70
     0
  9
$DIMSE2
 70
     0
  9
$DIMTAD
 70
     1
  9
$DIMZIN
 70
     8
  9
$DIMBLK
  1

  9
$DIMASO
 70
     1
  9
$DIMSHO
 70
     0
  9
$DIMPOST
  1

  9
$DIMAPOST
  1

  9
$DIMALT
 70
     0
  9
$DIMALTD
 70
     2
  9
$DIMALTF
 40
25.399999999999999
  9
$DIMLFAC
 40
1.0
  9
$DIMTOFL
 70
     1
  9
$DIMTVP
 40
0.5714285714285714
  9
$DIMTIX
 70
     0
  9
$DIMSOXD
 70
     0
  9
$DIMSAH
 70
     0
  9
$DIMBLK1
  1

  9
$DIMBLK2
  1

  9
$DIMSTYLE
  2
STANDARD
  9
$DIMCLRD
 70
   256
  9
$DIMCLRE
 70
   256
  9
$DIMCLRT
 70
     1
  9
$DIMTFAC
 40
0.5
  9
$DIMGAP
 40
1.5
  9
$LUNITS
 70
     2
  9
$LUPREC
 70
     2
  9
$SKETCHINC
 40
1.0
  9
$FILLETRAD
 40
4.0
  9
$AUNITS
 70
     0
  9
$AUPREC
 70
     0
  9
$MENU
  1
ACAD
  9
$ELEVATION
 40
0.0
  9
$PELEVATION
 40
0.0
  9
$THICKNESS
 40
0.0
  9
$LIMCHECK
 70
     0
  9
$BLIPMODE
 70
     0
  9
$CHAMFERA
 40
0.0
  9
$CHAMFERB
 40
0.0
  9
$SKPOLY
 70
     0
  9
$TDCREATE
 40
2455240.197929861
  9
$TDUPDATE
 40
2458422.4517773502
  9
$TDINDWG
 40
0.2176050926
  9
$TDUSRTIMER
 40
0.2176050926
  9
$USRTIMER
 70
     1
  9
$ANGBASE
 50
0.0
  9
$ANGDIR
 70
     0
  9
$PDMODE
 70
     0
  9
$PDSIZE
 40
0.0
  9
$PLINEWID
 40
0.0
  9
$COORDS
 70
     1
  9
$SPLFRAME
 70
     0
  9
$SPLINETYPE
 70
     6
  9
$SPLINESEGS
 70
     8
  9
$ATTDIA
 70
     0
  9
$ATTREQ
 70
     0
  9
$HANDLING
 70
     1
  9
$HANDSEED
  5
528A
  9
$SURFTAB1
 70
     6
  9
$SURFTAB2
 70
     6
  9
$SURFTYPE
 70
     6
  9
$SURFU
 70
     6
  9
$SURFV
 70
     6
  9
$UCSNAME
  2

  9
$UCSORG
 10
0.0
 20
0.0
 30
0.0
  9
$UCSXDIR
 10
1.0
 20
0.0
 30
0.0
  9
$UCSYDIR
 10
0.0
 20
1.0
 30
0.0
  9
$PUCSNAME
  2

  9
$PUCSORG
 10
0.0
 20
0.0
 30
0.0
  9
$PUCSXDIR
 10
1.0
 20
0.0
 30
0.0
  9
$PUCSYDIR
 10
0.0
 20
1.0
 30
0.0
  9
$USERI1
 70
     0
  9
$USERI2
 70
     0
  9
$USERI3
 70
     0
  9
$USERI4
 70
     0
  9
$USERI5
 70
     0
  9
$USERR1
 40
0.0
  9
$USERR2
 40
0.0
  9
$USERR3
 40
0.0
  9
$USERR4
 40
0.0
  9
$USERR5
 40
0.0
  9
$WORLDVIEW
 70
     1
  9
$SHADEDGE
 70
     3
  9
$SHADEDIF
 70
    70
  9
$TILEMODE
 70
     1
  9
$MAXACTVP
 70
    16
  9
$PLIMCHECK
 70
     0
  9
$PEXTMIN
 10
1.049999952316284
 20
2.8637002735526229
 30
0.0
  9
$PEXTMAX
 10
4.838544069775863
 20
5.6124631528393074
 30
0.0
  9
$PLIMMIN
 10
-0.2500002402958907
 20
-0.2499999962453767
  9
$PLIMMAX
 10
10.74999951940822
 20
8.2499997634587334
  9
$UNITMODE
 70
     0
  9
$VISRETAIN
 70
     0
  9
$PLINEGEN
 70
     0
  9
$PSLTSCALE
 70
     0
  0
ENDSEC
  0
SECTION
  2
TABLES
  0
TABLE
  2
VPORT
 70
     1
  0
VPORT
  2
*ACTIVE
 70
     0
 10
0.0
 20
0.0
 11
1.0
 21
1.0
 12
0.0
 22
0.0
 13
0.0
 23
0.0
 14
2.5
 24
2.5
 15
20.0
 25
20.0
 16
-0.0000000000027285
 26
0.0
 36
3471.5255425835221
 17
2891.2825605037401
 27
357.94527827535921
 37
-663.77546425155128
 40
1248.481483230265
 41
2.1108071135430908
 42
50.0
 43
374.44515573271059
 44
374.44515573271059
 50
0.0
 51
0.0
 71
     0
 72
   500
 73
     1
 74
     1
 75
     0
 76
     0
 77
     0
 78
     0
  0
ENDTAB
  0
TABLE
  2
LTYPE
 70
     4
  0
LTYPE
  2
CONTINUOUS
 70
     0
  3
Solid line
 72
    65
 73
     0
 40
0.0
  0
LTYPE
  2
PHANTOM2
 70
     0
  3
Phantom (.5x) ___ _ _ ___ _ _ ___ _ _ ___ _ _
 72
    65
 73
     6
 40
1.25
 49
0.625
 49
-0.125
 49
0.125
 49
-0.125
 49
0.125
 49
-0.125
  0
LTYPE
  2
VERDECKT
 70
     0
  3
Verdeckt __ __ __ __ __ __ __ __ __ __ __ __ __
 72
    65
 73
     2
 40
0.375
 49
0.25
 49
-0.125
  0
ENDTAB
  0
TABLE
  2
LAYER
 70
    11
  0
LAYER
  2
0
 70
     0
 62
     7
  6
CONTINUOUS
  0
LAYER
  2
VOLL
 70
     0
 62
     1
  6
CONTINUOUS
  0
LAYER
  2
DEFPOINTS
 70
     0
 62
     7
  6
CONTINUOUS
  0
LAYER
  2
RAHMEN
 70
     0
 62
     7
  6
CONTINUOUS
  0
ENDTAB
  0
TABLE
  2
STYLE
 70
     3
  0
STYLE
  2
STANDARD
 70
     0
 40
0.0
 41
0.8
 50
0.0
 71
     0
 42
3.5
  3
simplex.shx
  4

  0
ENDTAB
  0
TABLE
  2
VIEW
 70
     6
  0
ENDTAB
  0
TABLE
  2
UCS
 70
     0
  0
ENDTAB
  0
TABLE
  2
APPID
 70
    14
  0
APPID
  2
ACAD
 70
     0
  0
APPID
  2
ACAD_EXEMPT_FROM_CAD_STANDARDS
 70
     0
  0
APPID
  2
ACAD_DSTYLE_DIMRADIAL_EXTENSION
 70
     0
  0
APPID
  2
ACAD_NAV_VCDISPLAY
 70
     0
  0
APPID
  2
ACAD_MLEADERVER
 70
     0
  0
APPID
  2
ACAECLAYERSTANDARD
 70
     0
  0
APPID
  2
ACCMTRANSPARENCY
 70
     0
  0
APPID
  2
ACAD_OBJECT_CHANGE_GUID
 70
     0
  0
APPID
  2
ACAD_STEPID
 70
     0
  0
APPID
  2
GRADIENTCOLOR1ACI
 70
     0
  0
APPID
  2
GRADIENTCOLOR2ACI
 70
     0
  0
APPID
  2
ACAD_PSEXT
 70
     0
  0
APPID
  2
ACAD_DSTYLE_DIMJAG
 70
     0
  0
APPID
  2
ACAD_DSTYLE_DIMTALN
 70
     0
  0
ENDTAB
  0
TABLE
  2
DIMSTYLE
 70
     1
  0
DIMSTYLE
  2
STANDARD
 70
     0
  3

  4

  5

  6

  7

 40
1.0
 41
0.18
 42
0.0625
 43
0.38
 44
0.18
 45
0.0
 46
0.0
 47
0.0
 48
0.0
140
0.18
141
0.09
142
0.0
143
25.399999999999999
144
1.0
145
0.0
146
1.0
147
0.09
 71
     0
 72
     0
 73
     1
 74
     1
 75
     0
 76
     0
 77
     0
 78
     0
170
     0
171
     2
172
     0
173
     0
174
     0
175
     0
176
     0
177
     0
178
     0
  0
ENDTAB
  0
ENDSEC
  0
SECTION
  2
BLOCKS
  0
BLOCK
  8
0
  2
$MODEL_SPACE
 70
     0
 10
0.0
 20
0.0
 30
0.0
  3
$MODEL_SPACE
  1

  0
ENDBLK
  5
59
  8
0
  0
BLOCK
 67
     1
  8
0
  2
$PAPER_SPACE
 70
     0
 10
0.0
 20
0.0
 30
0.0
  3
$PAPER_SPACE
  1

  0
ENDBLK
  5
57
 67
     1
  8
0
  0
BLOCK
  8
0
  2
A$C588C64FF
 70
     0
 10
0.0
 20
0.0
 30
0.0
  3
A$C588C64FF
  1

  0
LINE
  5
4462
  8
0
  6
CONTINUOUS
 62
     3
 10
1322.3038504617609
 20
375.00000000000182
 30
0.0000000000000833
 11
1322.3038504617609
 21
364.00000000000188
 31
0.0000000000000808
210
0.0
220
1.0
230
0.0000000000000002
  0
ARC
  5
4463
  8
0
  6
CONTINUOUS
 62
     3
 10
1324.30385046176
 20
375.00000000000182
 30
0.0000000000000833
 40
1.9999999999999429
 50
89.999999999993491
 51
180.00000000000151
  0
ARC
  5
4464
  8
0
  6
CONTINUOUS
 62
     3
 10
-1324.3038504617609
 20
375.00000000000188
 30
0.0
 40
4.0
210
0.0
220
0.0000000000000002
230
-1.0
 50
0.0
 51
90.00000000000081
  0
LINE
  5
4465
  8
0
  6
CONTINUOUS
 62
     3
 10
1320.3038504617609
 20
364.00000000000188
 30
0.0000000000000808
 11
1320.3038504617609
 21
375.00000000000182
 31
0.0000000000000833
210
0.0
220
1.0
230
0.0000000000000002
  0
LINE
  5
4466
  8
0
  6
CONTINUOUS
 62
     3
 10
1322.3038504617609
 20
364.00000000000188
 30
0.0000000000000808
 11
1320.3038504617609
 21
364.00000000000188
 31
0.0000000000000808
210
0.0
220
1.0
230
0.0000000000000002
  0
LINE
  5
4467
  8
0
  6
CONTINUOUS
 62
     3
 10
1324.3038504617609
 20
375.45320228627332
 30
0.0000000000000834
 11
1324.3038504617609
 21
379.00000000000222
 31
0.0000000000000842
210
0.0
220
1.0
230
0.0000000000000002
  0
LINE
  5
4468
  8
0
  6
CONTINUOUS
 62
     3
 10
1322.8038504617609
 20
375.45320228627338
 30
0.0000000000000834
 11
1322.8038504617609
 21
364.00000000000227
 31
0.0000000000000808
210
0.0
220
1.0
230
0.0000000000000002
  0
LINE
  5
4469
  8
0
  6
CONTINUOUS
 62
     3
 10
1324.3038504617609
 20
375.45320228627332
 30
0.0000000000000834
 11
1322.8038504617609
 21
375.45320228627332
 31
0.0000000000000834
210
0.0
220
1.0
230
0.0000000000000002
  0
LINE
  5
446A
  8
0
  6
CONTINUOUS
 62
     3
 10
1525.3038504617609
 20
379.00000000000222
 30
0.0000000000000842
 11
1521.757052748032
 21
375.45320228627332
 31
0.0000000000000834
210
0.0
220
1.0
230
0.0000000000000002
  0
LINE
  5
446B
  8
0
  6
CONTINUOUS
 62
     3
 10
1510.3038504617609
 20
364.00000000000188
 30
0.0000000000000808
 11
1521.757052748032
 21
375.45320228627332
 31
0.0000000000000834
210
0.0
220
1.0
230
0.0000000000000002
  0
LINE
  5
446C
  8
0
  6
CONTINUOUS
 62
     3
 10
1510.3038504617609
 20
364.00000000000227
 30
0.0000000000000808
 11
1322.8038504617609
 21
364.00000000000227
 31
0.0000000000000808
210
0.0
220
1.0
230
0.0000000000000002
  0
LINE
  5
446D
  8
0
  6
CONTINUOUS
 62
     3
 10
1525.30385046176
 20
379.00000000000222
 30
0.0000000000000842
 11
1324.3038504617609
 21
379.00000000000222
 31
0.0000000000000842
210
0.0
220
1.0
230
0.0000000000000002
  0
LINE
  5
446E
  8
0
  6
CONTINUOUS
 62
     3
 10
1407.303850461763
 20
357.0000000000004
 30
0.0000000000000793
 11
1519.3038504617621
 21
357.00000000000028
 31
0.0000000000000793
210
0.0
220
1.0
230
0.0000000000000002
  0
LINE
  5
446F
  8
0
  6
CONTINUOUS
 62
     3
 10
1519.3038504617621
 20
357.0000000000004
 30
0.0000000000000793
 11
1519.3038504617609
 21
347.0000000000004
 31
0.000000000000077
210
0.0
220
1.0
230
0.0000000000000002
  0
LINE
  5
4470
  8
0
  6
CONTINUOUS
 62
     3
 10
1407.303850461763
 20
347.0000000000004
 30
0.000000000000077
 11
1407.303850461763
 21
357.0000000000004
 31
0.0000000000000793
210
0.0
220
1.0
230
0.0000000000000002
  0
LINE
  5
4471
  8
0
  6
CONTINUOUS
 62
     3
 10
1519.3038504617609
 20
347.0000000000004
 30
0.000000000000077
 11
1407.303850461763
 21
347.0000000000004
 31
0.000000000000077
210
0.0
220
1.0
230
0.0000000000000002
  0
LINE
  5
4472
  8
0
  6
CONTINUOUS
 62
     3
 10
1327.3038504617639
 20
357.00000000000051
 30
0.0000000000000793
 11
1397.303850461763
 21
357.00000000000051
 31
0.0000000000000793
210
0.0
220
1.0
230
0.0000000000000002
  0
LINE
  5
4473
  8
0
  6
CONTINUOUS
 62
     3
 10
1397.303850461763
 20
357.0000000000004
 30
0.0000000000000793
 11
1397.303850461763
 21
347.0000000000004
 31
0.000000000000077
210
0.0
220
1.0
230
0.0000000000000002
  0
LINE
  5
4474
  8
0
  6
CONTINUOUS
 62
     3
 10
1327.3038504617639
 20
347.00000000000023
 30
0.000000000000077
 11
1327.3038504617639
 21
357.0000000000004
 31
0.0000000000000793
210
0.0
220
1.0
230
0.0000000000000002
  0
LINE
  5
4475
  8
0
  6
CONTINUOUS
 62
     3
 10
1397.303850461763
 20
347.00000000000051
 30
0.000000000000077
 11
1327.3038504617639
 21
347.00000000000028
 31
0.000000000000077
210
0.0
220
1.0
230
0.0000000000000002
  0
ARC
  5
4476
  8
0
  6
CONTINUOUS
 62
     3
 10
-1425.2327826498979
 20
246.99999999999969
 30
0.0
 40
4.9999999999997176
210
0.0
220
0.0000000000000002
230
-1.0
 50
224.9999999999981
 51
270.00000000000261
  0
LINE
  5
4477
  8
0
  6
CONTINUOUS
 62
     3
 10
1428.7683165558301
 20
243.46446609406729
 30
0.0000000000000541
 11
1524.3038504617609
 21
339.00000000000227
 31
0.0000000000000753
210
0.0
220
1.0
230
0.0000000000000002
  0
LINE
  5
4478
  8
0
  6
CONTINUOUS
 62
     3
 10
1397.303850461763
 20
327.0000000000004
 30
0.0000000000000726
 11
1397.303850461763
 21
317.0000000000004
 31
0.0000000000000704
210
0.0
220
1.0
230
0.0000000000000002
  0
LINE
  5
4479
  8
0
  6
CONTINUOUS
 62
     3
 10
1327.3038504617639
 20
327.0000000000004
 30
0.0000000000000726
 11
1397.3038504617639
 21
327.00000000000051
 31
0.0000000000000726
210
0.0
220
1.0
230
0.0000000000000002
  0
LINE
  5
447A
  8
0
  6
CONTINUOUS
 62
     3
 10
1327.3038504617639
 20
317.00000000000028
 30
0.0000000000000704
 11
1327.3038504617639
 21
327.0000000000004
 31
0.0000000000000726
210
0.0
220
1.0
230
0.0000000000000002
  0
LINE
  5
447B
  8
0
  6
CONTINUOUS
 62
     3
 10
1397.303850461763
 20
317.0000000000004
 30
0.0000000000000704
 11
1327.3038504617639
 21
317.00000000000028
 31
0.0000000000000704
210
0.0
220
1.0
230
0.0000000000000002
  0
LINE
  5
447C
  8
0
  6
CONTINUOUS
 62
     3
 10
1407.303850461763
 20
302.00000000000028
 30
0.0000000000000671
 11
1407.303850461763
 21
312.00000000000028
 31
0.0000000000000693
210
0.0
220
1.0
230
0.0000000000000002
  0
LINE
  5
447D
  8
0
  6
CONTINUOUS
 62
     3
 10
1480.2327826498961
 20
302.0000000000004
 30
0.0000000000000671
 11
1407.303850461763
 21
302.00000000000028
 31
0.0000000000000671
210
0.0
220
1.0
230
0.0000000000000002
  0
LINE
  5
447E
  8
0
  6
CONTINUOUS
 62
     3
 10
1490.2327826498949
 20
312.00000000000028
 30
0.0000000000000693
 11
1480.2327826498961
 21
302.0000000000004
 31
0.0000000000000671
210
0.0
220
1.0
230
0.0000000000000002
  0
LINE
  5
447F
  8
0
  6
CONTINUOUS
 62
     3
 10
1407.303850461763
 20
312.00000000000028
 30
0.0000000000000693
 11
1490.2327826498949
 21
312.00000000000028
 31
0.0000000000000693
210
0.0
220
1.0
230
0.0000000000000002
  0
LINE
  5
4480
  8
0
  6
CONTINUOUS
 62
     3
 10
1519.3038504617621
 20
341.07106781186781
 30
0.0000000000000757
 11
1510.2327826498949
 21
332.0000000000004
 31
0.0000000000000737
210
0.0
220
1.0
230
0.0000000000000002
  0
LINE
  5
4481
  8
0
  6
CONTINUOUS
 62
     3
 10
1519.3038504617621
 20
342.0000000000004
 30
0.0000000000000759
 11
1519.3038504617621
 21
341.07106781186781
 31
0.0000000000000757
210
0.0
220
1.0
230
0.0000000000000002
  0
LINE
  5
4482
  8
0
  6
CONTINUOUS
 62
     3
 10
1407.303850461763
 20
342.0000000000004
 30
0.0000000000000759
 11
1519.3038504617621
 21
342.00000000000028
 31
0.0000000000000759
210
0.0
220
1.0
230
0.0000000000000002
  0
LINE
  5
4483
  8
0
  6
CONTINUOUS
 62
     3
 10
1510.2327826498949
 20
332.00000000000028
 30
0.0000000000000737
 11
1407.3038504617639
 21
332.00000000000028
 31
0.0000000000000737
210
0.0
220
1.0
230
0.0000000000000002
  0
LINE
  5
4484
  8
0
  6
CONTINUOUS
 62
     3
 10
1407.3038504617639
 20
332.00000000000028
 30
0.0000000000000737
 11
1407.303850461763
 21
342.0000000000004
 31
0.0000000000000759
210
0.0
220
1.0
230
0.0000000000000002
  0
LINE
  5
4485
  8
0
  6
CONTINUOUS
 62
     3
 10
1407.3038504617639
 20
317.0000000000004
 30
0.0000000000000704
 11
1407.3038504617639
 21
327.0000000000004
 31
0.0000000000000726
210
0.0
220
1.0
230
0.0000000000000002
  0
LINE
  5
4486
  8
0
  6
CONTINUOUS
 62
     3
 10
1495.2327826498949
 20
317.00000000000051
 30
0.0000000000000704
 11
1407.303850461763
 21
317.0000000000004
 31
0.0000000000000704
210
0.0
220
1.0
230
0.0000000000000002
  0
LINE
  5
4487
  8
0
  6
CONTINUOUS
 62
     3
 10
1505.2327826498949
 20
327.0000000000004
 30
0.0000000000000726
 11
1495.2327826498949
 21
317.00000000000051
 31
0.0000000000000704
210
0.0
220
1.0
230
0.0000000000000002
  0
LINE
  5
4488
  8
0
  6
CONTINUOUS
 62
     3
 10
1407.3038504617639
 20
327.0000000000004
 30
0.0000000000000726
 11
1505.2327826498949
 21
327.0000000000004
 31
0.0000000000000726
210
0.0
220
1.0
230
0.0000000000000002
  0
LINE
  5
4489
  8
0
  6
CONTINUOUS
 62
     3
 10
1397.303850461763
 20
312.00000000000028
 30
0.0000000000000693
 11
1397.303850461763
 21
302.00000000000028
 31
0.0000000000000671
210
0.0
220
1.0
230
0.0000000000000002
  0
LINE
  5
448A
  8
0
  6
CONTINUOUS
 62
     3
 10
1327.303850461763
 20
312.0000000000004
 30
0.0000000000000693
 11
1397.303850461763
 21
312.00000000000028
 31
0.0000000000000693
210
0.0
220
1.0
230
0.0000000000000002
  0
LINE
  5
448B
  8
0
  6
CONTINUOUS
 62
     3
 10
1327.303850461763
 20
302.0000000000004
 30
0.0000000000000671
 11
1327.303850461763
 21
312.0000000000004
 31
0.0000000000000693
210
0.0
220
1.0
230
0.0000000000000002
  0
LINE
  5
448C
  8
0
  6
CONTINUOUS
 62
     3
 10
1397.303850461763
 20
302.00000000000028
 30
0.0000000000000671
 11
1327.303850461763
 21
302.0000000000004
 31
0.0000000000000671
210
0.0
220
1.0
230
0.0000000000000002
  0
LINE
  5
448D
  8
0
  6
CONTINUOUS
 62
     3
 10
1327.3038504617639
 20
342.00000000000051
 30
0.0000000000000759
 11
1397.3038504617639
 21
342.00000000000051
 31
0.0000000000000759
210
0.0
220
1.0
230
0.0000000000000002
  0
LINE
  5
448E
  8
0
  6
CONTINUOUS
 62
     3
 10
1327.3038504617639
 20
332.00000000000023
 30
0.0000000000000737
 11
1327.3038504617639
 21
342.0000000000004
 31
0.0000000000000759
210
0.0
220
1.0
230
0.0000000000000002
  0
LINE
  5
448F
  8
0
  6
CONTINUOUS
 62
     3
 10
1397.303850461763
 20
332.00000000000028
 30
0.0000000000000737
 11
1327.3038504617639
 21
332.00000000000023
 31
0.0000000000000737
210
0.0
220
1.0
230
0.0000000000000002
  0
LINE
  5
4490
  8
0
  6
CONTINUOUS
 62
     3
 10
1397.303850461763
 20
342.0000000000004
 30
0.0000000000000759
 11
1397.303850461763
 21
332.00000000000028
 31
0.0000000000000737
210
0.0
220
1.0
230
0.0000000000000002
  0
LINE
  5
4491
  8
0
  6
CONTINUOUS
 62
     3
 10
1322.3038504617609
 20
364.00000000000188
 30
0.0000000000000808
 11
1322.3038504617609
 21
242.0
 31
0.0000000000000537
210
0.0
220
1.0
230
0.0000000000000002
  0
LINE
  5
4492
  8
0
  6
CONTINUOUS
 62
     3
 10
1322.3038504617609
 20
373.0
 30
0.0000000000000828
 11
1322.8038504617609
 21
373.0
 31
0.0000000000000828
210
0.0
220
1.0
230
0.0000000000000002
  0
ARC
  5
4493
  8
0
  6
CONTINUOUS
 62
     3
 10
-1326.303850461763
 20
372.99999999999932
 30
0.0
 40
4.0000000000027276
210
0.0
220
0.0000000000000002
230
-1.0
 50
0.0000000000105849
 51
28.9550243718503
  0
ARC
  5
4494
  8
0
  6
CONTINUOUS
 62
     3
 10
-1326.30385046176
 20
373.00000000000023
 30
0.0
 40
3.9999999999996998
210
0.0
220
0.0000000000000002
230
-1.0
 50
37.828540315520513
 51
60.000000000001492
  0
LINE
  5
4495
  8
0
  6
CONTINUOUS
 62
     3
 10
1524.3038504617609
 20
373.0
 30
0.0000000000000828
 11
1524.3038504617609
 21
339.00000000000227
 31
0.0000000000000753
210
0.0
220
1.0
230
0.0000000000000002
  0
LINE
  5
4496
  8
0
  6
CONTINUOUS
 62
     3
 10
1524.3038504617609
 20
377.0
 30
0.0000000000000837
 11
1523.3038504617609
 21
377.0
 31
0.0000000000000837
210
0.0
220
1.0
230
0.0000000000000002
  0
LINE
  5
4497
  8
0
  6
CONTINUOUS
 62
     3
 10
1524.3038504617609
 20
377.0
 30
0.0000000000000837
 11
1524.3038504617609
 21
373.0
 31
0.0000000000000828
210
0.0
220
1.0
230
0.0000000000000002
  0
LINE
  5
4498
  8
0
  6
CONTINUOUS
 62
     3
 10
1530.3017150103969
 20
191.38893280737179
 30
0.0000000000000425
 11
1530.3017150103969
 21
195.52616740715521
 31
0.0000000000000434
210
0.0
220
1.0
230
0.0000000000000002
  0
LINE
  5
4499
  8
0
  6
CONTINUOUS
 62
     3
 10
1929.363188836295
 20
271.73889917609011
 30
0.0000000000000603
 11
1924.1164973568359
 21
171.62606189818729
 31
0.0000000000000381
210
0.0
220
1.0
230
0.0000000000000002
  0
LINE
  5
449A
  8
0
  6
CONTINUOUS
 62
     3
 10
1924.1164973568359
 20
171.6260618981872
 30
0.0000000000000381
 11
1914.08441398063
 21
171.27573382708459
 31
0.000000000000038
210
0.0
220
1.0
230
0.0000000000000002
  0
LINE
  5
449B
  8
0
  6
CONTINUOUS
 62
     3
 10
1929.363188836295
 20
271.73889917609011
 30
0.0000000000000603
 11
1919.4226815174111
 21
273.13594637205159
 31
0.0000000000000606
210
0.0
220
1.0
230
0.0000000000000002
  0
LINE
  5
449C
  8
0
  6
CONTINUOUS
 62
     3
 10
1914.08441398063
 20
171.27573382708869
 30
0.000000000000038
 11
1530.3017150103969
 21
191.38893280737179
 31
0.0000000000000425
210
0.0
220
1.0
230
0.0000000000000002
  0
LINE
  5
449D
  8
0
  6
CONTINUOUS
 62
     3
 10
1919.42268151741
 20
273.13594637204761
 30
0.0000000000000606
 11
1530.3017150103969
 21
293.52891209915219
 31
0.0000000000000652
210
0.0
220
1.0
230
0.0000000000000002
  0
ARC
  5
449E
  8
0
  6
CONTINUOUS
 62
     3
 10
-1526.3038504617609
 20
342.82842712474587
 30
0.0
 40
3.999999999999317
210
0.0
220
0.0000000000000002
230
-1.0
 50
179.99999999999511
 51
225.00000000000341
  0
ARC
  5
449F
  8
0
  6
CONTINUOUS
 62
     3
 10
1526.3038504617609
 20
342.8284271247457
 30
0.0000000000000761
 40
1.999999999999051
 50
315.00000000001842
 51
0.000000000029298
  0
LINE
  5
44A0
  8
0
  6
CONTINUOUS
 62
     3
 10
1529.1322775865069
 20
340.00000000000011
 30
0.0000000000000755
 11
1430.30385046176
 21
241.1715728752539
 31
0.0000000000000536
210
0.0
220
1.0
230
0.0000000000000002
  0
LINE
  5
44A1
  8
0
  6
CONTINUOUS
 62
     3
 10
1428.8896368993869
 20
242.58578643762669
 30
0.0000000000000539
 11
1527.718064024134
 21
341.41421356237362
 31
0.0000000000000758
210
0.0
220
1.0
230
0.0000000000000002
  0
ARC
  5
44A2
  8
0
  6
CONTINUOUS
 62
     3
 10
-1427.475423337014
 20
244.00000000000011
 30
0.0
 40
4.0000000000000311
210
0.0
220
0.0000000000000002
230
-1.0
 50
225.0
 51
270.0
  0
LINE
  5
44A3
  8
0
  6
CONTINUOUS
 62
     3
 10
1213.3038504617609
 20
242.00000000000011
 30
0.0000000000000537
 11
1427.475423337014
 21
242.00000000000011
 31
0.0000000000000537
210
0.0
220
1.0
230
0.0000000000000002
  0
LINE
  5
44A4
  8
0
  6
CONTINUOUS
 62
     3
 10
1427.475423337014
 20
240.00000000000011
 30
0.0000000000000533
 11
1213.3038504617609
 21
240.00000000000011
 31
0.0000000000000533
210
0.0
220
1.0
230
0.0000000000000002
  0
LINE
  5
44A5
  8
0
  6
CONTINUOUS
 62
     3
 10
1213.3038504617609
 20
240.00000000000011
 30
0.0000000000000533
 11
1213.3038504617609
 21
242.00000000000011
 31
0.0000000000000537
210
0.0
220
1.0
230
0.0000000000000002
  0
ARC
  5
44A6
  8
0
  6
CONTINUOUS
 62
     3
 10
1427.4754233370149
 20
243.99999999999969
 30
0.0000000000000542
 40
1.9999999999996021
 50
270.0
 51
315.00000000001381
  0
LINE
  5
44A7
  8
0
  6
CONTINUOUS
 62
     3
 10
1528.30385046176
 20
342.82842712474672
 30
0.0000000000000761
 11
1528.30385046176
 21
457.0
 31
0.0000000000001015
210
0.0
220
1.0
230
0.0000000000000002
  0
LINE
  5
44A8
  8
0
  6
CONTINUOUS
 62
     3
 10
1528.30385046176
 20
457.0
 30
0.0000000000001015
 11
1530.30385046176
 21
457.0
 31
0.0000000000001015
210
0.0
220
1.0
230
0.0000000000000002
  0
LINE
  5
44A9
  8
0
  6
CONTINUOUS
 62
     3
 10
1530.30385046176
 20
457.0
 30
0.0000000000001015
 11
1530.30385046176
 21
342.82842712474633
 31
0.0000000000000761
210
0.0
220
1.0
230
0.0000000000000002
  0
LINE
  5
44AA
  8
0
  6
CONTINUOUS
 62
     3
 10
1530.30177818314
 20
342.69968733048279
 30
0.0000000000000761
 11
1531.1301421351541
 21
342.69774028241011
 31
0.0000000000000761
210
0.0
220
1.0
230
0.0000000000000002
  0
LINE
  5
44AB
  8
0
  6
CONTINUOUS
 62
     3
 10
1531.1301421351541
 20
342.69774028240988
 30
0.0000000000000761
 11
1530.301715010396
 21
342.1119538447748
 31
0.000000000000076
210
0.0
220
1.0
230
0.0000000000000002
  0
LINE
  5
44AC
  8
0
  6
CONTINUOUS
 62
     3
 10
1530.3017150103969
 20
342.6977402824092
 30
0.0000000000000761
 11
1530.3017150103969
 21
195.52616740715521
 31
0.0000000000000434
210
0.0
220
1.0
230
0.0000000000000002
  0
LINE
  5
44AD
  8
0
  6
CONTINUOUS
 62
     3
 10
1330.3017150103969
 20
191.52616740715521
 30
0.0000000000000425
 11
1526.301715010396
 21
191.52616740715521
 31
0.0000000000000425
210
0.0
220
1.0
230
0.0000000000000002
  0
ARC
  5
44AE
  8
0
  6
CONTINUOUS
 62
     3
 10
1526.301715010396
 20
195.52616740715521
 30
0.0000000000000434
 40
4.0
 50
270.0
 51
0.0
  0
ARC
  5
44AF
  8
0
  6
CONTINUOUS
 62
     3
 10
1330.3017150103969
 20
195.52616740715521
 30
0.0000000000000434
 40
4.0
 50
180.0
 51
270.0
  0
LINE
  5
44B0
  8
0
  6
CONTINUOUS
 62
     3
 10
1326.3017150103969
 20
195.52616740715521
 30
0.0000000000000434
 11
1326.3017150103969
 21
240.00000000000011
 31
0.0000000000000533
210
0.0
220
1.0
230
0.0000000000000002
  0
LINE
  5
44B1
  8
0
  6
VERDECKT
 62
     1
 10
1523.3038504617609
 20
377.00000000000222
 30
0.0000000000000837
 11
1324.3038504617609
 21
377.00000000000222
 31
0.0000000000000837
210
0.0
220
1.0
230
0.0000000000000002
  0
LINE
  5
44B2
  8
0
  6
VERDECKT
 62
     1
 10
1322.3038504617609
 20
346.99999999999989
 30
0.000000000000077
 11
1324.3038504617609
 21
346.99999999999989
 31
0.000000000000077
210
0.0
220
1.0
230
0.0000000000000002
  0
LINE
  5
44B3
  8
0
  6
VERDECKT
 62
     1
 10
1322.3038504617609
 20
356.99999999999989
 30
0.0000000000000793
 11
1324.3038504617609
 21
356.99999999999989
 31
0.0000000000000793
210
0.0
220
1.0
230
0.0000000000000002
  0
LINE
  5
44B4
  8
0
  6
VERDECKT
 62
     1
 10
1324.3038504617609
 20
316.99999999999977
 30
0.0000000000000704
 11
1322.3038504617609
 21
316.99999999999977
 31
0.0000000000000704
210
0.0
220
1.0
230
0.0000000000000002
  0
LINE
  5
44B5
  8
0
  6
VERDECKT
 62
     1
 10
1324.3038504617609
 20
326.99999999999989
 30
0.0000000000000726
 11
1322.3038504617609
 21
326.99999999999989
 31
0.0000000000000726
210
0.0
220
1.0
230
0.0000000000000002
  0
LINE
  5
44B6
  8
0
  6
VERDECKT
 62
     1
 10
1324.3038504617609
 20
331.99999999999989
 30
0.0000000000000737
 11
1322.3038504617609
 21
331.99999999999989
 31
0.0000000000000737
210
0.0
220
1.0
230
0.0000000000000002
  0
LINE
  5
44B7
  8
0
  6
VERDECKT
 62
     1
 10
1324.3038504617609
 20
341.99999999999977
 30
0.0000000000000759
 11
1322.3038504617609
 21
341.99999999999977
 31
0.0000000000000759
210
0.0
220
1.0
230
0.0000000000000002
  0
LINE
  5
44B8
  8
0
  6
VERDECKT
 62
     1
 10
1324.3038504617609
 20
311.99999999999989
 30
0.0000000000000693
 11
1322.3038504617609
 21
311.99999999999989
 31
0.0000000000000693
210
0.0
220
1.0
230
0.0000000000000002
  0
LINE
  5
44B9
  8
0
  6
VERDECKT
 62
     1
 10
1324.3038504617609
 20
302.0
 30
0.0000000000000671
 11
1322.3038504617609
 21
302.0
 31
0.0000000000000671
210
0.0
220
1.0
230
0.0000000000000002
  0
LINE
  5
44BA
  8
0
  6
VERDECKT
 62
     1
 10
1322.8038504617609
 20
373.0
 30
0.0000000000000828
 11
1326.3038504617609
 21
373.0
 31
0.0000000000000828
210
0.0
220
1.0
230
0.0000000000000002
  0
ARC
  5
44BB
  8
0
  6
VERDECKT
 62
     1
 10
-1326.303850461775
 20
372.99999999999079
 30
0.0
 40
4.0000000000166249
210
0.0
220
0.0000000000000002
230
-1.0
 50
28.955024371879919
 51
37.828540315503417
  0
ARC
  5
44BC
  8
0
  6
VERDECKT
 62
     1
 10
-1326.3038504617639
 20
372.99999999999193
 30
0.0
 40
4.0000000000090052
210
0.0
220
0.0000000000000002
230
-1.0
 50
60.000000000010552
 51
69.295188945472475
  0
ARC
  5
44BD
  8
0
  6
VERDECKT
 62
     1
 10
1326.3038504617609
 20
373.00000000000011
 30
0.0000000000000828
 40
2.0000000000000151
 50
134.99999999968671
 51
179.99999999999841
  0
LINE
  5
44BE
  8
0
  6
VERDECKT
 62
     1
 10
1324.8896368993951
 20
376.74165738677692
 30
0.0000000000000837
 11
1324.8896368993951
 21
374.41421356238089
 31
0.0000000000000831
210
0.0
220
1.0
230
0.0000000000000002
  0
LINE
  5
44BF
  8
0
  6
VERDECKT
 62
     1
 10
1326.3038504617609
 20
373.0
 30
0.0000000000000828
 11
1326.3038504617609
 21
376.7416573867709
 31
0.0000000000000837
210
0.0
220
1.0
230
0.0000000000000002
  0
ARC
  5
44C0
  8
0
  6
VERDECKT
 62
     1
 10
1326.3038504617609
 20
373.00000000000023
 30
0.0000000000000828
 40
1.9999999999999989
 50
90.0
 51
134.99999999968989
  0
LINE
  5
44C1
  8
0
  6
VERDECKT
 62
     1
 10
1327.718064024142
 20
375.00000000000023
 30
0.0000000000000833
 11
1326.3038504617609
 21
375.00000000000023
 31
0.0000000000000833
210
0.0
220
1.0
230
0.0000000000000002
  0
LINE
  5
44C2
  8
0
  6
VERDECKT
 62
     1
 10
1332.3038504617689
 20
377.00000000000023
 30
0.0000000000000837
 11
1332.3038504617689
 21
375.00000000000023
 31
0.0000000000000833
210
0.0
220
1.0
230
0.0000000000000002
  0
ARC
  5
44C3
  8
0
  6
VERDECKT
 62
     1
 10
-1326.3038504617609
 20
373.0
 30
0.0
 40
3.9999999999999991
210
0.0
220
0.0000000000000002
230
-1.0
 50
69.295188945482479
 51
90.000000000000028
  0
LINE
  5
44C4
  8
0
  6
VERDECKT
 62
     1
 10
1324.3038504617609
 20
242.0
 30
0.0000000000000537
 11
1324.3038504617609
 21
373.00000000000023
 31
0.0000000000000828
210
0.0
220
1.0
230
0.0000000000000002
  0
ARC
  5
44C5
  8
0
  6
VERDECKT
 62
     1
 10
-1327.718064024142
 20
373.00000000000023
 30
0.0
 40
1.9999999999999989
210
0.0
220
0.0000000000000002
230
-1.0
 50
44.99999999966537
 51
90.000000000000028
  0
LINE
  5
44C6
  8
0
  6
VERDECKT
 62
     1
 10
1327.718064024142
 20
375.00000000000023
 30
0.0000000000000833
 11
1524.3038504617609
 21
375.00000000000023
 31
0.0000000000000833
210
0.0
220
1.0
230
0.0000000000000002
  0
LINE
  5
44C7
  8
0
  6
VERDECKT
 62
     1
 10
1333.718064024142
 20
377.00000000000023
 30
0.0000000000000837
 11
1333.718064024142
 21
375.00000000000023
 31
0.0000000000000833
210
0.0
220
1.0
230
0.0000000000000002
  0
ARC
  5
44C8
  8
0
  6
VERDECKT
 62
     1
 10
1327.718064024142
 20
373.0
 30
0.0000000000000828
 40
3.9999999999999991
 50
90.0
 51
110.7048110547608
  0
LINE
  5
44C9
  8
0
  6
VERDECKT
 62
     1
 10
1914.1018836789119
 20
173.2775629709939
 30
0.0000000000000385
 11
1530.3017150103969
 21
193.39167749936871
 31
0.0000000000000429
210
0.0
220
1.0
230
0.0000000000000002
  0
LINE
  5
44CA
  8
0
  6
VERDECKT
 62
     1
 10
1919.2308073907211
 20
271.1432573769323
 30
0.0000000000000602
 11
1530.3017150103969
 21
291.52616740715519
 31
0.0000000000000647
210
0.0
220
1.0
230
0.0000000000000002
  0
LINE
  5
44CB
  8
0
  6
VERDECKT
 62
     1
 10
1924.2215690990231
 20
173.63095017287401
 30
0.0000000000000386
 11
1914.1018836789119
 21
173.27756297098881
 31
0.0000000000000385
210
0.0
220
1.0
230
0.0000000000000002
  0
LINE
  5
44CC
  8
0
  6
VERDECKT
 62
     1
 10
1929.258117094108
 20
269.73401090140328
 30
0.0000000000000599
 11
1919.2308073907211
 21
271.14325737693741
 31
0.0000000000000602
210
0.0
220
1.0
230
0.0000000000000002
  0
LINE
  5
44CD
  8
0
  6
VERDECKT
 62
     1
 10
1528.3017150104081
 20
342.6977402824092
 30
0.0000000000000761
 11
1528.2995761315949
 21
342.6977402824092
 31
0.0000000000000761
210
0.0
220
1.0
230
0.0000000000000002
  0
LINE
  5
44CE
  8
0
  6
VERDECKT
 62
     1
 10
1530.2295240399301
 20
342.0609071200177
 30
0.000000000000076
 11
1528.3017150104081
 21
340.69774028240909
 31
0.0000000000000757
210
0.0
220
1.0
230
0.0000000000000002
  0
LINE
  5
44CF
  8
0
  6
VERDECKT
 62
     1
 10
1528.3017150104081
 20
340.69774028240931
 30
0.0000000000000757
 11
1528.3017150104081
 21
342.6977402824092
 31
0.0000000000000761
210
0.0
220
1.0
230
0.0000000000000002
  0
LINE
  5
44D0
  8
0
  6
VERDECKT
 62
     1
 10
1340.3038504617609
 20
242.0
 30
0.0000000000000537
 11
1340.3038504617609
 21
240.0
 31
0.0000000000000533
210
0.0
220
1.0
230
0.0000000000000002
  0
LINE
  5
44D1
  8
0
  6
VERDECKT
 62
     1
 10
1328.3038504617609
 20
242.0
 30
0.0000000000000537
 11
1328.3038504617609
 21
240.0
 31
0.0000000000000533
210
0.0
220
1.0
230
0.0000000000000002
  0
LINE
  5
44D2
  8
0
  6
VERDECKT
 62
     1
 10
1425.3038504617609
 20
242.0
 30
0.0000000000000537
 11
1425.3038504617609
 21
240.0
 31
0.0000000000000533
210
0.0
220
1.0
230
0.0000000000000002
  0
LINE
  5
44D3
  8
0
  6
VERDECKT
 62
     1
 10
1407.30385046176
 20
242.0
 30
0.0000000000000537
 11
1407.30385046176
 21
240.0
 31
0.0000000000000533
210
0.0
220
1.0
230
0.0000000000000002
  0
LINE
  5
44D4
  8
0
  6
VERDECKT
 62
     1
 10
1530.301715010396
 20
342.1119538447748
 30
0.000000000000076
 11
1530.2295240399301
 21
342.0609071200177
 31
0.000000000000076
210
0.0
220
1.0
230
0.0000000000000002
  0
LINE
  5
44D5
  8
0
  6
VERDECKT
 62
     1
 10
1530.30385046176
 20
403.5
 30
0.0000000000000896
 11
1528.30385046176
 21
401.49999999999977
 31
0.0000000000000892
210
0.0
220
1.0
230
0.0000000000000002
  0
LINE
  5
44D6
  8
0
  6
VERDECKT
 62
     1
 10
1530.30385046176
 20
410.5
 30
0.0000000000000911
 11
1528.30385046176
 21
412.5
 31
0.0000000000000916
210
0.0
220
1.0
230
0.0000000000000002
  0
LINE
  5
44D7
  8
0
  6
VERDECKT
 62
     1
 10
1259.8038504617609
 20
240.00000000000011
 30
0.0000000000000533
 11
1257.8038504617609
 21
242.00000000000011
 31
0.0000000000000537
210
0.0
220
1.0
230
0.0000000000000002
  0
LINE
  5
44D8
  8
0
  6
VERDECKT
 62
     1
 10
1266.8038504617609
 20
240.00000000000011
 30
0.0000000000000533
 11
1268.80385046176
 21
242.00000000000011
 31
0.0000000000000537
210
0.0
220
1.0
230
0.0000000000000002
  0
LINE
  5
44D9
  8
0
  6
VERDECKT
 62
     1
 10
1374.8038504617609
 20
240.00000000000011
 30
0.0000000000000533
 11
1372.8038504617609
 21
242.00000000000011
 31
0.0000000000000537
210
0.0
220
1.0
230
0.0000000000000002
  0
LINE
  5
44DA
  8
0
  6
VERDECKT
 62
     1
 10
1381.8038504617609
 20
240.00000000000011
 30
0.0000000000000533
 11
1383.8038504617609
 21
242.00000000000011
 31
0.0000000000000537
210
0.0
220
1.0
230
0.0000000000000002
  0
LINE
  5
44DB
  8
0
  6
VERDECKT
 62
     1
 10
1336.703850461761
 20
242.0
 30
0.0000000000000537
 11
1336.703850461761
 21
240.0
 31
0.0000000000000533
210
0.0
220
1.0
230
0.0000000000000002
  0
LINE
  5
44DC
  8
0
  6
VERDECKT
 62
     1
 10
1331.9038504617611
 20
242.0
 30
0.0000000000000537
 11
1331.9038504617611
 21
240.0
 31
0.0000000000000533
210
0.0
220
1.0
230
0.0000000000000002
  0
LINE
  5
44DD
  8
0
  6
VERDECKT
 62
     1
 10
1528.301715010396
 20
340.69774028240829
 30
0.0000000000000757
 11
1528.3017150103969
 21
195.52616740715521
 31
0.0000000000000434
210
0.0
220
1.0
230
0.0000000000000002
  0
ARC
  5
44DE
  8
0
  6
VERDECKT
 62
     1
 10
1526.3017150103969
 20
195.52616740715521
 30
0.0000000000000434
 40
2.0
 50
270.0
 51
0.0000000000002036
  0
LINE
  5
44DF
  8
0
  6
VERDECKT
 62
     1
 10
1526.3017150103969
 20
193.52616740715521
 30
0.000000000000043
 11
1330.3017150103969
 21
193.52616740715521
 31
0.000000000000043
210
0.0
220
1.0
230
0.0000000000000002
  0
ARC
  5
44E0
  8
0
  6
VERDECKT
 62
     1
 10
1330.3017150103969
 20
195.52616740715521
 30
0.0000000000000434
 40
2.0
 50
180.0000000000006
 51
270.0
  0
LINE
  5
44E1
  8
0
  6
VERDECKT
 62
     1
 10
1328.3017150103969
 20
195.52616740715521
 30
0.0000000000000434
 11
1328.3017150103969
 21
241.5261674071551
 31
0.0000000000000536
210
0.0
220
1.0
230
0.0000000000000002
  0
LINE
  5
44E2
  8
0
  6
VERDECKT
 62
     1
 10
1430.301715010396
 20
242.697740282409
 30
0.0000000000000539
 11
1530.3017150103969
 21
342.6977402824092
 31
0.0000000000000761
210
0.0
220
1.0
230
0.0000000000000002
  0
ARC
  5
44E3
  8
0
  6
VERDECKT
 62
     1
 10
1427.4732878856501
 20
245.5261674071555
 30
0.0000000000000545
 40
4.0000000000002842
 50
270.0
 51
314.9999999999971
  0
LINE
  5
44E4
  8
0
  6
VERDECKT
 62
     1
 10
1326.3017150103969
 20
240.00000000000011
 30
0.0000000000000533
 11
1326.3017150103969
 21
241.5261674071551
 31
0.0000000000000536
210
0.0
220
1.0
230
0.0000000000000002
  0
LINE
  5
44E5
  8
0
  6
VERDECKT
 62
     1
 10
1326.3017150103969
 20
241.5261674071551
 30
0.0000000000000536
 11
1427.4732878856501
 21
241.5261674071551
 31
0.0000000000000536
210
0.0
220
1.0
230
0.0000000000000002
  0
LINE
  5
44E6
  8
0
  6
VERDECKT
 62
     1
 10
1529.7658166255339
 20
193.52616740715521
 30
0.000000000000043
 11
1526.3017150103969
 21
193.52616740715521
 31
0.000000000000043
210
0.0
220
1.0
230
0.0000000000000002
  0
LINE
  5
44E7
  8
0
  6
VERDECKT
 62
     1
 10
1530.3017150103969
 20
291.52616740715519
 30
0.0000000000000647
 11
1528.301715010396
 21
291.52616740715519
 31
0.0000000000000647
210
0.0
220
1.0
230
0.0000000000000002
  0
ENDBLK
  5
44E9
  8
0
  0
BLOCK
  8
0
  2
A$C5C3565A8
 70
     0
 10
0.0
 20
0.0
 30
0.0
  3
A$C5C3565A8
  1

  0
LINE
  5
44ED
  8
0
  6
CONTINUOUS
 62
     3
 10
1320.3038504617609
 20
487.72848099074201
 30
0.0000000000002842
 11
1324.3038504617609
 21
487.72848099074201
 31
0.0000000000002842
  0
LINE
  5
44EE
  8
0
  6
CONTINUOUS
 62
     3
 10
1324.3038504617609
 20
229.5284809907418
 30
0.0000000000002842
 11
1320.3038504617609
 21
229.5284809907418
 31
0.0000000000002842
  0
LINE
  5
44EF
  8
0
  6
CONTINUOUS
 62
     3
 10
1324.3038504617609
 20
226.12848099074179
 30
0.0000000000002842
 11
1324.3038504617609
 21
229.5284809907418
 31
0.0000000000002842
  0
LINE
  5
44F0
  8
0
  6
CONTINUOUS
 62
     3
 10
1322.8038504617609
 20
491.12531045823698
 30
0.0000000000002842
 11
1322.8038504617609
 21
489.1234436983454
 31
0.0000000000002842
  0
LINE
  5
44F1
  8
0
  6
CONTINUOUS
 62
     3
 10
1324.3038504617609
 20
489.1234436983454
 30
0.0000000000002842
 11
1322.80385046176
 21
489.1234436983454
 31
0.0000000000002839
  0
LINE
  5
44F2
  8
0
  6
CONTINUOUS
 62
     3
 10
1324.3038504617609
 20
491.12531045823698
 30
0.0000000000002842
 11
1322.80385046176
 21
491.12531045823698
 31
0.0000000000002839
  0
LINE
  5
44F3
  8
0
  6
CONTINUOUS
 62
     3
 10
1322.8038504617609
 20
489.1234436983454
 30
0.0000000000002842
 11
1322.8038504617609
 21
488.62848099074148
 31
0.0000000000002842
  0
LINE
  5
44F4
  8
0
  6
CONTINUOUS
 62
     3
 10
1324.3038504617609
 20
487.7284809907419
 30
0.0000000000002842
 11
1324.3038504617609
 21
491.12848099074182
 31
0.0000000000002842
  0
LINE
  5
44F5
  8
0
  6
CONTINUOUS
 62
     3
 10
1322.8038504617609
 20
228.1335182831385
 30
0.0000000000002842
 11
1322.8038504617609
 21
226.13165152324669
 31
0.0000000000002842
  0
LINE
  5
44F6
  8
0
  6
CONTINUOUS
 62
     3
 10
1322.8038504617609
 20
228.62848099074191
 30
0.0000000000002842
 11
1322.8038504617609
 21
228.1335182831385
 31
0.0000000000002842
  0
LINE
  5
44F7
  8
0
  6
CONTINUOUS
 62
     3
 10
1324.3038504617609
 20
226.13165152324669
 30
0.0000000000002842
 11
1322.8038504617609
 21
226.13165152324669
 31
0.0000000000002839
  0
LINE
  5
44F8
  8
0
  6
CONTINUOUS
 62
     3
 10
1324.3038504617609
 20
228.1335182831385
 30
0.0000000000002842
 11
1322.8038504617609
 21
228.1335182831385
 31
0.0000000000002839
  0
ARC
  5
44F9
  8
0
  6
CONTINUOUS
 62
     3
 10
1521.9038504617599
 20
487.72848099074201
 30
0.0000000000003411
 40
3.3999999999998871
 50
0.0
 51
90.0
  0
LINE
  5
44FA
  8
0
  6
CONTINUOUS
 62
     3
 10
1525.30385046176
 20
229.5284809907418
 30
0.0000000000003411
 11
1525.30385046176
 21
487.72848099074201
 31
0.0000000000003411
  0
ARC
  5
44FB
  8
0
  6
CONTINUOUS
 62
     3
 10
1521.9038504617611
 20
229.5284809907418
 30
0.0000000000003411
 40
3.3999999999999022
 50
270.0
 51
0.0
  0
LINE
  5
44FC
  8
0
  6
CONTINUOUS
 62
     3
 10
1324.3038504617609
 20
228.62848099074191
 30
0.0000000000002842
 11
1322.8038504617609
 21
228.62848099074191
 31
0.0000000000002839
  0
LINE
  5
44FD
  8
0
  6
CONTINUOUS
 62
     3
 10
1320.3038504617609
 20
487.72848099074201
 30
0.0000000000002842
 11
1320.3038504617609
 21
229.5284809907418
 31
0.0000000000002842
  0
LINE
  5
44FE
  8
0
  6
CONTINUOUS
 62
     3
 10
1324.3038504617609
 20
488.62848099074159
 30
0.0000000000002842
 11
1322.80385046176
 21
488.62848099074159
 31
0.0000000000002839
  0
LINE
  5
44FF
  8
0
  6
CONTINUOUS
 62
     3
 10
1521.9038504617611
 20
226.12848099074191
 30
0.0000000000003411
 11
1324.3038504617609
 21
226.12848099074191
 31
0.0000000000002961
  0
LINE
  5
4500
  8
0
  6
CONTINUOUS
 62
     3
 10
1521.9038504617599
 20
491.12848099074182
 30
0.0000000000003411
 11
1324.3038504617609
 21
491.12848099074182
 31
0.0000000000002961
  0
ARC
  5
4501
  8
0
  6
CONTINUOUS
 62
     3
 10
-1326.3038504617571
 20
484.62848099074762
 30
0.0000000000000177
 40
3.9999999999932081
210
0.0000000000000002
220
0.0
230
-1.0
 50
50.805032574010831
 51
60.000000000007631
  0
ARC
  5
4502
  8
0
  6
CONTINUOUS
 62
     3
 10
-1326.303850461758
 20
232.6284809907377
 30
0.0000000000000177
 40
3.9999999999949609
210
0.0000000000000002
220
0.0
230
-1.0
 50
299.99999999999278
 51
309.1949674259854
  0
POLYLINE
  5
4503
  8
0
  6
CONTINUOUS
 62
     3
 10
1929.3631888362947
 20
358.62848099074222
 30
0.0000000000004263
 66
     1
 70
     8
  0
VERTEX
  8
0
  5
462C
 10
1929.36
 20
358.628
 30
4.26300e-013
  70
    32
  0
VERTEX
  8
0
  5
462D
 10
1929.36
 20
359.242
 30
4.26300e-013
  70
    32
  0
VERTEX
  8
0
  5
462E
 10
1929.36
 20
359.855
 30
4.26300e-013
  70
    32
  0
VERTEX
  8
0
  5
462F
 10
1929.36
 20
360.468
 30
4.26300e-013
  70
    32
  0
VERTEX
  8
0
  5
4630
 10
1929.36
 20
361.081
 30
4.26300e-013
  70
    32
  0
VERTEX
  8
0
  5
4631
 10
1929.36
 20
361.693
 30
4.26300e-013
  70
    32
  0
VERTEX
  8
0
  5
4632
 10
1929.36
 20
362.305
 30
4.26300e-013
  70
    32
  0
VERTEX
  8
0
  5
4633
 10
1929.35
 20
362.917
 30
4.26300e-013
  70
    32
  0
VERTEX
  8
0
  5
4634
 10
1929.35
 20
363.527
 30
4.26300e-013
  70
    32
  0
VERTEX
  8
0
  5
4635
 10
1929.35
 20
364.137
 30
4.26300e-013
  70
    32
  0
VERTEX
  8
0
  5
4636
 10
1929.34
 20
364.747
 30
4.26300e-013
  70
    32
  0
VERTEX
  8
0
  5
4637
 10
1929.34
 20
365.355
 30
4.26300e-013
  70
    32
  0
VERTEX
  8
0
  5
4638
 10
1929.33
 20
365.962
 30
4.26300e-013
  70
    32
  0
VERTEX
  8
0
  5
4639
 10
1929.33
 20
366.568
 30
4.26300e-013
  70
    32
  0
VERTEX
  8
0
  5
463A
 10
1929.32
 20
367.173
 30
4.26300e-013
  70
    32
  0
VERTEX
  8
0
  5
463B
 10
1929.32
 20
367.777
 30
4.26300e-013
  70
    32
  0
VERTEX
  8
0
  5
463C
 10
1929.31
 20
368.379
 30
4.26300e-013
  70
    32
  0
VERTEX
  8
0
  5
463D
 10
1929.31
 20
368.980
 30
4.26300e-013
  70
    32
  0
VERTEX
  8
0
  5
463E
 10
1929.30
 20
369.579
 30
4.26300e-013
  70
    32
  0
VERTEX
  8
0
  5
463F
 10
1929.29
 20
370.177
 30
4.26300e-013
  70
    32
  0
VERTEX
  8
0
  5
4640
 10
1929.29
 20
370.773
 30
4.26300e-013
  70
    32
  0
VERTEX
  8
0
  5
4641
 10
1929.28
 20
371.367
 30
4.26300e-013
  70
    32
  0
VERTEX
  8
0
  5
4642
 10
1929.27
 20
371.959
 30
4.26300e-013
  70
    32
  0
VERTEX
  8
0
  5
4643
 10
1929.26
 20
372.550
 30
4.26300e-013
  70
    32
  0
VERTEX
  8
0
  5
4644
 10
1929.25
 20
373.138
 30
4.26300e-013
  70
    32
  0
VERTEX
  8
0
  5
4645
 10
1929.24
 20
373.724
 30
4.26300e-013
  70
    32
  0
VERTEX
  8
0
  5
4646
 10
1929.23
 20
374.307
 30
4.26300e-013
  70
    32
  0
VERTEX
  8
0
  5
4647
 10
1929.22
 20
374.889
 30
4.26300e-013
  70
    32
  0
VERTEX
  8
0
  5
4648
 10
1929.21
 20
375.468
 30
4.26300e-013
  70
    32
  0
VERTEX
  8
0
  5
4649
 10
1929.20
 20
376.044
 30
4.26300e-013
  70
    32
  0
VERTEX
  8
0
  5
464A
 10
1929.19
 20
376.618
 30
4.26300e-013
  70
    32
  0
VERTEX
  8
0
  5
464B
 10
1929.18
 20
377.189
 30
4.26300e-013
  70
    32
  0
VERTEX
  8
0
  5
464C
 10
1929.16
 20
377.757
 30
4.26300e-013
  70
    32
  0
VERTEX
  8
0
  5
464D
 10
1929.15
 20
378.323
 30
4.26300e-013
  70
    32
  0
VERTEX
  8
0
  5
464E
 10
1929.14
 20
378.885
 30
4.26300e-013
  70
    32
  0
VERTEX
  8
0
  5
464F
 10
1929.13
 20
379.445
 30
4.26300e-013
  70
    32
  0
VERTEX
  8
0
  5
4650
 10
1929.11
 20
380.001
 30
4.26300e-013
  70
    32
  0
VERTEX
  8
0
  5
4651
 10
1929.10
 20
380.554
 30
4.26300e-013
  70
    32
  0
VERTEX
  8
0
  5
4652
 10
1929.08
 20
381.104
 30
4.26300e-013
  70
    32
  0
VERTEX
  8
0
  5
4653
 10
1929.07
 20
381.651
 30
4.26300e-013
  70
    32
  0
VERTEX
  8
0
  5
4654
 10
1929.06
 20
382.194
 30
4.26300e-013
  70
    32
  0
VERTEX
  8
0
  5
4655
 10
1929.04
 20
382.733
 30
4.26300e-013
  70
    32
  0
VERTEX
  8
0
  5
4656
 10
1929.02
 20
383.269
 30
4.26300e-013
  70
    32
  0
VERTEX
  8
0
  5
4657
 10
1929.01
 20
383.802
 30
4.26300e-013
  70
    32
  0
VERTEX
  8
0
  5
4658
 10
1928.99
 20
384.330
 30
4.26300e-013
  70
    32
  0
VERTEX
  8
0
  5
4659
 10
1928.98
 20
384.855
 30
4.26300e-013
  70
    32
  0
VERTEX
  8
0
  5
465A
 10
1928.96
 20
385.375
 30
4.26300e-013
  70
    32
  0
VERTEX
  8
0
  5
465B
 10
1928.94
 20
385.892
 30
4.26300e-013
  70
    32
  0
VERTEX
  8
0
  5
465C
 10
1928.92
 20
386.405
 30
4.26300e-013
  70
    32
  0
VERTEX
  8
0
  5
465D
 10
1928.91
 20
386.913
 30
4.26300e-013
  70
    32
  0
VERTEX
  8
0
  5
465E
 10
1928.89
 20
387.417
 30
4.26300e-013
  70
    32
  0
VERTEX
  8
0
  5
465F
 10
1928.87
 20
387.917
 30
4.26300e-013
  70
    32
  0
VERTEX
  8
0
  5
4660
 10
1928.85
 20
388.413
 30
4.26300e-013
  70
    32
  0
VERTEX
  8
0
  5
4661
 10
1928.83
 20
388.904
 30
4.26300e-013
  70
    32
  0
VERTEX
  8
0
  5
4662
 10
1928.81
 20
389.391
 30
4.26300e-013
  70
    32
  0
VERTEX
  8
0
  5
4663
 10
1928.79
 20
389.872
 30
4.26300e-013
  70
    32
  0
VERTEX
  8
0
  5
4664
 10
1928.77
 20
390.350
 30
4.26300e-013
  70
    32
  0
VERTEX
  8
0
  5
4665
 10
1928.75
 20
390.822
 30
4.26300e-013
  70
    32
  0
VERTEX
  8
0
  5
4666
 10
1928.73
 20
391.290
 30
4.26300e-013
  70
    32
  0
VERTEX
  8
0
  5
4667
 10
1928.71
 20
391.753
 30
4.26300e-013
  70
    32
  0
VERTEX
  8
0
  5
4668
 10
1928.69
 20
392.211
 30
4.26300e-013
  70
    32
  0
VERTEX
  8
0
  5
4669
 10
1928.67
 20
392.663
 30
4.26300e-013
  70
    32
  0
VERTEX
  8
0
  5
466A
 10
1928.64
 20
393.111
 30
4.26300e-013
  70
    32
  0
VERTEX
  8
0
  5
466B
 10
1928.62
 20
393.554
 30
4.26300e-013
  70
    32
  0
VERTEX
  8
0
  5
466C
 10
1928.60
 20
393.991
 30
4.26300e-013
  70
    32
  0
VERTEX
  8
0
  5
466D
 10
1928.58
 20
394.423
 30
4.26300e-013
  70
    32
  0
VERTEX
  8
0
  5
466E
 10
1928.55
 20
394.850
 30
4.26300e-013
  70
    32
  0
VERTEX
  8
0
  5
466F
 10
1928.53
 20
395.271
 30
4.26300e-013
  70
    32
  0
VERTEX
  8
0
  5
4670
 10
1928.51
 20
395.687
 30
4.26300e-013
  70
    32
  0
VERTEX
  8
0
  5
4671
 10
1928.48
 20
396.097
 30
4.26300e-013
  70
    32
  0
VERTEX
  8
0
  5
4672
 10
1928.46
 20
396.501
 30
4.26300e-013
  70
    32
  0
VERTEX
  8
0
  5
4673
 10
1928.43
 20
396.900
 30
4.26300e-013
  70
    32
  0
VERTEX
  8
0
  5
4674
 10
1928.41
 20
397.294
 30
4.26300e-013
  70
    32
  0
VERTEX
  8
0
  5
4675
 10
1928.38
 20
397.681
 30
4.26300e-013
  70
    32
  0
VERTEX
  8
0
  5
4676
 10
1928.36
 20
398.063
 30
4.26300e-013
  70
    32
  0
VERTEX
  8
0
  5
4677
 10
1928.33
 20
398.438
 30
4.26300e-013
  70
    32
  0
VERTEX
  8
0
  5
4678
 10
1928.31
 20
398.808
 30
4.26300e-013
  70
    32
  0
VERTEX
  8
0
  5
4679
 10
1928.28
 20
399.172
 30
4.26300e-013
  70
    32
  0
VERTEX
  8
0
  5
467A
 10
1928.26
 20
399.529
 30
4.26300e-013
  70
    32
  0
VERTEX
  8
0
  5
467B
 10
1928.23
 20
399.881
 30
4.26300e-013
  70
    32
  0
VERTEX
  8
0
  5
467C
 10
1928.20
 20
400.226
 30
4.26300e-013
  70
    32
  0
VERTEX
  8
0
  5
467D
 10
1928.18
 20
400.565
 30
4.26300e-013
  70
    32
  0
VERTEX
  8
0
  5
467E
 10
1928.15
 20
400.898
 30
4.26300e-013
  70
    32
  0
VERTEX
  8
0
  5
467F
 10
1928.12
 20
401.224
 30
4.26300e-013
  70
    32
  0
VERTEX
  8
0
  5
4680
 10
1928.10
 20
401.544
 30
4.26300e-013
  70
    32
  0
VERTEX
  8
0
  5
4681
 10
1928.07
 20
401.858
 30
4.26300e-013
  70
    32
  0
VERTEX
  8
0
  5
4682
 10
1928.04
 20
402.165
 30
4.26300e-013
  70
    32
  0
VERTEX
  8
0
  5
4683
 10
1928.01
 20
402.466
 30
4.26300e-013
  70
    32
  0
VERTEX
  8
0
  5
4684
 10
1927.98
 20
402.760
 30
4.26300e-013
  70
    32
  0
VERTEX
  8
0
  5
4685
 10
1927.96
 20
403.048
 30
4.26300e-013
  70
    32
  0
VERTEX
  8
0
  5
4686
 10
1927.93
 20
403.329
 30
4.26300e-013
  70
    32
  0
VERTEX
  8
0
  5
4687
 10
1927.90
 20
403.603
 30
4.26300e-013
  70
    32
  0
VERTEX
  8
0
  5
4688
 10
1927.87
 20
403.870
 30
4.26300e-013
  70
    32
  0
VERTEX
  8
0
  5
4689
 10
1927.84
 20
404.131
 30
4.26300e-013
  70
    32
  0
VERTEX
  8
0
  5
468A
 10
1927.81
 20
404.385
 30
4.26300e-013
  70
    32
  0
VERTEX
  8
0
  5
468B
 10
1927.78
 20
404.632
 30
4.26300e-013
  70
    32
  0
VERTEX
  8
0
  5
468C
 10
1927.75
 20
404.872
 30
4.26300e-013
  70
    32
  0
VERTEX
  8
0
  5
468D
 10
1927.72
 20
405.105
 30
4.26300e-013
  70
    32
  0
VERTEX
  8
0
  5
468E
 10
1927.69
 20
405.331
 30
4.26300e-013
  70
    32
  0
VERTEX
  8
0
  5
468F
 10
1927.66
 20
405.550
 30
4.26300e-013
  70
    32
  0
VERTEX
  8
0
  5
4690
 10
1927.63
 20
405.763
 30
4.26300e-013
  70
    32
  0
VERTEX
  8
0
  5
4691
 10
1927.60
 20
405.968
 30
4.26300e-013
  70
    32
  0
VERTEX
  8
0
  5
4692
 10
1927.57
 20
406.166
 30
4.26300e-013
  70
    32
  0
VERTEX
  8
0
  5
4693
 10
1927.54
 20
406.357
 30
4.26300e-013
  70
    32
  0
VERTEX
  8
0
  5
4694
 10
1927.51
 20
406.541
 30
4.26300e-013
  70
    32
  0
VERTEX
  8
0
  5
4695
 10
1927.48
 20
406.717
 30
4.26300e-013
  70
    32
  0
VERTEX
  8
0
  5
4696
 10
1927.45
 20
406.887
 30
4.26300e-013
  70
    32
  0
VERTEX
  8
0
  5
4697
 10
1927.42
 20
407.049
 30
4.26300e-013
  70
    32
  0
VERTEX
  8
0
  5
4698
 10
1927.39
 20
407.204
 30
4.26300e-013
  70
    32
  0
VERTEX
  8
0
  5
4699
 10
1927.36
 20
407.352
 30
4.26300e-013
  70
    32
  0
VERTEX
  8
0
  5
469A
 10
1927.32
 20
407.492
 30
4.26300e-013
  70
    32
  0
VERTEX
  8
0
  5
469B
 10
1927.29
 20
407.625
 30
4.26300e-013
  70
    32
  0
VERTEX
  8
0
  5
469C
 10
1927.26
 20
407.751
 30
4.26300e-013
  70
    32
  0
VERTEX
  8
0
  5
469D
 10
1927.23
 20
407.869
 30
4.26300e-013
  70
    32
  0
VERTEX
  8
0
  5
469E
 10
1927.20
 20
407.980
 30
4.26300e-013
  70
    32
  0
VERTEX
  8
0
  5
469F
 10
1927.17
 20
408.084
 30
4.26300e-013
  70
    32
  0
VERTEX
  8
0
  5
46A0
 10
1927.14
 20
408.180
 30
4.26300e-013
  70
    32
  0
VERTEX
  8
0
  5
46A1
 10
1927.10
 20
408.269
 30
4.26300e-013
  70
    32
  0
VERTEX
  8
0
  5
46A2
 10
1927.07
 20
408.350
 30
4.26300e-013
  70
    32
  0
VERTEX
  8
0
  5
46A3
 10
1927.04
 20
408.424
 30
4.26300e-013
  70
    32
  0
VERTEX
  8
0
  5
46A4
 10
1927.01
 20
408.491
 30
4.26300e-013
  70
    32
  0
VERTEX
  8
0
  5
46A5
 10
1926.98
 20
408.550
 30
4.26300e-013
  70
    32
  0
VERTEX
  8
0
  5
46A6
 10
1926.94
 20
408.601
 30
4.26300e-013
  70
    32
  0
VERTEX
  8
0
  5
46A7
 10
1926.91
 20
408.645
 30
4.26300e-013
  70
    32
  0
VERTEX
  8
0
  5
46A8
 10
1926.88
 20
408.682
 30
4.26300e-013
  70
    32
  0
VERTEX
  8
0
  5
46A9
 10
1926.85
 20
408.711
 30
4.26300e-013
  70
    32
  0
VERTEX
  8
0
  5
46AA
 10
1926.82
 20
408.732
 30
4.26300e-013
  70
    32
  0
VERTEX
  8
0
  5
46AB
 10
1926.78
 20
408.747
 30
4.26300e-013
  70
    32
  0
VERTEX
  8
0
  5
46AC
 10
1926.75
 20
408.753
 30
4.26300e-013
  70
    32
  0
SEQEND
  8
0
  5
46AD
  0
POLYLINE
  5
4504
  8
0
  6
CONTINUOUS
 62
     3
 10
1926.751871363879
 20
308.50389451937178
 30
0.0000000000004263
 66
     1
 70
     8
  0
VERTEX
  8
0
  5
46AE
 10
1926.75
 20
308.504
 30
4.26300e-013
  70
    32
  0
VERTEX
  8
0
  5
46AF
 10
1926.78
 20
308.510
 30
4.26300e-013
  70
    32
  0
VERTEX
  8
0
  5
46B0
 10
1926.82
 20
308.525
 30
4.26300e-013
  70
    32
  0
VERTEX
  8
0
  5
46B1
 10
1926.85
 20
308.546
 30
4.26300e-013
  70
    32
  0
VERTEX
  8
0
  5
46B2
 10
1926.88
 20
308.575
 30
4.26300e-013
  70
    32
  0
VERTEX
  8
0
  5
46B3
 10
1926.91
 20
308.612
 30
4.26300e-013
  70
    32
  0
VERTEX
  8
0
  5
46B4
 10
1926.94
 20
308.656
 30
4.26300e-013
  70
    32
  0
VERTEX
  8
0
  5
46B5
 10
1926.98
 20
308.707
 30
4.26300e-013
  70
    32
  0
VERTEX
  8
0
  5
46B6
 10
1927.01
 20
308.766
 30
4.26300e-013
  70
    32
  0
VERTEX
  8
0
  5
46B7
 10
1927.04
 20
308.833
 30
4.26300e-013
  70
    32
  0
VERTEX
  8
0
  5
46B8
 10
1927.07
 20
308.907
 30
4.26300e-013
  70
    32
  0
VERTEX
  8
0
  5
46B9
 10
1927.10
 20
308.988
 30
4.26300e-013
  70
    32
  0
VERTEX
  8
0
  5
46BA
 10
1927.14
 20
309.077
 30
4.26300e-013
  70
    32
  0
VERTEX
  8
0
  5
46BB
 10
1927.17
 20
309.173
 30
4.26300e-013
  70
    32
  0
VERTEX
  8
0
  5
46BC
 10
1927.20
 20
309.277
 30
4.26300e-013
  70
    32
  0
VERTEX
  8
0
  5
46BD
 10
1927.23
 20
309.388
 30
4.26300e-013
  70
    32
  0
VERTEX
  8
0
  5
46BE
 10
1927.26
 20
309.506
 30
4.26300e-013
  70
    32
  0
VERTEX
  8
0
  5
46BF
 10
1927.29
 20
309.632
 30
4.26300e-013
  70
    32
  0
VERTEX
  8
0
  5
46C0
 10
1927.32
 20
309.765
 30
4.26300e-013
  70
    32
  0
VERTEX
  8
0
  5
46C1
 10
1927.36
 20
309.905
 30
4.26300e-013
  70
    32
  0
VERTEX
  8
0
  5
46C2
 10
1927.39
 20
310.053
 30
4.26300e-013
  70
    32
  0
VERTEX
  8
0
  5
46C3
 10
1927.42
 20
310.208
 30
4.26300e-013
  70
    32
  0
VERTEX
  8
0
  5
46C4
 10
1927.45
 20
310.370
 30
4.26300e-013
  70
    32
  0
VERTEX
  8
0
  5
46C5
 10
1927.48
 20
310.540
 30
4.26300e-013
  70
    32
  0
VERTEX
  8
0
  5
46C6
 10
1927.51
 20
310.716
 30
4.26300e-013
  70
    32
  0
VERTEX
  8
0
  5
46C7
 10
1927.54
 20
310.900
 30
4.26300e-013
  70
    32
  0
VERTEX
  8
0
  5
46C8
 10
1927.57
 20
311.091
 30
4.26300e-013
  70
    32
  0
VERTEX
  8
0
  5
46C9
 10
1927.60
 20
311.289
 30
4.26300e-013
  70
    32
  0
VERTEX
  8
0
  5
46CA
 10
1927.63
 20
311.494
 30
4.26300e-013
  70
    32
  0
VERTEX
  8
0
  5
46CB
 10
1927.66
 20
311.706
 30
4.26300e-013
  70
    32
  0
VERTEX
  8
0
  5
46CC
 10
1927.69
 20
311.926
 30
4.26300e-013
  70
    32
  0
VERTEX
  8
0
  5
46CD
 10
1927.72
 20
312.152
 30
4.26300e-013
  70
    32
  0
VERTEX
  8
0
  5
46CE
 10
1927.75
 20
312.385
 30
4.26300e-013
  70
    32
  0
VERTEX
  8
0
  5
46CF
 10
1927.78
 20
312.625
 30
4.26300e-013
  70
    32
  0
VERTEX
  8
0
  5
46D0
 10
1927.81
 20
312.872
 30
4.26300e-013
  70
    32
  0
VERTEX
  8
0
  5
46D1
 10
1927.84
 20
313.126
 30
4.26300e-013
  70
    32
  0
VERTEX
  8
0
  5
46D2
 10
1927.87
 20
313.387
 30
4.26300e-013
  70
    32
  0
VERTEX
  8
0
  5
46D3
 10
1927.90
 20
313.654
 30
4.26300e-013
  70
    32
  0
VERTEX
  8
0
  5
46D4
 10
1927.93
 20
313.928
 30
4.26300e-013
  70
    32
  0
VERTEX
  8
0
  5
46D5
 10
1927.96
 20
314.209
 30
4.26300e-013
  70
    32
  0
VERTEX
  8
0
  5
46D6
 10
1927.98
 20
314.497
 30
4.26300e-013
  70
    32
  0
VERTEX
  8
0
  5
46D7
 10
1928.01
 20
314.791
 30
4.26300e-013
  70
    32
  0
VERTEX
  8
0
  5
46D8
 10
1928.04
 20
315.092
 30
4.26300e-013
  70
    32
  0
VERTEX
  8
0
  5
46D9
 10
1928.07
 20
315.399
 30
4.26300e-013
  70
    32
  0
VERTEX
  8
0
  5
46DA
 10
1928.10
 20
315.712
 30
4.26300e-013
  70
    32
  0
VERTEX
  8
0
  5
46DB
 10
1928.12
 20
316.033
 30
4.26300e-013
  70
    32
  0
VERTEX
  8
0
  5
46DC
 10
1928.15
 20
316.359
 30
4.26300e-013
  70
    32
  0
VERTEX
  8
0
  5
46DD
 10
1928.18
 20
316.692
 30
4.26300e-013
  70
    32
  0
VERTEX
  8
0
  5
46DE
 10
1928.20
 20
317.031
 30
4.26300e-013
  70
    32
  0
VERTEX
  8
0
  5
46DF
 10
1928.23
 20
317.376
 30
4.26300e-013
  70
    32
  0
VERTEX
  8
0
  5
46E0
 10
1928.26
 20
317.728
 30
4.26300e-013
  70
    32
  0
VERTEX
  8
0
  5
46E1
 10
1928.28
 20
318.085
 30
4.26300e-013
  70
    32
  0
VERTEX
  8
0
  5
46E2
 10
1928.31
 20
318.449
 30
4.26300e-013
  70
    32
  0
VERTEX
  8
0
  5
46E3
 10
1928.33
 20
318.819
 30
4.26300e-013
  70
    32
  0
VERTEX
  8
0
  5
46E4
 10
1928.36
 20
319.194
 30
4.26300e-013
  70
    32
  0
VERTEX
  8
0
  5
46E5
 10
1928.38
 20
319.576
 30
4.26300e-013
  70
    32
  0
VERTEX
  8
0
  5
46E6
 10
1928.41
 20
319.963
 30
4.26300e-013
  70
    32
  0
VERTEX
  8
0
  5
46E7
 10
1928.43
 20
320.357
 30
4.26300e-013
  70
    32
  0
VERTEX
  8
0
  5
46E8
 10
1928.46
 20
320.756
 30
4.26300e-013
  70
    32
  0
VERTEX
  8
0
  5
46E9
 10
1928.48
 20
321.160
 30
4.26300e-013
  70
    32
  0
VERTEX
  8
0
  5
46EA
 10
1928.51
 20
321.570
 30
4.26300e-013
  70
    32
  0
VERTEX
  8
0
  5
46EB
 10
1928.53
 20
321.986
 30
4.26300e-013
  70
    32
  0
VERTEX
  8
0
  5
46EC
 10
1928.55
 20
322.407
 30
4.26300e-013
  70
    32
  0
VERTEX
  8
0
  5
46ED
 10
1928.58
 20
322.834
 30
4.26300e-013
  70
    32
  0
VERTEX
  8
0
  5
46EE
 10
1928.60
 20
323.266
 30
4.26300e-013
  70
    32
  0
VERTEX
  8
0
  5
46EF
 10
1928.62
 20
323.703
 30
4.26300e-013
  70
    32
  0
VERTEX
  8
0
  5
46F0
 10
1928.64
 20
324.146
 30
4.26300e-013
  70
    32
  0
VERTEX
  8
0
  5
46F1
 10
1928.67
 20
324.594
 30
4.26300e-013
  70
    32
  0
VERTEX
  8
0
  5
46F2
 10
1928.69
 20
325.046
 30
4.26300e-013
  70
    32
  0
VERTEX
  8
0
  5
46F3
 10
1928.71
 20
325.504
 30
4.26300e-013
  70
    32
  0
VERTEX
  8
0
  5
46F4
 10
1928.73
 20
325.967
 30
4.26300e-013
  70
    32
  0
VERTEX
  8
0
  5
46F5
 10
1928.75
 20
326.435
 30
4.26300e-013
  70
    32
  0
VERTEX
  8
0
  5
46F6
 10
1928.77
 20
326.907
 30
4.26300e-013
  70
    32
  0
VERTEX
  8
0
  5
46F7
 10
1928.79
 20
327.384
 30
4.26300e-013
  70
    32
  0
VERTEX
  8
0
  5
46F8
 10
1928.81
 20
327.866
 30
4.26300e-013
  70
    32
  0
VERTEX
  8
0
  5
46F9
 10
1928.83
 20
328.353
 30
4.26300e-013
  70
    32
  0
VERTEX
  8
0
  5
46FA
 10
1928.85
 20
328.844
 30
4.26300e-013
  70
    32
  0
VERTEX
  8
0
  5
46FB
 10
1928.87
 20
329.340
 30
4.26300e-013
  70
    32
  0
VERTEX
  8
0
  5
46FC
 10
1928.89
 20
329.839
 30
4.26300e-013
  70
    32
  0
VERTEX
  8
0
  5
46FD
 10
1928.91
 20
330.344
 30
4.26300e-013
  70
    32
  0
VERTEX
  8
0
  5
46FE
 10
1928.92
 20
330.852
 30
4.26300e-013
  70
    32
  0
VERTEX
  8
0
  5
46FF
 10
1928.94
 20
331.365
 30
4.26300e-013
  70
    32
  0
VERTEX
  8
0
  5
4700
 10
1928.96
 20
331.881
 30
4.26300e-013
  70
    32
  0
VERTEX
  8
0
  5
4701
 10
1928.98
 20
332.402
 30
4.26300e-013
  70
    32
  0
VERTEX
  8
0
  5
4702
 10
1928.99
 20
332.927
 30
4.26300e-013
  70
    32
  0
VERTEX
  8
0
  5
4703
 10
1929.01
 20
333.455
 30
4.26300e-013
  70
    32
  0
VERTEX
  8
0
  5
4704
 10
1929.02
 20
333.988
 30
4.26300e-013
  70
    32
  0
VERTEX
  8
0
  5
4705
 10
1929.04
 20
334.523
 30
4.26300e-013
  70
    32
  0
VERTEX
  8
0
  5
4706
 10
1929.06
 20
335.063
 30
4.26300e-013
  70
    32
  0
VERTEX
  8
0
  5
4707
 10
1929.07
 20
335.606
 30
4.26300e-013
  70
    32
  0
VERTEX
  8
0
  5
4708
 10
1929.08
 20
336.153
 30
4.26300e-013
  70
    32
  0
VERTEX
  8
0
  5
4709
 10
1929.10
 20
336.703
 30
4.26300e-013
  70
    32
  0
VERTEX
  8
0
  5
470A
 10
1929.11
 20
337.256
 30
4.26300e-013
  70
    32
  0
VERTEX
  8
0
  5
470B
 10
1929.13
 20
337.812
 30
4.26300e-013
  70
    32
  0
VERTEX
  8
0
  5
470C
 10
1929.14
 20
338.372
 30
4.26300e-013
  70
    32
  0
VERTEX
  8
0
  5
470D
 10
1929.15
 20
338.934
 30
4.26300e-013
  70
    32
  0
VERTEX
  8
0
  5
470E
 10
1929.16
 20
339.500
 30
4.26300e-013
  70
    32
  0
VERTEX
  8
0
  5
470F
 10
1929.18
 20
340.068
 30
4.26300e-013
  70
    32
  0
VERTEX
  8
0
  5
4710
 10
1929.19
 20
340.639
 30
4.26300e-013
  70
    32
  0
VERTEX
  8
0
  5
4711
 10
1929.20
 20
341.213
 30
4.26300e-013
  70
    32
  0
VERTEX
  8
0
  5
4712
 10
1929.21
 20
341.789
 30
4.26300e-013
  70
    32
  0
VERTEX
  8
0
  5
4713
 10
1929.22
 20
342.368
 30
4.26300e-013
  70
    32
  0
VERTEX
  8
0
  5
4714
 10
1929.23
 20
342.949
 30
4.26300e-013
  70
    32
  0
VERTEX
  8
0
  5
4715
 10
1929.24
 20
343.533
 30
4.26300e-013
  70
    32
  0
VERTEX
  8
0
  5
4716
 10
1929.25
 20
344.119
 30
4.26300e-013
  70
    32
  0
VERTEX
  8
0
  5
4717
 10
1929.26
 20
344.707
 30
4.26300e-013
  70
    32
  0
VERTEX
  8
0
  5
4718
 10
1929.27
 20
345.298
 30
4.26300e-013
  70
    32
  0
VERTEX
  8
0
  5
4719
 10
1929.28
 20
345.890
 30
4.26300e-013
  70
    32
  0
VERTEX
  8
0
  5
471A
 10
1929.29
 20
346.484
 30
4.26300e-013
  70
    32
  0
VERTEX
  8
0
  5
471B
 10
1929.29
 20
347.080
 30
4.26300e-013
  70
    32
  0
VERTEX
  8
0
  5
471C
 10
1929.30
 20
347.678
 30
4.26300e-013
  70
    32
  0
VERTEX
  8
0
  5
471D
 10
1929.31
 20
348.277
 30
4.26300e-013
  70
    32
  0
VERTEX
  8
0
  5
471E
 10
1929.31
 20
348.878
 30
4.26300e-013
  70
    32
  0
VERTEX
  8
0
  5
471F
 10
1929.32
 20
349.480
 30
4.26300e-013
  70
    32
  0
VERTEX
  8
0
  5
4720
 10
1929.32
 20
350.084
 30
4.26300e-013
  70
    32
  0
VERTEX
  8
0
  5
4721
 10
1929.33
 20
350.689
 30
4.26300e-013
  70
    32
  0
VERTEX
  8
0
  5
4722
 10
1929.33
 20
351.295
 30
4.26300e-013
  70
    32
  0
VERTEX
  8
0
  5
4723
 10
1929.34
 20
351.902
 30
4.26300e-013
  70
    32
  0
VERTEX
  8
0
  5
4724
 10
1929.34
 20
352.510
 30
4.26300e-013
  70
    32
  0
VERTEX
  8
0
  5
4725
 10
1929.35
 20
353.120
 30
4.26300e-013
  70
    32
  0
VERTEX
  8
0
  5
4726
 10
1929.35
 20
353.730
 30
4.26300e-013
  70
    32
  0
VERTEX
  8
0
  5
4727
 10
1929.35
 20
354.340
 30
4.26300e-013
  70
    32
  0
VERTEX
  8
0
  5
4728
 10
1929.36
 20
354.952
 30
4.26300e-013
  70
    32
  0
VERTEX
  8
0
  5
4729
 10
1929.36
 20
355.564
 30
4.26300e-013
  70
    32
  0
VERTEX
  8
0
  5
472A
 10
1929.36
 20
356.176
 30
4.26300e-013
  70
    32
  0
VERTEX
  8
0
  5
472B
 10
1929.36
 20
356.789
 30
4.26300e-013
  70
    32
  0
VERTEX
  8
0
  5
472C
 10
1929.36
 20
357.402
 30
4.26300e-013
  70
    32
  0
VERTEX
  8
0
  5
472D
 10
1929.36
 20
358.015
 30
4.26300e-013
  70
    32
  0
VERTEX
  8
0
  5
472E
 10
1929.36
 20
358.628
 30
4.26300e-013
  70
    32
  0
SEQEND
  8
0
  5
472F
  0
POLYLINE
  5
4505
  8
0
  6
CONTINUOUS
 62
     3
 10
1916.7657859584094
 20
409.6279449009445
 30
0.0000000000004263
 66
     1
 70
     8
  0
VERTEX
  8
0
  5
4730
 10
1916.77
 20
409.628
 30
4.26300e-013
  70
    32
  0
VERTEX
  8
0
  5
4731
 10
1916.77
 20
409.628
 30
4.26300e-013
  70
    32
  0
VERTEX
  8
0
  5
4732
 10
1916.77
 20
409.628
 30
4.26300e-013
  70
    32
  0
VERTEX
  8
0
  5
4733
 10
1916.77
 20
409.628
 30
4.26300e-013
  70
    32
  0
VERTEX
  8
0
  5
4734
 10
1916.77
 20
409.628
 30
4.26300e-013
  70
    32
  0
VERTEX
  8
0
  5
4735
 10
1916.77
 20
409.628
 30
4.26300e-013
  70
    32
  0
VERTEX
  8
0
  5
4736
 10
1916.77
 20
409.628
 30
4.26300e-013
  70
    32
  0
VERTEX
  8
0
  5
4737
 10
1916.77
 20
409.628
 30
4.26300e-013
  70
    32
  0
VERTEX
  8
0
  5
4738
 10
1916.77
 20
409.628
 30
4.26300e-013
  70
    32
  0
VERTEX
  8
0
  5
4739
 10
1916.76
 20
409.628
 30
4.26300e-013
  70
    32
  0
VERTEX
  8
0
  5
473A
 10
1916.76
 20
409.628
 30
4.26300e-013
  70
    32
  0
VERTEX
  8
0
  5
473B
 10
1916.76
 20
409.628
 30
4.26300e-013
  70
    32
  0
VERTEX
  8
0
  5
473C
 10
1916.76
 20
409.628
 30
4.26300e-013
  70
    32
  0
VERTEX
  8
0
  5
473D
 10
1916.76
 20
409.628
 30
4.26300e-013
  70
    32
  0
VERTEX
  8
0
  5
473E
 10
1916.76
 20
409.628
 30
4.26300e-013
  70
    32
  0
VERTEX
  8
0
  5
473F
 10
1916.76
 20
409.628
 30
4.26300e-013
  70
    32
  0
VERTEX
  8
0
  5
4740
 10
1916.76
 20
409.628
 30
4.26300e-013
  70
    32
  0
VERTEX
  8
0
  5
4741
 10
1916.76
 20
409.628
 30
4.26300e-013
  70
    32
  0
VERTEX
  8
0
  5
4742
 10
1916.76
 20
409.628
 30
4.26300e-013
  70
    32
  0
VERTEX
  8
0
  5
4743
 10
1916.76
 20
409.628
 30
4.26300e-013
  70
    32
  0
VERTEX
  8
0
  5
4744
 10
1916.76
 20
409.628
 30
4.26300e-013
  70
    32
  0
VERTEX
  8
0
  5
4745
 10
1916.76
 20
409.628
 30
4.26300e-013
  70
    32
  0
VERTEX
  8
0
  5
4746
 10
1916.76
 20
409.628
 30
4.26300e-013
  70
    32
  0
VERTEX
  8
0
  5
4747
 10
1916.76
 20
409.628
 30
4.26300e-013
  70
    32
  0
VERTEX
  8
0
  5
4748
 10
1916.76
 20
409.628
 30
4.26300e-013
  70
    32
  0
VERTEX
  8
0
  5
4749
 10
1916.76
 20
409.628
 30
4.26300e-013
  70
    32
  0
VERTEX
  8
0
  5
474A
 10
1916.76
 20
409.628
 30
4.26300e-013
  70
    32
  0
VERTEX
  8
0
  5
474B
 10
1916.76
 20
409.628
 30
4.26300e-013
  70
    32
  0
VERTEX
  8
0
  5
474C
 10
1916.76
 20
409.628
 30
4.26300e-013
  70
    32
  0
VERTEX
  8
0
  5
474D
 10
1916.76
 20
409.628
 30
4.26300e-013
  70
    32
  0
VERTEX
  8
0
  5
474E
 10
1916.76
 20
409.628
 30
4.26300e-013
  70
    32
  0
VERTEX
  8
0
  5
474F
 10
1916.76
 20
409.628
 30
4.26300e-013
  70
    32
  0
VERTEX
  8
0
  5
4750
 10
1916.76
 20
409.628
 30
4.26300e-013
  70
    32
  0
VERTEX
  8
0
  5
4751
 10
1916.76
 20
409.628
 30
4.26300e-013
  70
    32
  0
VERTEX
  8
0
  5
4752
 10
1916.76
 20
409.628
 30
4.26300e-013
  70
    32
  0
VERTEX
  8
0
  5
4753
 10
1916.76
 20
409.628
 30
4.26300e-013
  70
    32
  0
VERTEX
  8
0
  5
4754
 10
1916.76
 20
409.628
 30
4.26300e-013
  70
    32
  0
VERTEX
  8
0
  5
4755
 10
1916.76
 20
409.628
 30
4.26300e-013
  70
    32
  0
VERTEX
  8
0
  5
4756
 10
1916.76
 20
409.628
 30
4.26300e-013
  70
    32
  0
VERTEX
  8
0
  5
4757
 10
1916.76
 20
409.628
 30
4.26300e-013
  70
    32
  0
VERTEX
  8
0
  5
4758
 10
1916.76
 20
409.628
 30
4.26300e-013
  70
    32
  0
VERTEX
  8
0
  5
4759
 10
1916.76
 20
409.628
 30
4.26300e-013
  70
    32
  0
VERTEX
  8
0
  5
475A
 10
1916.76
 20
409.628
 30
4.26300e-013
  70
    32
  0
VERTEX
  8
0
  5
475B
 10
1916.76
 20
409.628
 30
4.26300e-013
  70
    32
  0
VERTEX
  8
0
  5
475C
 10
1916.76
 20
409.628
 30
4.26300e-013
  70
    32
  0
VERTEX
  8
0
  5
475D
 10
1916.76
 20
409.628
 30
4.26300e-013
  70
    32
  0
VERTEX
  8
0
  5
475E
 10
1916.76
 20
409.628
 30
4.26300e-013
  70
    32
  0
VERTEX
  8
0
  5
475F
 10
1916.76
 20
409.628
 30
4.26300e-013
  70
    32
  0
VERTEX
  8
0
  5
4760
 10
1916.76
 20
409.628
 30
4.26300e-013
  70
    32
  0
VERTEX
  8
0
  5
4761
 10
1916.76
 20
409.628
 30
4.26300e-013
  70
    32
  0
VERTEX
  8
0
  5
4762
 10
1916.76
 20
409.628
 30
4.26300e-013
  70
    32
  0
VERTEX
  8
0
  5
4763
 10
1916.76
 20
409.628
 30
4.26300e-013
  70
    32
  0
VERTEX
  8
0
  5
4764
 10
1916.76
 20
409.628
 30
4.26300e-013
  70
    32
  0
VERTEX
  8
0
  5
4765
 10
1916.76
 20
409.628
 30
4.26300e-013
  70
    32
  0
VERTEX
  8
0
  5
4766
 10
1916.76
 20
409.628
 30
4.26300e-013
  70
    32
  0
VERTEX
  8
0
  5
4767
 10
1916.76
 20
409.628
 30
4.26300e-013
  70
    32
  0
VERTEX
  8
0
  5
4768
 10
1916.76
 20
409.628
 30
4.26300e-013
  70
    32
  0
VERTEX
  8
0
  5
4769
 10
1916.76
 20
409.628
 30
4.26300e-013
  70
    32
  0
VERTEX
  8
0
  5
476A
 10
1916.76
 20
409.628
 30
4.26300e-013
  70
    32
  0
VERTEX
  8
0
  5
476B
 10
1916.76
 20
409.628
 30
4.26300e-013
  70
    32
  0
VERTEX
  8
0
  5
476C
 10
1916.76
 20
409.628
 30
4.26300e-013
  70
    32
  0
VERTEX
  8
0
  5
476D
 10
1916.76
 20
409.628
 30
4.26300e-013
  70
    32
  0
VERTEX
  8
0
  5
476E
 10
1916.76
 20
409.628
 30
4.26300e-013
  70
    32
  0
VERTEX
  8
0
  5
476F
 10
1916.76
 20
409.628
 30
4.26300e-013
  70
    32
  0
VERTEX
  8
0
  5
4770
 10
1916.76
 20
409.628
 30
4.26300e-013
  70
    32
  0
VERTEX
  8
0
  5
4771
 10
1916.76
 20
409.628
 30
4.26300e-013
  70
    32
  0
VERTEX
  8
0
  5
4772
 10
1916.76
 20
409.628
 30
4.26300e-013
  70
    32
  0
VERTEX
  8
0
  5
4773
 10
1916.76
 20
409.628
 30
4.26300e-013
  70
    32
  0
VERTEX
  8
0
  5
4774
 10
1916.76
 20
409.628
 30
4.26300e-013
  70
    32
  0
VERTEX
  8
0
  5
4775
 10
1916.76
 20
409.628
 30
4.26300e-013
  70
    32
  0
VERTEX
  8
0
  5
4776
 10
1916.76
 20
409.628
 30
4.26300e-013
  70
    32
  0
VERTEX
  8
0
  5
4777
 10
1916.76
 20
409.628
 30
4.26300e-013
  70
    32
  0
VERTEX
  8
0
  5
4778
 10
1916.76
 20
409.628
 30
4.26300e-013
  70
    32
  0
VERTEX
  8
0
  5
4779
 10
1916.76
 20
409.628
 30
4.26300e-013
  70
    32
  0
VERTEX
  8
0
  5
477A
 10
1916.76
 20
409.628
 30
4.26300e-013
  70
    32
  0
VERTEX
  8
0
  5
477B
 10
1916.76
 20
409.628
 30
4.26300e-013
  70
    32
  0
VERTEX
  8
0
  5
477C
 10
1916.76
 20
409.628
 30
4.26300e-013
  70
    32
  0
VERTEX
  8
0
  5
477D
 10
1916.76
 20
409.628
 30
4.26300e-013
  70
    32
  0
VERTEX
  8
0
  5
477E
 10
1916.76
 20
409.628
 30
4.26300e-013
  70
    32
  0
VERTEX
  8
0
  5
477F
 10
1916.76
 20
409.628
 30
4.26300e-013
  70
    32
  0
VERTEX
  8
0
  5
4780
 10
1916.76
 20
409.628
 30
4.26300e-013
  70
    32
  0
VERTEX
  8
0
  5
4781
 10
1916.76
 20
409.628
 30
4.26300e-013
  70
    32
  0
VERTEX
  8
0
  5
4782
 10
1916.76
 20
409.628
 30
4.26300e-013
  70
    32
  0
VERTEX
  8
0
  5
4783
 10
1916.76
 20
409.628
 30
4.26300e-013
  70
    32
  0
VERTEX
  8
0
  5
4784
 10
1916.76
 20
409.628
 30
4.26300e-013
  70
    32
  0
VERTEX
  8
0
  5
4785
 10
1916.76
 20
409.628
 30
4.26300e-013
  70
    32
  0
VERTEX
  8
0
  5
4786
 10
1916.76
 20
409.628
 30
4.26300e-013
  70
    32
  0
VERTEX
  8
0
  5
4787
 10
1916.76
 20
409.628
 30
4.26300e-013
  70
    32
  0
VERTEX
  8
0
  5
4788
 10
1916.76
 20
409.628
 30
4.26300e-013
  70
    32
  0
VERTEX
  8
0
  5
4789
 10
1916.76
 20
409.628
 30
4.26300e-013
  70
    32
  0
VERTEX
  8
0
  5
478A
 10
1916.76
 20
409.628
 30
4.26300e-013
  70
    32
  0
VERTEX
  8
0
  5
478B
 10
1916.76
 20
409.628
 30
4.26300e-013
  70
    32
  0
VERTEX
  8
0
  5
478C
 10
1916.76
 20
409.628
 30
4.26300e-013
  70
    32
  0
VERTEX
  8
0
  5
478D
 10
1916.76
 20
409.628
 30
4.26300e-013
  70
    32
  0
VERTEX
  8
0
  5
478E
 10
1916.76
 20
409.628
 30
4.26300e-013
  70
    32
  0
VERTEX
  8
0
  5
478F
 10
1916.76
 20
409.628
 30
4.26300e-013
  70
    32
  0
VERTEX
  8
0
  5
4790
 10
1916.76
 20
409.628
 30
4.26300e-013
  70
    32
  0
VERTEX
  8
0
  5
4791
 10
1916.76
 20
409.628
 30
4.26300e-013
  70
    32
  0
VERTEX
  8
0
  5
4792
 10
1916.76
 20
409.628
 30
4.26300e-013
  70
    32
  0
VERTEX
  8
0
  5
4793
 10
1916.76
 20
409.628
 30
4.26300e-013
  70
    32
  0
VERTEX
  8
0
  5
4794
 10
1916.76
 20
409.628
 30
4.26300e-013
  70
    32
  0
VERTEX
  8
0
  5
4795
 10
1916.76
 20
409.628
 30
4.26300e-013
  70
    32
  0
VERTEX
  8
0
  5
4796
 10
1916.76
 20
409.628
 30
4.26300e-013
  70
    32
  0
VERTEX
  8
0
  5
4797
 10
1916.76
 20
409.628
 30
4.26300e-013
  70
    32
  0
VERTEX
  8
0
  5
4798
 10
1916.76
 20
409.628
 30
4.26300e-013
  70
    32
  0
VERTEX
  8
0
  5
4799
 10
1916.76
 20
409.628
 30
4.26300e-013
  70
    32
  0
VERTEX
  8
0
  5
479A
 10
1916.76
 20
409.628
 30
4.26300e-013
  70
    32
  0
VERTEX
  8
0
  5
479B
 10
1916.76
 20
409.628
 30
4.26300e-013
  70
    32
  0
VERTEX
  8
0
  5
479C
 10
1916.76
 20
409.628
 30
4.26300e-013
  70
    32
  0
VERTEX
  8
0
  5
479D
 10
1916.76
 20
409.628
 30
4.26300e-013
  70
    32
  0
VERTEX
  8
0
  5
479E
 10
1916.76
 20
409.628
 30
4.26300e-013
  70
    32
  0
VERTEX
  8
0
  5
479F
 10
1916.76
 20
409.628
 30
4.26300e-013
  70
    32
  0
VERTEX
  8
0
  5
47A0
 10
1916.76
 20
409.628
 30
4.26300e-013
  70
    32
  0
VERTEX
  8
0
  5
47A1
 10
1916.75
 20
409.628
 30
4.26300e-013
  70
    32
  0
VERTEX
  8
0
  5
47A2
 10
1916.75
 20
409.628
 30
4.26300e-013
  70
    32
  0
VERTEX
  8
0
  5
47A3
 10
1916.75
 20
409.628
 30
4.26300e-013
  70
    32
  0
VERTEX
  8
0
  5
47A4
 10
1916.75
 20
409.628
 30
4.26300e-013
  70
    32
  0
VERTEX
  8
0
  5
47A5
 10
1916.75
 20
409.628
 30
4.26300e-013
  70
    32
  0
VERTEX
  8
0
  5
47A6
 10
1916.75
 20
409.628
 30
4.26300e-013
  70
    32
  0
VERTEX
  8
0
  5
47A7
 10
1916.75
 20
409.628
 30
4.26300e-013
  70
    32
  0
VERTEX
  8
0
  5
47A8
 10
1916.75
 20
409.628
 30
4.26300e-013
  70
    32
  0
VERTEX
  8
0
  5
47A9
 10
1916.75
 20
409.628
 30
4.26300e-013
  70
    32
  0
VERTEX
  8
0
  5
47AA
 10
1916.75
 20
409.628
 30
4.26300e-013
  70
    32
  0
VERTEX
  8
0
  5
47AB
 10
1916.75
 20
409.628
 30
4.26300e-013
  70
    32
  0
VERTEX
  8
0
  5
47AC
 10
1916.75
 20
409.628
 30
4.26300e-013
  70
    32
  0
VERTEX
  8
0
  5
47AD
 10
1916.75
 20
409.628
 30
4.26300e-013
  70
    32
  0
VERTEX
  8
0
  5
47AE
 10
1916.75
 20
409.628
 30
4.26300e-013
  70
    32
  0
VERTEX
  8
0
  5
47AF
 10
1916.75
 20
409.628
 30
4.26300e-013
  70
    32
  0
VERTEX
  8
0
  5
47B0
 10
1916.75
 20
409.628
 30
4.26300e-013
  70
    32
  0
SEQEND
  8
0
  5
47B1
  0
POLYLINE
  5
4506
  8
0
  6
CONTINUOUS
 62
     3
 10
1916.7535477490198
 20
307.62848099074188
 30
0.0000000000004263
 66
     1
 70
     8
  0
VERTEX
  8
0
  5
47B2
 10
1916.75
 20
307.628
 30
4.26300e-013
  70
    32
  0
VERTEX
  8
0
  5
47B3
 10
1916.75
 20
307.628
 30
4.26300e-013
  70
    32
  0
VERTEX
  8
0
  5
47B4
 10
1916.75
 20
307.628
 30
4.26300e-013
  70
    32
  0
VERTEX
  8
0
  5
47B5
 10
1916.75
 20
307.628
 30
4.26300e-013
  70
    32
  0
VERTEX
  8
0
  5
47B6
 10
1916.75
 20
307.628
 30
4.26300e-013
  70
    32
  0
VERTEX
  8
0
  5
47B7
 10
1916.75
 20
307.628
 30
4.26300e-013
  70
    32
  0
VERTEX
  8
0
  5
47B8
 10
1916.75
 20
307.628
 30
4.26300e-013
  70
    32
  0
VERTEX
  8
0
  5
47B9
 10
1916.75
 20
307.628
 30
4.26300e-013
  70
    32
  0
VERTEX
  8
0
  5
47BA
 10
1916.75
 20
307.628
 30
4.26300e-013
  70
    32
  0
VERTEX
  8
0
  5
47BB
 10
1916.75
 20
307.628
 30
4.26300e-013
  70
    32
  0
VERTEX
  8
0
  5
47BC
 10
1916.75
 20
307.628
 30
4.26300e-013
  70
    32
  0
VERTEX
  8
0
  5
47BD
 10
1916.75
 20
307.628
 30
4.26300e-013
  70
    32
  0
VERTEX
  8
0
  5
47BE
 10
1916.75
 20
307.628
 30
4.26300e-013
  70
    32
  0
VERTEX
  8
0
  5
47BF
 10
1916.75
 20
307.628
 30
4.26300e-013
  70
    32
  0
VERTEX
  8
0
  5
47C0
 10
1916.75
 20
307.628
 30
4.26300e-013
  70
    32
  0
VERTEX
  8
0
  5
47C1
 10
1916.75
 20
307.628
 30
4.26300e-013
  70
    32
  0
VERTEX
  8
0
  5
47C2
 10
1916.76
 20
307.628
 30
4.26300e-013
  70
    32
  0
VERTEX
  8
0
  5
47C3
 10
1916.76
 20
307.628
 30
4.26300e-013
  70
    32
  0
VERTEX
  8
0
  5
47C4
 10
1916.76
 20
307.628
 30
4.26300e-013
  70
    32
  0
VERTEX
  8
0
  5
47C5
 10
1916.76
 20
307.628
 30
4.26300e-013
  70
    32
  0
VERTEX
  8
0
  5
47C6
 10
1916.76
 20
307.628
 30
4.26300e-013
  70
    32
  0
VERTEX
  8
0
  5
47C7
 10
1916.76
 20
307.628
 30
4.26300e-013
  70
    32
  0
VERTEX
  8
0
  5
47C8
 10
1916.76
 20
307.628
 30
4.26300e-013
  70
    32
  0
VERTEX
  8
0
  5
47C9
 10
1916.76
 20
307.628
 30
4.26300e-013
  70
    32
  0
VERTEX
  8
0
  5
47CA
 10
1916.76
 20
307.628
 30
4.26300e-013
  70
    32
  0
VERTEX
  8
0
  5
47CB
 10
1916.76
 20
307.629
 30
4.26300e-013
  70
    32
  0
VERTEX
  8
0
  5
47CC
 10
1916.76
 20
307.629
 30
4.26300e-013
  70
    32
  0
VERTEX
  8
0
  5
47CD
 10
1916.76
 20
307.629
 30
4.26300e-013
  70
    32
  0
VERTEX
  8
0
  5
47CE
 10
1916.76
 20
307.629
 30
4.26300e-013
  70
    32
  0
VERTEX
  8
0
  5
47CF
 10
1916.76
 20
307.629
 30
4.26300e-013
  70
    32
  0
VERTEX
  8
0
  5
47D0
 10
1916.76
 20
307.629
 30
4.26300e-013
  70
    32
  0
VERTEX
  8
0
  5
47D1
 10
1916.76
 20
307.629
 30
4.26300e-013
  70
    32
  0
VERTEX
  8
0
  5
47D2
 10
1916.76
 20
307.629
 30
4.26300e-013
  70
    32
  0
VERTEX
  8
0
  5
47D3
 10
1916.76
 20
307.629
 30
4.26300e-013
  70
    32
  0
VERTEX
  8
0
  5
47D4
 10
1916.76
 20
307.629
 30
4.26300e-013
  70
    32
  0
VERTEX
  8
0
  5
47D5
 10
1916.76
 20
307.629
 30
4.26300e-013
  70
    32
  0
VERTEX
  8
0
  5
47D6
 10
1916.76
 20
307.629
 30
4.26300e-013
  70
    32
  0
VERTEX
  8
0
  5
47D7
 10
1916.76
 20
307.629
 30
4.26300e-013
  70
    32
  0
VERTEX
  8
0
  5
47D8
 10
1916.76
 20
307.629
 30
4.26300e-013
  70
    32
  0
VERTEX
  8
0
  5
47D9
 10
1916.76
 20
307.629
 30
4.26300e-013
  70
    32
  0
VERTEX
  8
0
  5
47DA
 10
1916.76
 20
307.629
 30
4.26300e-013
  70
    32
  0
VERTEX
  8
0
  5
47DB
 10
1916.76
 20
307.629
 30
4.26300e-013
  70
    32
  0
VERTEX
  8
0
  5
47DC
 10
1916.76
 20
307.629
 30
4.26300e-013
  70
    32
  0
VERTEX
  8
0
  5
47DD
 10
1916.76
 20
307.629
 30
4.26300e-013
  70
    32
  0
VERTEX
  8
0
  5
47DE
 10
1916.76
 20
307.629
 30
4.26300e-013
  70
    32
  0
VERTEX
  8
0
  5
47DF
 10
1916.76
 20
307.629
 30
4.26300e-013
  70
    32
  0
VERTEX
  8
0
  5
47E0
 10
1916.76
 20
307.629
 30
4.26300e-013
  70
    32
  0
VERTEX
  8
0
  5
47E1
 10
1916.76
 20
307.629
 30
4.26300e-013
  70
    32
  0
VERTEX
  8
0
  5
47E2
 10
1916.76
 20
307.629
 30
4.26300e-013
  70
    32
  0
VERTEX
  8
0
  5
47E3
 10
1916.76
 20
307.629
 30
4.26300e-013
  70
    32
  0
VERTEX
  8
0
  5
47E4
 10
1916.76
 20
307.629
 30
4.26300e-013
  70
    32
  0
VERTEX
  8
0
  5
47E5
 10
1916.76
 20
307.629
 30
4.26300e-013
  70
    32
  0
VERTEX
  8
0
  5
47E6
 10
1916.76
 20
307.629
 30
4.26300e-013
  70
    32
  0
VERTEX
  8
0
  5
47E7
 10
1916.76
 20
307.629
 30
4.26300e-013
  70
    32
  0
VERTEX
  8
0
  5
47E8
 10
1916.76
 20
307.629
 30
4.26300e-013
  70
    32
  0
VERTEX
  8
0
  5
47E9
 10
1916.76
 20
307.629
 30
4.26300e-013
  70
    32
  0
VERTEX
  8
0
  5
47EA
 10
1916.76
 20
307.629
 30
4.26300e-013
  70
    32
  0
VERTEX
  8
0
  5
47EB
 10
1916.76
 20
307.629
 30
4.26300e-013
  70
    32
  0
VERTEX
  8
0
  5
47EC
 10
1916.76
 20
307.629
 30
4.26300e-013
  70
    32
  0
VERTEX
  8
0
  5
47ED
 10
1916.76
 20
307.629
 30
4.26300e-013
  70
    32
  0
VERTEX
  8
0
  5
47EE
 10
1916.76
 20
307.629
 30
4.26300e-013
  70
    32
  0
VERTEX
  8
0
  5
47EF
 10
1916.76
 20
307.629
 30
4.26300e-013
  70
    32
  0
VERTEX
  8
0
  5
47F0
 10
1916.76
 20
307.629
 30
4.26300e-013
  70
    32
  0
VERTEX
  8
0
  5
47F1
 10
1916.76
 20
307.629
 30
4.26300e-013
  70
    32
  0
VERTEX
  8
0
  5
47F2
 10
1916.76
 20
307.629
 30
4.26300e-013
  70
    32
  0
VERTEX
  8
0
  5
47F3
 10
1916.76
 20
307.629
 30
4.26300e-013
  70
    32
  0
VERTEX
  8
0
  5
47F4
 10
1916.76
 20
307.629
 30
4.26300e-013
  70
    32
  0
VERTEX
  8
0
  5
47F5
 10
1916.76
 20
307.629
 30
4.26300e-013
  70
    32
  0
VERTEX
  8
0
  5
47F6
 10
1916.76
 20
307.629
 30
4.26300e-013
  70
    32
  0
VERTEX
  8
0
  5
47F7
 10
1916.76
 20
307.629
 30
4.26300e-013
  70
    32
  0
VERTEX
  8
0
  5
47F8
 10
1916.76
 20
307.629
 30
4.26300e-013
  70
    32
  0
VERTEX
  8
0
  5
47F9
 10
1916.76
 20
307.629
 30
4.26300e-013
  70
    32
  0
VERTEX
  8
0
  5
47FA
 10
1916.76
 20
307.629
 30
4.26300e-013
  70
    32
  0
VERTEX
  8
0
  5
47FB
 10
1916.76
 20
307.629
 30
4.26300e-013
  70
    32
  0
VERTEX
  8
0
  5
47FC
 10
1916.76
 20
307.629
 30
4.26300e-013
  70
    32
  0
VERTEX
  8
0
  5
47FD
 10
1916.76
 20
307.629
 30
4.26300e-013
  70
    32
  0
VERTEX
  8
0
  5
47FE
 10
1916.76
 20
307.629
 30
4.26300e-013
  70
    32
  0
VERTEX
  8
0
  5
47FF
 10
1916.76
 20
307.629
 30
4.26300e-013
  70
    32
  0
VERTEX
  8
0
  5
4800
 10
1916.76
 20
307.629
 30
4.26300e-013
  70
    32
  0
VERTEX
  8
0
  5
4801
 10
1916.76
 20
307.629
 30
4.26300e-013
  70
    32
  0
VERTEX
  8
0
  5
4802
 10
1916.76
 20
307.629
 30
4.26300e-013
  70
    32
  0
VERTEX
  8
0
  5
4803
 10
1916.76
 20
307.629
 30
4.26300e-013
  70
    32
  0
VERTEX
  8
0
  5
4804
 10
1916.76
 20
307.629
 30
4.26300e-013
  70
    32
  0
VERTEX
  8
0
  5
4805
 10
1916.76
 20
307.629
 30
4.26300e-013
  70
    32
  0
VERTEX
  8
0
  5
4806
 10
1916.76
 20
307.629
 30
4.26300e-013
  70
    32
  0
VERTEX
  8
0
  5
4807
 10
1916.76
 20
307.629
 30
4.26300e-013
  70
    32
  0
VERTEX
  8
0
  5
4808
 10
1916.76
 20
307.629
 30
4.26300e-013
  70
    32
  0
VERTEX
  8
0
  5
4809
 10
1916.76
 20
307.629
 30
4.26300e-013
  70
    32
  0
VERTEX
  8
0
  5
480A
 10
1916.76
 20
307.629
 30
4.26300e-013
  70
    32
  0
VERTEX
  8
0
  5
480B
 10
1916.76
 20
307.629
 30
4.26300e-013
  70
    32
  0
VERTEX
  8
0
  5
480C
 10
1916.76
 20
307.629
 30
4.26300e-013
  70
    32
  0
VERTEX
  8
0
  5
480D
 10
1916.76
 20
307.629
 30
4.26300e-013
  70
    32
  0
VERTEX
  8
0
  5
480E
 10
1916.76
 20
307.629
 30
4.26300e-013
  70
    32
  0
VERTEX
  8
0
  5
480F
 10
1916.76
 20
307.629
 30
4.26300e-013
  70
    32
  0
VERTEX
  8
0
  5
4810
 10
1916.76
 20
307.629
 30
4.26300e-013
  70
    32
  0
VERTEX
  8
0
  5
4811
 10
1916.76
 20
307.629
 30
4.26300e-013
  70
    32
  0
VERTEX
  8
0
  5
4812
 10
1916.76
 20
307.629
 30
4.26300e-013
  70
    32
  0
VERTEX
  8
0
  5
4813
 10
1916.76
 20
307.629
 30
4.26300e-013
  70
    32
  0
VERTEX
  8
0
  5
4814
 10
1916.76
 20
307.629
 30
4.26300e-013
  70
    32
  0
VERTEX
  8
0
  5
4815
 10
1916.76
 20
307.629
 30
4.26300e-013
  70
    32
  0
VERTEX
  8
0
  5
4816
 10
1916.76
 20
307.629
 30
4.26300e-013
  70
    32
  0
VERTEX
  8
0
  5
4817
 10
1916.76
 20
307.629
 30
4.26300e-013
  70
    32
  0
VERTEX
  8
0
  5
4818
 10
1916.76
 20
307.629
 30
4.26300e-013
  70
    32
  0
VERTEX
  8
0
  5
4819
 10
1916.76
 20
307.629
 30
4.26300e-013
  70
    32
  0
VERTEX
  8
0
  5
481A
 10
1916.76
 20
307.629
 30
4.26300e-013
  70
    32
  0
VERTEX
  8
0
  5
481B
 10
1916.76
 20
307.629
 30
4.26300e-013
  70
    32
  0
VERTEX
  8
0
  5
481C
 10
1916.76
 20
307.629
 30
4.26300e-013
  70
    32
  0
VERTEX
  8
0
  5
481D
 10
1916.76
 20
307.629
 30
4.26300e-013
  70
    32
  0
VERTEX
  8
0
  5
481E
 10
1916.76
 20
307.629
 30
4.26300e-013
  70
    32
  0
VERTEX
  8
0
  5
481F
 10
1916.76
 20
307.629
 30
4.26300e-013
  70
    32
  0
VERTEX
  8
0
  5
4820
 10
1916.76
 20
307.629
 30
4.26300e-013
  70
    32
  0
VERTEX
  8
0
  5
4821
 10
1916.76
 20
307.629
 30
4.26300e-013
  70
    32
  0
VERTEX
  8
0
  5
4822
 10
1916.76
 20
307.629
 30
4.26300e-013
  70
    32
  0
VERTEX
  8
0
  5
4823
 10
1916.76
 20
307.629
 30
4.26300e-013
  70
    32
  0
VERTEX
  8
0
  5
4824
 10
1916.76
 20
307.629
 30
4.26300e-013
  70
    32
  0
VERTEX
  8
0
  5
4825
 10
1916.76
 20
307.629
 30
4.26300e-013
  70
    32
  0
VERTEX
  8
0
  5
4826
 10
1916.76
 20
307.629
 30
4.26300e-013
  70
    32
  0
VERTEX
  8
0
  5
4827
 10
1916.76
 20
307.629
 30
4.26300e-013
  70
    32
  0
VERTEX
  8
0
  5
4828
 10
1916.76
 20
307.629
 30
4.26300e-013
  70
    32
  0
VERTEX
  8
0
  5
4829
 10
1916.76
 20
307.629
 30
4.26300e-013
  70
    32
  0
VERTEX
  8
0
  5
482A
 10
1916.77
 20
307.629
 30
4.26300e-013
  70
    32
  0
VERTEX
  8
0
  5
482B
 10
1916.77
 20
307.629
 30
4.26300e-013
  70
    32
  0
VERTEX
  8
0
  5
482C
 10
1916.77
 20
307.629
 30
4.26300e-013
  70
    32
  0
VERTEX
  8
0
  5
482D
 10
1916.77
 20
307.629
 30
4.26300e-013
  70
    32
  0
VERTEX
  8
0
  5
482E
 10
1916.77
 20
307.629
 30
4.26300e-013
  70
    32
  0
VERTEX
  8
0
  5
482F
 10
1916.77
 20
307.629
 30
4.26300e-013
  70
    32
  0
VERTEX
  8
0
  5
4830
 10
1916.77
 20
307.629
 30
4.26300e-013
  70
    32
  0
VERTEX
  8
0
  5
4831
 10
1916.77
 20
307.629
 30
4.26300e-013
  70
    32
  0
VERTEX
  8
0
  5
4832
 10
1916.77
 20
307.629
 30
4.26300e-013
  70
    32
  0
SEQEND
  8
0
  5
4833
  0
LINE
  5
4507
  8
0
  6
CONTINUOUS
 62
     3
 10
1926.7518713638799
 20
308.50389451937178
 30
0.0000000000004263
 11
1916.765785958409
 21
307.62901708053988
 31
0.0000000000004241
  0
LINE
  5
4508
  8
0
  6
CONTINUOUS
 62
     3
 10
1926.7518713638799
 20
408.7530674621126
 30
0.0000000000004263
 11
1916.765785958409
 21
409.6279449009445
 31
0.0000000000004241
  0
LINE
  5
4509
  8
0
  6
CONTINUOUS
 62
     3
 10
1916.7535477490201
 20
307.62848099074603
 30
0.0000000000004263
 11
1531.130142135147
 21
307.62848099074603
 31
0.0000000000003375
  0
LINE
  5
450A
  8
0
  6
CONTINUOUS
 62
     3
 10
1916.7535477490201
 20
409.62848099073841
 30
0.0000000000004263
 11
1531.130142135137
 21
409.62848099073841
 31
0.0000000000003375
  0
CIRCLE
  5
450B
  8
0
  6
CONTINUOUS
 62
     3
 10
1263.3038504617609
 20
158.62848099074179
 30
0.0000000000002842
 40
3.5000000000000262
  0
CIRCLE
  5
450C
  8
0
  6
CONTINUOUS
 62
     3
 10
-1263.3038504617609
 20
158.62848099074179
 30
0.0000000000000033
 40
5.5
210
0.0000000000000002
220
0.0
230
-1.0
  0
CIRCLE
  5
450D
  8
0
  6
CONTINUOUS
 62
     3
 10
1378.3038504617609
 20
558.62848099074165
 30
0.0000000000003126
 40
3.5000000000000022
  0
CIRCLE
  5
450E
  8
0
  6
CONTINUOUS
 62
     3
 10
-1378.3038504617609
 20
558.62848099074165
 30
0.0000000000000011
 40
5.5
210
0.0000000000000002
220
0.0
230
-1.0
  0
CIRCLE
  5
450F
  8
0
  6
CONTINUOUS
 62
     3
 10
1263.3038504617609
 20
558.62848099074165
 30
0.0000000000002842
 40
3.5000000000000022
  0
CIRCLE
  5
4510
  8
0
  6
CONTINUOUS
 62
     3
 10
-1263.3038504617609
 20
558.62848099074165
 30
0.0000000000000033
 40
5.5
210
0.0000000000000002
220
0.0
230
-1.0
  0
CIRCLE
  5
4511
  8
0
  6
CONTINUOUS
 62
     3
 10
1378.3038504617609
 20
158.62848099074179
 30
0.0000000000003126
 40
3.5000000000000262
  0
CIRCLE
  5
4512
  8
0
  6
CONTINUOUS
 62
     3
 10
-1378.3038504617609
 20
158.62848099074179
 30
0.0000000000000011
 40
5.5
210
0.0000000000000002
220
0.0
230
-1.0
  0
LINE
  5
4513
  8
0
  6
CONTINUOUS
 62
     3
 10
1527.718064024134
 20
483.62848099074228
 30
0.0000000000003411
 11
1528.2995761315949
 21
483.62848099074228
 31
0.0000000000003411
  0
LINE
  5
4514
  8
0
  6
CONTINUOUS
 62
     3
 10
1525.30385046176
 20
483.62848099074159
 30
0.0000000000003411
 11
1527.718064024134
 21
483.62848099074159
 31
0.0000000000003415
  0
LINE
  5
4515
  8
0
  6
CONTINUOUS
 62
     3
 10
1528.2995761315949
 20
483.62848099074228
 30
0.0000000000003411
 11
1528.2995761315949
 21
233.6284809907423
 31
0.0000000000003411
  0
LINE
  5
4516
  8
0
  6
CONTINUOUS
 62
     3
 10
1528.2995761315949
 20
233.6284809907423
 30
0.0000000000003411
 11
1527.718064024134
 21
233.6284809907423
 31
0.0000000000003411
  0
LINE
  5
4517
  8
0
  6
CONTINUOUS
 62
     3
 10
1527.718064024134
 20
118.62848099074191
 30
0.0000000000003411
 11
1528.30385046176
 21
118.62848099074191
 31
0.0000000000003411
  0
LINE
  5
4518
  8
0
  6
CONTINUOUS
 62
     3
 10
1528.30385046176
 20
598.62848099074176
 30
0.0000000000003411
 11
1527.718064024134
 21
598.62848099074176
 31
0.0000000000003411
  0
LINE
  5
4519
  8
0
  6
CONTINUOUS
 62
     3
 10
1527.718064024134
 20
233.6284809907421
 30
0.0000000000003411
 11
1525.30385046176
 21
233.6284809907421
 31
0.0000000000003406
  0
LINE
  5
451A
  8
0
  6
CONTINUOUS
 62
     3
 10
1428.8896368993869
 20
118.62848099074181
 30
0.0000000000003126
 11
1527.718064024134
 21
118.62848099074181
 31
0.0000000000003411
  0
LINE
  5
451B
  8
0
  6
CONTINUOUS
 62
     3
 10
1527.718064024134
 20
598.62848099074176
 30
0.0000000000003411
 11
1428.8896368993869
 21
598.62848099074176
 31
0.0000000000003126
  0
LINE
  5
451C
  8
0
  6
CONTINUOUS
 62
     3
 10
1427.475423337014
 20
598.62848099074176
 30
0.0000000000003126
 11
1213.3038504617609
 21
598.62848099074176
 31
0.0000000000002639
  0
LINE
  5
451D
  8
0
  6
CONTINUOUS
 62
     3
 10
1213.3038504617609
 20
598.62848099074176
 30
0.0000000000002842
 11
1213.3038504617609
 21
118.62848099074191
 31
0.0000000000002842
  0
LINE
  5
451E
  8
0
  6
CONTINUOUS
 62
     3
 10
1213.3038504617609
 20
118.62848099074181
 30
0.0000000000002842
 11
1427.475423337014
 21
118.62848099074181
 31
0.000000000000333
  0
LINE
  5
451F
  8
0
  6
CONTINUOUS
 62
     3
 10
1428.8896368993869
 20
598.62848099074176
 30
0.0000000000003126
 11
1427.475423337014
 21
598.62848099074176
 31
0.0000000000003126
  0
LINE
  5
4520
  8
0
  6
CONTINUOUS
 62
     3
 10
1427.475423337014
 20
118.62848099074181
 30
0.0000000000003126
 11
1428.8896368993869
 21
118.62848099074181
 31
0.0000000000003126
  0
LINE
  5
4521
  8
0
  6
CONTINUOUS
 62
     3
 10
1528.30385046176
 20
598.62848099074176
 30
0.0000000000003411
 11
1528.30385046176
 21
118.62848099074191
 31
0.0000000000003411
  0
LINE
  5
4522
  8
0
  6
CONTINUOUS
 62
     3
 10
1528.30385046176
 20
118.62848099074191
 30
0.0000000000003411
 11
1530.30385046176
 21
118.62848099074191
 31
0.0000000000003415
  0
LINE
  5
4523
  8
0
  6
CONTINUOUS
 62
     3
 10
1530.30385046176
 20
598.62848099074176
 30
0.0000000000003411
 11
1530.30385046176
 21
118.62848099074191
 31
0.0000000000003411
  0
LINE
  5
4524
  8
0
  6
CONTINUOUS
 62
     3
 10
1530.30385046176
 20
598.62848099074176
 30
0.0000000000003411
 11
1528.30385046176
 21
598.62848099074176
 31
0.0000000000003406
  0
LINE
  5
4525
  8
0
  6
CONTINUOUS
 62
     3
 10
1531.13014213513
 20
483.62848099074279
 30
0.0000000000003411
 11
1530.30385046176
 21
483.62848099074262
 31
0.0000000000003409
  0
LINE
  5
4526
  8
0
  6
CONTINUOUS
 62
     3
 10
1530.30385046176
 20
233.62848099074219
 30
0.0000000000003411
 11
1531.1301421351541
 21
233.6284809907423
 31
0.0000000000003412
  0
LINE
  5
4527
  8
0
  6
CONTINUOUS
 62
     3
 10
1531.1301421351541
 20
233.6284809907425
 30
0.0000000000003411
 11
1531.13014213513
 21
483.62848099074279
 31
0.0000000000003411
  0
POLYLINE
  8
0
  5
4834
  62
3
  66
     1
 10
0.000000
 20
0.000000
 30
0.000000
  70
     8
  0
VERTEX
  8
0
  5
4835
 10
1526.30
 20
358.628
 30
3.47400e-013
  70
    32
  0
VERTEX
  8
0
  5
4836
 10
1526.31
 20
358.669
 30
3.47404e-013
  70
    32
  0
VERTEX
  8
0
  5
4837
 10
1526.32
 20
358.709
 30
3.47407e-013
  70
    32
  0
VERTEX
  8
0
  5
4838
 10
1526.33
 20
358.749
 30
3.47411e-013
  70
    32
  0
VERTEX
  8
0
  5
4839
 10
1526.33
 20
358.790
 30
3.47414e-013
  70
    32
  0
VERTEX
  8
0
  5
483A
 10
1526.34
 20
358.830
 30
3.47417e-013
  70
    32
  0
VERTEX
  8
0
  5
483B
 10
1526.35
 20
358.870
 30
3.47420e-013
  70
    32
  0
VERTEX
  8
0
  5
483C
 10
1526.36
 20
358.911
 30
3.47424e-013
  70
    32
  0
VERTEX
  8
0
  5
483D
 10
1526.37
 20
358.951
 30
3.47427e-013
  70
    32
  0
VERTEX
  8
0
  5
483E
 10
1526.38
 20
358.992
 30
3.47430e-013
  70
    32
  0
VERTEX
  8
0
  5
483F
 10
1526.38
 20
359.032
 30
3.47432e-013
  70
    32
  0
VERTEX
  8
0
  5
4840
 10
1526.39
 20
359.073
 30
3.47435e-013
  70
    32
  0
VERTEX
  8
0
  5
4841
 10
1526.40
 20
359.114
 30
3.47438e-013
  70
    32
  0
VERTEX
  8
0
  5
4842
 10
1526.41
 20
359.155
 30
3.47441e-013
  70
    32
  0
VERTEX
  8
0
  5
4843
 10
1526.42
 20
359.195
 30
3.47443e-013
  70
    32
  0
VERTEX
  8
0
  5
4844
 10
1526.42
 20
359.236
 30
3.47446e-013
  70
    32
  0
VERTEX
  8
0
  5
4845
 10
1526.43
 20
359.277
 30
3.47448e-013
  70
    32
  0
VERTEX
  8
0
  5
4846
 10
1526.44
 20
359.318
 30
3.47451e-013
  70
    32
  0
VERTEX
  8
0
  5
4847
 10
1526.45
 20
359.359
 30
3.47453e-013
  70
    32
  0
VERTEX
  8
0
  5
4848
 10
1526.46
 20
359.400
 30
3.47455e-013
  70
    32
  0
VERTEX
  8
0
  5
4849
 10
1526.47
 20
359.441
 30
3.47458e-013
  70
    32
  0
VERTEX
  8
0
  5
484A
 10
1526.47
 20
359.482
 30
3.47460e-013
  70
    32
  0
VERTEX
  8
0
  5
484B
 10
1526.48
 20
359.523
 30
3.47462e-013
  70
    32
  0
VERTEX
  8
0
  5
484C
 10
1526.49
 20
359.564
 30
3.47464e-013
  70
    32
  0
VERTEX
  8
0
  5
484D
 10
1526.50
 20
359.605
 30
3.47466e-013
  70
    32
  0
VERTEX
  8
0
  5
484E
 10
1526.51
 20
359.647
 30
3.47468e-013
  70
    32
  0
VERTEX
  8
0
  5
484F
 10
1526.52
 20
359.688
 30
3.47470e-013
  70
    32
  0
VERTEX
  8
0
  5
4850
 10
1526.52
 20
359.729
 30
3.47472e-013
  70
    32
  0
VERTEX
  8
0
  5
4851
 10
1526.53
 20
359.771
 30
3.47474e-013
  70
    32
  0
VERTEX
  8
0
  5
4852
 10
1526.54
 20
359.812
 30
3.47475e-013
  70
    32
  0
VERTEX
  8
0
  5
4853
 10
1526.55
 20
359.853
 30
3.47477e-013
  70
    32
  0
VERTEX
  8
0
  5
4854
 10
1526.56
 20
359.895
 30
3.47479e-013
  70
    32
  0
VERTEX
  8
0
  5
4855
 10
1526.57
 20
359.936
 30
3.47480e-013
  70
    32
  0
VERTEX
  8
0
  5
4856
 10
1526.57
 20
359.978
 30
3.47482e-013
  70
    32
  0
VERTEX
  8
0
  5
4857
 10
1526.58
 20
360.019
 30
3.47484e-013
  70
    32
  0
VERTEX
  8
0
  5
4858
 10
1526.59
 20
360.061
 30
3.47485e-013
  70
    32
  0
VERTEX
  8
0
  5
4859
 10
1526.60
 20
360.103
 30
3.47487e-013
  70
    32
  0
VERTEX
  8
0
  5
485A
 10
1526.61
 20
360.144
 30
3.47488e-013
  70
    32
  0
VERTEX
  8
0
  5
485B
 10
1526.62
 20
360.186
 30
3.47490e-013
  70
    32
  0
VERTEX
  8
0
  5
485C
 10
1526.62
 20
360.228
 30
3.47491e-013
  70
    32
  0
VERTEX
  8
0
  5
485D
 10
1526.63
 20
360.270
 30
3.47493e-013
  70
    32
  0
VERTEX
  8
0
  5
485E
 10
1526.64
 20
360.311
 30
3.47494e-013
  70
    32
  0
VERTEX
  8
0
  5
485F
 10
1526.65
 20
360.353
 30
3.47495e-013
  70
    32
  0
VERTEX
  8
0
  5
4860
 10
1526.66
 20
360.395
 30
3.47497e-013
  70
    32
  0
VERTEX
  8
0
  5
4861
 10
1526.67
 20
360.437
 30
3.47498e-013
  70
    32
  0
VERTEX
  8
0
  5
4862
 10
1526.67
 20
360.479
 30
3.47499e-013
  70
    32
  0
VERTEX
  8
0
  5
4863
 10
1526.68
 20
360.521
 30
3.47501e-013
  70
    32
  0
VERTEX
  8
0
  5
4864
 10
1526.69
 20
360.563
 30
3.47502e-013
  70
    32
  0
VERTEX
  8
0
  5
4865
 10
1526.70
 20
360.605
 30
3.47503e-013
  70
    32
  0
VERTEX
  8
0
  5
4866
 10
1526.71
 20
360.647
 30
3.47504e-013
  70
    32
  0
VERTEX
  8
0
  5
4867
 10
1526.72
 20
360.689
 30
3.47506e-013
  70
    32
  0
VERTEX
  8
0
  5
4868
 10
1526.72
 20
360.731
 30
3.47507e-013
  70
    32
  0
VERTEX
  8
0
  5
4869
 10
1526.73
 20
360.774
 30
3.47508e-013
  70
    32
  0
VERTEX
  8
0
  5
486A
 10
1526.74
 20
360.816
 30
3.47509e-013
  70
    32
  0
VERTEX
  8
0
  5
486B
 10
1526.75
 20
360.858
 30
3.47510e-013
  70
    32
  0
VERTEX
  8
0
  5
486C
 10
1526.76
 20
360.900
 30
3.47512e-013
  70
    32
  0
VERTEX
  8
0
  5
486D
 10
1526.77
 20
360.943
 30
3.47513e-013
  70
    32
  0
VERTEX
  8
0
  5
486E
 10
1526.77
 20
360.985
 30
3.47514e-013
  70
    32
  0
VERTEX
  8
0
  5
486F
 10
1526.78
 20
361.027
 30
3.47515e-013
  70
    32
  0
VERTEX
  8
0
  5
4870
 10
1526.79
 20
361.070
 30
3.47517e-013
  70
    32
  0
VERTEX
  8
0
  5
4871
 10
1526.80
 20
361.112
 30
3.47518e-013
  70
    32
  0
VERTEX
  8
0
  5
4872
 10
1526.81
 20
361.155
 30
3.47519e-013
  70
    32
  0
VERTEX
  8
0
  5
4873
 10
1526.82
 20
361.197
 30
3.47520e-013
  70
    32
  0
VERTEX
  8
0
  5
4874
 10
1526.82
 20
361.240
 30
3.47522e-013
  70
    32
  0
VERTEX
  8
0
  5
4875
 10
1526.83
 20
361.282
 30
3.47523e-013
  70
    32
  0
VERTEX
  8
0
  5
4876
 10
1526.84
 20
361.325
 30
3.47524e-013
  70
    32
  0
VERTEX
  8
0
  5
4877
 10
1526.85
 20
361.367
 30
3.47526e-013
  70
    32
  0
VERTEX
  8
0
  5
4878
 10
1526.86
 20
361.410
 30
3.47527e-013
  70
    32
  0
VERTEX
  8
0
  5
4879
 10
1526.87
 20
361.452
 30
3.47528e-013
  70
    32
  0
VERTEX
  8
0
  5
487A
 10
1526.88
 20
361.495
 30
3.47530e-013
  70
    32
  0
VERTEX
  8
0
  5
487B
 10
1526.88
 20
361.538
 30
3.47531e-013
  70
    32
  0
VERTEX
  8
0
  5
487C
 10
1526.89
 20
361.581
 30
3.47533e-013
  70
    32
  0
VERTEX
  8
0
  5
487D
 10
1526.90
 20
361.623
 30
3.47534e-013
  70
    32
  0
VERTEX
  8
0
  5
487E
 10
1526.91
 20
361.666
 30
3.47535e-013
  70
    32
  0
VERTEX
  8
0
  5
487F
 10
1526.92
 20
361.709
 30
3.47537e-013
  70
    32
  0
VERTEX
  8
0
  5
4880
 10
1526.93
 20
361.752
 30
3.47539e-013
  70
    32
  0
VERTEX
  8
0
  5
4881
 10
1526.93
 20
361.794
 30
3.47540e-013
  70
    32
  0
VERTEX
  8
0
  5
4882
 10
1526.94
 20
361.837
 30
3.47542e-013
  70
    32
  0
VERTEX
  8
0
  5
4883
 10
1526.95
 20
361.880
 30
3.47543e-013
  70
    32
  0
VERTEX
  8
0
  5
4884
 10
1526.96
 20
361.923
 30
3.47545e-013
  70
    32
  0
VERTEX
  8
0
  5
4885
 10
1526.97
 20
361.966
 30
3.47547e-013
  70
    32
  0
VERTEX
  8
0
  5
4886
 10
1526.98
 20
362.009
 30
3.47549e-013
  70
    32
  0
VERTEX
  8
0
  5
4887
 10
1526.98
 20
362.052
 30
3.47550e-013
  70
    32
  0
VERTEX
  8
0
  5
4888
 10
1526.99
 20
362.095
 30
3.47552e-013
  70
    32
  0
VERTEX
  8
0
  5
4889
 10
1527.00
 20
362.138
 30
3.47554e-013
  70
    32
  0
VERTEX
  8
0
  5
488A
 10
1527.01
 20
362.181
 30
3.47556e-013
  70
    32
  0
VERTEX
  8
0
  5
488B
 10
1527.02
 20
362.224
 30
3.47558e-013
  70
    32
  0
VERTEX
  8
0
  5
488C
 10
1527.02
 20
362.267
 30
3.47560e-013
  70
    32
  0
VERTEX
  8
0
  5
488D
 10
1527.03
 20
362.310
 30
3.47562e-013
  70
    32
  0
VERTEX
  8
0
  5
488E
 10
1527.04
 20
362.353
 30
3.47564e-013
  70
    32
  0
VERTEX
  8
0
  5
488F
 10
1527.05
 20
362.396
 30
3.47567e-013
  70
    32
  0
VERTEX
  8
0
  5
4890
 10
1527.06
 20
362.439
 30
3.47569e-013
  70
    32
  0
VERTEX
  8
0
  5
4891
 10
1527.07
 20
362.483
 30
3.47571e-013
  70
    32
  0
VERTEX
  8
0
  5
4892
 10
1527.07
 20
362.526
 30
3.47573e-013
  70
    32
  0
VERTEX
  8
0
  5
4893
 10
1527.08
 20
362.569
 30
3.47575e-013
  70
    32
  0
VERTEX
  8
0
  5
4894
 10
1527.09
 20
362.612
 30
3.47578e-013
  70
    32
  0
VERTEX
  8
0
  5
4895
 10
1527.10
 20
362.655
 30
3.47580e-013
  70
    32
  0
VERTEX
  8
0
  5
4896
 10
1527.11
 20
362.699
 30
3.47583e-013
  70
    32
  0
VERTEX
  8
0
  5
4897
 10
1527.12
 20
362.742
 30
3.47585e-013
  70
    32
  0
VERTEX
  8
0
  5
4898
 10
1527.12
 20
362.785
 30
3.47587e-013
  70
    32
  0
VERTEX
  8
0
  5
4899
 10
1527.13
 20
362.828
 30
3.47590e-013
  70
    32
  0
VERTEX
  8
0
  5
489A
 10
1527.14
 20
362.872
 30
3.47592e-013
  70
    32
  0
VERTEX
  8
0
  5
489B
 10
1527.15
 20
362.915
 30
3.47595e-013
  70
    32
  0
VERTEX
  8
0
  5
489C
 10
1527.16
 20
362.958
 30
3.47597e-013
  70
    32
  0
VERTEX
  8
0
  5
489D
 10
1527.16
 20
363.002
 30
3.47600e-013
  70
    32
  0
VERTEX
  8
0
  5
489E
 10
1527.17
 20
363.045
 30
3.47602e-013
  70
    32
  0
VERTEX
  8
0
  5
489F
 10
1527.18
 20
363.089
 30
3.47605e-013
  70
    32
  0
VERTEX
  8
0
  5
48A0
 10
1527.19
 20
363.132
 30
3.47608e-013
  70
    32
  0
VERTEX
  8
0
  5
48A1
 10
1527.20
 20
363.175
 30
3.47610e-013
  70
    32
  0
VERTEX
  8
0
  5
48A2
 10
1527.20
 20
363.219
 30
3.47613e-013
  70
    32
  0
VERTEX
  8
0
  5
48A3
 10
1527.21
 20
363.262
 30
3.47616e-013
  70
    32
  0
VERTEX
  8
0
  5
48A4
 10
1527.22
 20
363.306
 30
3.47618e-013
  70
    32
  0
VERTEX
  8
0
  5
48A5
 10
1527.23
 20
363.349
 30
3.47621e-013
  70
    32
  0
VERTEX
  8
0
  5
48A6
 10
1527.24
 20
363.393
 30
3.47624e-013
  70
    32
  0
VERTEX
  8
0
  5
48A7
 10
1527.25
 20
363.436
 30
3.47626e-013
  70
    32
  0
VERTEX
  8
0
  5
48A8
 10
1527.25
 20
363.480
 30
3.47629e-013
  70
    32
  0
VERTEX
  8
0
  5
48A9
 10
1527.26
 20
363.523
 30
3.47632e-013
  70
    32
  0
VERTEX
  8
0
  5
48AA
 10
1527.27
 20
363.567
 30
3.47635e-013
  70
    32
  0
VERTEX
  8
0
  5
48AB
 10
1527.28
 20
363.610
 30
3.47637e-013
  70
    32
  0
VERTEX
  8
0
  5
48AC
 10
1527.28
 20
363.654
 30
3.47640e-013
  70
    32
  0
VERTEX
  8
0
  5
48AD
 10
1527.29
 20
363.697
 30
3.47643e-013
  70
    32
  0
VERTEX
  8
0
  5
48AE
 10
1527.30
 20
363.741
 30
3.47645e-013
  70
    32
  0
VERTEX
  8
0
  5
48AF
 10
1527.31
 20
363.784
 30
3.47648e-013
  70
    32
  0
VERTEX
  8
0
  5
48B0
 10
1527.32
 20
363.828
 30
3.47651e-013
  70
    32
  0
VERTEX
  8
0
  5
48B1
 10
1527.32
 20
363.872
 30
3.47654e-013
  70
    32
  0
VERTEX
  8
0
  5
48B2
 10
1527.33
 20
363.915
 30
3.47656e-013
  70
    32
  0
VERTEX
  8
0
  5
48B3
 10
1527.34
 20
363.959
 30
3.47659e-013
  70
    32
  0
VERTEX
  8
0
  5
48B4
 10
1527.35
 20
364.002
 30
3.47662e-013
  70
    32
  0
VERTEX
  8
0
  5
48B5
 10
1527.36
 20
364.046
 30
3.47665e-013
  70
    32
  0
VERTEX
  8
0
  5
48B6
 10
1527.36
 20
364.090
 30
3.47667e-013
  70
    32
  0
VERTEX
  8
0
  5
48B7
 10
1527.37
 20
364.133
 30
3.47670e-013
  70
    32
  0
VERTEX
  8
0
  5
48B8
 10
1527.38
 20
364.177
 30
3.47673e-013
  70
    32
  0
VERTEX
  8
0
  5
48B9
 10
1527.39
 20
364.221
 30
3.47676e-013
  70
    32
  0
VERTEX
  8
0
  5
48BA
 10
1527.39
 20
364.264
 30
3.47678e-013
  70
    32
  0
VERTEX
  8
0
  5
48BB
 10
1527.40
 20
364.308
 30
3.47681e-013
  70
    32
  0
VERTEX
  8
0
  5
48BC
 10
1527.41
 20
364.351
 30
3.47684e-013
  70
    32
  0
VERTEX
  8
0
  5
48BD
 10
1527.42
 20
364.395
 30
3.47686e-013
  70
    32
  0
VERTEX
  8
0
  5
48BE
 10
1527.43
 20
364.439
 30
3.47689e-013
  70
    32
  0
VERTEX
  8
0
  5
48BF
 10
1527.43
 20
364.483
 30
3.47692e-013
  70
    32
  0
VERTEX
  8
0
  5
48C0
 10
1527.44
 20
364.526
 30
3.47694e-013
  70
    32
  0
VERTEX
  8
0
  5
48C1
 10
1527.45
 20
364.570
 30
3.47697e-013
  70
    32
  0
VERTEX
  8
0
  5
48C2
 10
1527.46
 20
364.614
 30
3.47699e-013
  70
    32
  0
VERTEX
  8
0
  5
48C3
 10
1527.46
 20
364.657
 30
3.47702e-013
  70
    32
  0
VERTEX
  8
0
  5
48C4
 10
1527.47
 20
364.701
 30
3.47704e-013
  70
    32
  0
VERTEX
  8
0
  5
48C5
 10
1527.48
 20
364.745
 30
3.47707e-013
  70
    32
  0
VERTEX
  8
0
  5
48C6
 10
1527.49
 20
364.788
 30
3.47709e-013
  70
    32
  0
VERTEX
  8
0
  5
48C7
 10
1527.49
 20
364.832
 30
3.47712e-013
  70
    32
  0
VERTEX
  8
0
  5
48C8
 10
1527.50
 20
364.876
 30
3.47714e-013
  70
    32
  0
VERTEX
  8
0
  5
48C9
 10
1527.51
 20
364.919
 30
3.47717e-013
  70
    32
  0
VERTEX
  8
0
  5
48CA
 10
1527.52
 20
364.963
 30
3.47719e-013
  70
    32
  0
VERTEX
  8
0
  5
48CB
 10
1527.52
 20
365.007
 30
3.47722e-013
  70
    32
  0
VERTEX
  8
0
  5
48CC
 10
1527.53
 20
365.051
 30
3.47724e-013
  70
    32
  0
VERTEX
  8
0
  5
48CD
 10
1527.54
 20
365.094
 30
3.47726e-013
  70
    32
  0
VERTEX
  8
0
  5
48CE
 10
1527.55
 20
365.138
 30
3.47728e-013
  70
    32
  0
VERTEX
  8
0
  5
48CF
 10
1527.55
 20
365.182
 30
3.47731e-013
  70
    32
  0
VERTEX
  8
0
  5
48D0
 10
1527.56
 20
365.225
 30
3.47733e-013
  70
    32
  0
VERTEX
  8
0
  5
48D1
 10
1527.57
 20
365.269
 30
3.47735e-013
  70
    32
  0
VERTEX
  8
0
  5
48D2
 10
1527.58
 20
365.313
 30
3.47737e-013
  70
    32
  0
VERTEX
  8
0
  5
48D3
 10
1527.58
 20
365.356
 30
3.47739e-013
  70
    32
  0
VERTEX
  8
0
  5
48D4
 10
1527.59
 20
365.400
 30
3.47741e-013
  70
    32
  0
VERTEX
  8
0
  5
48D5
 10
1527.60
 20
365.444
 30
3.47743e-013
  70
    32
  0
VERTEX
  8
0
  5
48D6
 10
1527.60
 20
365.488
 30
3.47745e-013
  70
    32
  0
VERTEX
  8
0
  5
48D7
 10
1527.61
 20
365.531
 30
3.47747e-013
  70
    32
  0
VERTEX
  8
0
  5
48D8
 10
1527.62
 20
365.575
 30
3.47749e-013
  70
    32
  0
VERTEX
  8
0
  5
48D9
 10
1527.63
 20
365.619
 30
3.47751e-013
  70
    32
  0
VERTEX
  8
0
  5
48DA
 10
1527.63
 20
365.662
 30
3.47753e-013
  70
    32
  0
VERTEX
  8
0
  5
48DB
 10
1527.64
 20
365.706
 30
3.47754e-013
  70
    32
  0
VERTEX
  8
0
  5
48DC
 10
1527.65
 20
365.750
 30
3.47756e-013
  70
    32
  0
VERTEX
  8
0
  5
48DD
 10
1527.65
 20
365.793
 30
3.47758e-013
  70
    32
  0
VERTEX
  8
0
  5
48DE
 10
1527.66
 20
365.837
 30
3.47759e-013
  70
    32
  0
VERTEX
  8
0
  5
48DF
 10
1527.67
 20
365.881
 30
3.47761e-013
  70
    32
  0
VERTEX
  8
0
  5
48E0
 10
1527.68
 20
365.924
 30
3.47763e-013
  70
    32
  0
VERTEX
  8
0
  5
48E1
 10
1527.68
 20
365.968
 30
3.47764e-013
  70
    32
  0
VERTEX
  8
0
  5
48E2
 10
1527.69
 20
366.012
 30
3.47766e-013
  70
    32
  0
VERTEX
  8
0
  5
48E3
 10
1527.70
 20
366.055
 30
3.47767e-013
  70
    32
  0
VERTEX
  8
0
  5
48E4
 10
1527.70
 20
366.099
 30
3.47768e-013
  70
    32
  0
VERTEX
  8
0
  5
48E5
 10
1527.71
 20
366.142
 30
3.47770e-013
  70
    32
  0
VERTEX
  8
0
  5
48E6
 10
1527.72
 20
366.186
 30
3.47771e-013
  70
    32
  0
VERTEX
  8
0
  5
48E7
 10
1527.72
 20
366.230
 30
3.47772e-013
  70
    32
  0
VERTEX
  8
0
  5
48E8
 10
1527.73
 20
366.273
 30
3.47774e-013
  70
    32
  0
VERTEX
  8
0
  5
48E9
 10
1527.74
 20
366.317
 30
3.47775e-013
  70
    32
  0
VERTEX
  8
0
  5
48EA
 10
1527.74
 20
366.360
 30
3.47776e-013
  70
    32
  0
VERTEX
  8
0
  5
48EB
 10
1527.75
 20
366.404
 30
3.47777e-013
  70
    32
  0
VERTEX
  8
0
  5
48EC
 10
1527.76
 20
366.448
 30
3.47779e-013
  70
    32
  0
VERTEX
  8
0
  5
48ED
 10
1527.76
 20
366.491
 30
3.47780e-013
  70
    32
  0
VERTEX
  8
0
  5
48EE
 10
1527.77
 20
366.535
 30
3.47781e-013
  70
    32
  0
VERTEX
  8
0
  5
48EF
 10
1527.78
 20
366.578
 30
3.47782e-013
  70
    32
  0
VERTEX
  8
0
  5
48F0
 10
1527.78
 20
366.622
 30
3.47783e-013
  70
    32
  0
VERTEX
  8
0
  5
48F1
 10
1527.79
 20
366.665
 30
3.47784e-013
  70
    32
  0
VERTEX
  8
0
  5
48F2
 10
1527.80
 20
366.709
 30
3.47785e-013
  70
    32
  0
VERTEX
  8
0
  5
48F3
 10
1527.80
 20
366.752
 30
3.47786e-013
  70
    32
  0
VERTEX
  8
0
  5
48F4
 10
1527.81
 20
366.796
 30
3.47787e-013
  70
    32
  0
VERTEX
  8
0
  5
48F5
 10
1527.82
 20
366.839
 30
3.47788e-013
  70
    32
  0
VERTEX
  8
0
  5
48F6
 10
1527.82
 20
366.883
 30
3.47789e-013
  70
    32
  0
VERTEX
  8
0
  5
48F7
 10
1527.83
 20
366.926
 30
3.47790e-013
  70
    32
  0
VERTEX
  8
0
  5
48F8
 10
1527.83
 20
366.970
 30
3.47791e-013
  70
    32
  0
VERTEX
  8
0
  5
48F9
 10
1527.84
 20
367.013
 30
3.47792e-013
  70
    32
  0
VERTEX
  8
0
  5
48FA
 10
1527.85
 20
367.056
 30
3.47793e-013
  70
    32
  0
VERTEX
  8
0
  5
48FB
 10
1527.85
 20
367.100
 30
3.47794e-013
  70
    32
  0
VERTEX
  8
0
  5
48FC
 10
1527.86
 20
367.143
 30
3.47795e-013
  70
    32
  0
VERTEX
  8
0
  5
48FD
 10
1527.87
 20
367.187
 30
3.47796e-013
  70
    32
  0
VERTEX
  8
0
  5
48FE
 10
1527.87
 20
367.230
 30
3.47797e-013
  70
    32
  0
VERTEX
  8
0
  5
48FF
 10
1527.88
 20
367.273
 30
3.47798e-013
  70
    32
  0
VERTEX
  8
0
  5
4900
 10
1527.88
 20
367.317
 30
3.47799e-013
  70
    32
  0
VERTEX
  8
0
  5
4901
 10
1527.89
 20
367.360
 30
3.47800e-013
  70
    32
  0
VERTEX
  8
0
  5
4902
 10
1527.90
 20
367.403
 30
3.47801e-013
  70
    32
  0
VERTEX
  8
0
  5
4903
 10
1527.90
 20
367.447
 30
3.47802e-013
  70
    32
  0
VERTEX
  8
0
  5
4904
 10
1527.91
 20
367.490
 30
3.47803e-013
  70
    32
  0
VERTEX
  8
0
  5
4905
 10
1527.91
 20
367.533
 30
3.47804e-013
  70
    32
  0
VERTEX
  8
0
  5
4906
 10
1527.92
 20
367.576
 30
3.47805e-013
  70
    32
  0
VERTEX
  8
0
  5
4907
 10
1527.93
 20
367.619
 30
3.47806e-013
  70
    32
  0
VERTEX
  8
0
  5
4908
 10
1527.93
 20
367.663
 30
3.47807e-013
  70
    32
  0
VERTEX
  8
0
  5
4909
 10
1527.94
 20
367.706
 30
3.47808e-013
  70
    32
  0
VERTEX
  8
0
  5
490A
 10
1527.94
 20
367.749
 30
3.47809e-013
  70
    32
  0
VERTEX
  8
0
  5
490B
 10
1527.95
 20
367.792
 30
3.47810e-013
  70
    32
  0
VERTEX
  8
0
  5
490C
 10
1527.95
 20
367.835
 30
3.47811e-013
  70
    32
  0
VERTEX
  8
0
  5
490D
 10
1527.96
 20
367.878
 30
3.47812e-013
  70
    32
  0
VERTEX
  8
0
  5
490E
 10
1527.96
 20
367.922
 30
3.47813e-013
  70
    32
  0
VERTEX
  8
0
  5
490F
 10
1527.97
 20
367.965
 30
3.47814e-013
  70
    32
  0
VERTEX
  8
0
  5
4910
 10
1527.98
 20
368.008
 30
3.47815e-013
  70
    32
  0
VERTEX
  8
0
  5
4911
 10
1527.98
 20
368.051
 30
3.47816e-013
  70
    32
  0
VERTEX
  8
0
  5
4912
 10
1527.99
 20
368.094
 30
3.47817e-013
  70
    32
  0
VERTEX
  8
0
  5
4913
 10
1527.99
 20
368.137
 30
3.47818e-013
  70
    32
  0
VERTEX
  8
0
  5
4914
 10
1528.00
 20
368.180
 30
3.47819e-013
  70
    32
  0
VERTEX
  8
0
  5
4915
 10
1528.00
 20
368.223
 30
3.47820e-013
  70
    32
  0
VERTEX
  8
0
  5
4916
 10
1528.01
 20
368.266
 30
3.47822e-013
  70
    32
  0
VERTEX
  8
0
  5
4917
 10
1528.01
 20
368.308
 30
3.47823e-013
  70
    32
  0
VERTEX
  8
0
  5
4918
 10
1528.02
 20
368.351
 30
3.47824e-013
  70
    32
  0
VERTEX
  8
0
  5
4919
 10
1528.02
 20
368.394
 30
3.47825e-013
  70
    32
  0
VERTEX
  8
0
  5
491A
 10
1528.03
 20
368.437
 30
3.47827e-013
  70
    32
  0
VERTEX
  8
0
  5
491B
 10
1528.03
 20
368.480
 30
3.47828e-013
  70
    32
  0
VERTEX
  8
0
  5
491C
 10
1528.04
 20
368.523
 30
3.47829e-013
  70
    32
  0
VERTEX
  8
0
  5
491D
 10
1528.04
 20
368.565
 30
3.47831e-013
  70
    32
  0
VERTEX
  8
0
  5
491E
 10
1528.05
 20
368.608
 30
3.47832e-013
  70
    32
  0
VERTEX
  8
0
  5
491F
 10
1528.05
 20
368.651
 30
3.47834e-013
  70
    32
  0
VERTEX
  8
0
  5
4920
 10
1528.06
 20
368.694
 30
3.47835e-013
  70
    32
  0
VERTEX
  8
0
  5
4921
 10
1528.06
 20
368.736
 30
3.47837e-013
  70
    32
  0
VERTEX
  8
0
  5
4922
 10
1528.07
 20
368.779
 30
3.47838e-013
  70
    32
  0
VERTEX
  8
0
  5
4923
 10
1528.07
 20
368.822
 30
3.47840e-013
  70
    32
  0
VERTEX
  8
0
  5
4924
 10
1528.08
 20
368.864
 30
3.47841e-013
  70
    32
  0
VERTEX
  8
0
  5
4925
 10
1528.08
 20
368.907
 30
3.47843e-013
  70
    32
  0
VERTEX
  8
0
  5
4926
 10
1528.09
 20
368.949
 30
3.47845e-013
  70
    32
  0
VERTEX
  8
0
  5
4927
 10
1528.09
 20
368.992
 30
3.47847e-013
  70
    32
  0
VERTEX
  8
0
  5
4928
 10
1528.10
 20
369.034
 30
3.47848e-013
  70
    32
  0
VERTEX
  8
0
  5
4929
 10
1528.10
 20
369.077
 30
3.47850e-013
  70
    32
  0
VERTEX
  8
0
  5
492A
 10
1528.11
 20
369.119
 30
3.47852e-013
  70
    32
  0
VERTEX
  8
0
  5
492B
 10
1528.11
 20
369.162
 30
3.47854e-013
  70
    32
  0
VERTEX
  8
0
  5
492C
 10
1528.11
 20
369.204
 30
3.47856e-013
  70
    32
  0
VERTEX
  8
0
  5
492D
 10
1528.12
 20
369.246
 30
3.47858e-013
  70
    32
  0
VERTEX
  8
0
  5
492E
 10
1528.12
 20
369.289
 30
3.47859e-013
  70
    32
  0
VERTEX
  8
0
  5
492F
 10
1528.13
 20
369.331
 30
3.47861e-013
  70
    32
  0
VERTEX
  8
0
  5
4930
 10
1528.13
 20
369.373
 30
3.47863e-013
  70
    32
  0
VERTEX
  8
0
  5
4931
 10
1528.14
 20
369.416
 30
3.47864e-013
  70
    32
  0
VERTEX
  8
0
  5
4932
 10
1528.14
 20
369.458
 30
3.47866e-013
  70
    32
  0
VERTEX
  8
0
  5
4933
 10
1528.14
 20
369.500
 30
3.47867e-013
  70
    32
  0
VERTEX
  8
0
  5
4934
 10
1528.15
 20
369.542
 30
3.47869e-013
  70
    32
  0
VERTEX
  8
0
  5
4935
 10
1528.15
 20
369.584
 30
3.47870e-013
  70
    32
  0
VERTEX
  8
0
  5
4936
 10
1528.16
 20
369.627
 30
3.47872e-013
  70
    32
  0
VERTEX
  8
0
  5
4937
 10
1528.16
 20
369.669
 30
3.47873e-013
  70
    32
  0
VERTEX
  8
0
  5
4938
 10
1528.16
 20
369.711
 30
3.47874e-013
  70
    32
  0
VERTEX
  8
0
  5
4939
 10
1528.17
 20
369.753
 30
3.47876e-013
  70
    32
  0
VERTEX
  8
0
  5
493A
 10
1528.17
 20
369.795
 30
3.47877e-013
  70
    32
  0
VERTEX
  8
0
  5
493B
 10
1528.17
 20
369.837
 30
3.47878e-013
  70
    32
  0
VERTEX
  8
0
  5
493C
 10
1528.18
 20
369.879
 30
3.47879e-013
  70
    32
  0
VERTEX
  8
0
  5
493D
 10
1528.18
 20
369.920
 30
3.47880e-013
  70
    32
  0
VERTEX
  8
0
  5
493E
 10
1528.19
 20
369.962
 30
3.47881e-013
  70
    32
  0
VERTEX
  8
0
  5
493F
 10
1528.19
 20
370.004
 30
3.47882e-013
  70
    32
  0
VERTEX
  8
0
  5
4940
 10
1528.19
 20
370.046
 30
3.47883e-013
  70
    32
  0
VERTEX
  8
0
  5
4941
 10
1528.20
 20
370.088
 30
3.47884e-013
  70
    32
  0
VERTEX
  8
0
  5
4942
 10
1528.20
 20
370.129
 30
3.47885e-013
  70
    32
  0
VERTEX
  8
0
  5
4943
 10
1528.20
 20
370.171
 30
3.47886e-013
  70
    32
  0
VERTEX
  8
0
  5
4944
 10
1528.21
 20
370.213
 30
3.47887e-013
  70
    32
  0
VERTEX
  8
0
  5
4945
 10
1528.21
 20
370.254
 30
3.47888e-013
  70
    32
  0
VERTEX
  8
0
  5
4946
 10
1528.21
 20
370.296
 30
3.47888e-013
  70
    32
  0
VERTEX
  8
0
  5
4947
 10
1528.22
 20
370.337
 30
3.47889e-013
  70
    32
  0
VERTEX
  8
0
  5
4948
 10
1528.22
 20
370.379
 30
3.47890e-013
  70
    32
  0
VERTEX
  8
0
  5
4949
 10
1528.22
 20
370.420
 30
3.47891e-013
  70
    32
  0
VERTEX
  8
0
  5
494A
 10
1528.22
 20
370.462
 30
3.47891e-013
  70
    32
  0
VERTEX
  8
0
  5
494B
 10
1528.23
 20
370.503
 30
3.47892e-013
  70
    32
  0
VERTEX
  8
0
  5
494C
 10
1528.23
 20
370.545
 30
3.47892e-013
  70
    32
  0
VERTEX
  8
0
  5
494D
 10
1528.23
 20
370.586
 30
3.47893e-013
  70
    32
  0
VERTEX
  8
0
  5
494E
 10
1528.24
 20
370.627
 30
3.47894e-013
  70
    32
  0
VERTEX
  8
0
  5
494F
 10
1528.24
 20
370.669
 30
3.47894e-013
  70
    32
  0
VERTEX
  8
0
  5
4950
 10
1528.24
 20
370.710
 30
3.47894e-013
  70
    32
  0
VERTEX
  8
0
  5
4951
 10
1528.24
 20
370.751
 30
3.47895e-013
  70
    32
  0
VERTEX
  8
0
  5
4952
 10
1528.25
 20
370.792
 30
3.47895e-013
  70
    32
  0
VERTEX
  8
0
  5
4953
 10
1528.25
 20
370.833
 30
3.47896e-013
  70
    32
  0
VERTEX
  8
0
  5
4954
 10
1528.25
 20
370.874
 30
3.47896e-013
  70
    32
  0
VERTEX
  8
0
  5
4955
 10
1528.25
 20
370.915
 30
3.47896e-013
  70
    32
  0
VERTEX
  8
0
  5
4956
 10
1528.26
 20
370.956
 30
3.47897e-013
  70
    32
  0
VERTEX
  8
0
  5
4957
 10
1528.26
 20
370.997
 30
3.47897e-013
  70
    32
  0
VERTEX
  8
0
  5
4958
 10
1528.26
 20
371.038
 30
3.47897e-013
  70
    32
  0
VERTEX
  8
0
  5
4959
 10
1528.26
 20
371.079
 30
3.47898e-013
  70
    32
  0
VERTEX
  8
0
  5
495A
 10
1528.27
 20
371.120
 30
3.47898e-013
  70
    32
  0
VERTEX
  8
0
  5
495B
 10
1528.27
 20
371.161
 30
3.47898e-013
  70
    32
  0
VERTEX
  8
0
  5
495C
 10
1528.27
 20
371.202
 30
3.47898e-013
  70
    32
  0
VERTEX
  8
0
  5
495D
 10
1528.27
 20
371.242
 30
3.47899e-013
  70
    32
  0
VERTEX
  8
0
  5
495E
 10
1528.27
 20
371.283
 30
3.47899e-013
  70
    32
  0
VERTEX
  8
0
  5
495F
 10
1528.27
 20
371.324
 30
3.47899e-013
  70
    32
  0
VERTEX
  8
0
  5
4960
 10
1528.28
 20
371.364
 30
3.47899e-013
  70
    32
  0
VERTEX
  8
0
  5
4961
 10
1528.28
 20
371.405
 30
3.47899e-013
  70
    32
  0
VERTEX
  8
0
  5
4962
 10
1528.28
 20
371.445
 30
3.47899e-013
  70
    32
  0
VERTEX
  8
0
  5
4963
 10
1528.28
 20
371.486
 30
3.47899e-013
  70
    32
  0
VERTEX
  8
0
  5
4964
 10
1528.28
 20
371.526
 30
3.47900e-013
  70
    32
  0
VERTEX
  8
0
  5
4965
 10
1528.28
 20
371.567
 30
3.47900e-013
  70
    32
  0
VERTEX
  8
0
  5
4966
 10
1528.29
 20
371.607
 30
3.47900e-013
  70
    32
  0
VERTEX
  8
0
  5
4967
 10
1528.29
 20
371.647
 30
3.47900e-013
  70
    32
  0
VERTEX
  8
0
  5
4968
 10
1528.29
 20
371.688
 30
3.47900e-013
  70
    32
  0
VERTEX
  8
0
  5
4969
 10
1528.29
 20
371.728
 30
3.47900e-013
  70
    32
  0
VERTEX
  8
0
  5
496A
 10
1528.29
 20
371.768
 30
3.47900e-013
  70
    32
  0
VERTEX
  8
0
  5
496B
 10
1528.29
 20
371.808
 30
3.47900e-013
  70
    32
  0
VERTEX
  8
0
  5
496C
 10
1528.29
 20
371.848
 30
3.47900e-013
  70
    32
  0
VERTEX
  8
0
  5
496D
 10
1528.29
 20
371.888
 30
3.47900e-013
  70
    32
  0
VERTEX
  8
0
  5
496E
 10
1528.30
 20
371.928
 30
3.47900e-013
  70
    32
  0
VERTEX
  8
0
  5
496F
 10
1528.30
 20
371.968
 30
3.47900e-013
  70
    32
  0
VERTEX
  8
0
  5
4970
 10
1528.30
 20
372.008
 30
3.47900e-013
  70
    32
  0
VERTEX
  8
0
  5
4971
 10
1528.30
 20
372.048
 30
3.47900e-013
  70
    32
  0
VERTEX
  8
0
  5
4972
 10
1528.30
 20
372.088
 30
3.47900e-013
  70
    32
  0
VERTEX
  8
0
  5
4973
 10
1528.30
 20
372.128
 30
3.47900e-013
  70
    32
  0
VERTEX
  8
0
  5
4974
 10
1528.30
 20
372.167
 30
3.47900e-013
  70
    32
  0
SEQEND
  8
0
  5
4975
  0
POLYLINE
  8
0
  5
4976
  62
3
  66
     1
 10
0.000000
 20
0.000000
 30
0.000000
  70
     8
  0
VERTEX
  8
0
  5
4977
 10
1528.30
 20
345.090
 30
3.47900e-013
  70
    32
  0
VERTEX
  8
0
  5
4978
 10
1528.30
 20
345.129
 30
3.47900e-013
  70
    32
  0
VERTEX
  8
0
  5
4979
 10
1528.30
 20
345.169
 30
3.47900e-013
  70
    32
  0
VERTEX
  8
0
  5
497A
 10
1528.30
 20
345.209
 30
3.47900e-013
  70
    32
  0
VERTEX
  8
0
  5
497B
 10
1528.30
 20
345.249
 30
3.47900e-013
  70
    32
  0
VERTEX
  8
0
  5
497C
 10
1528.30
 20
345.289
 30
3.47900e-013
  70
    32
  0
VERTEX
  8
0
  5
497D
 10
1528.30
 20
345.329
 30
3.47900e-013
  70
    32
  0
VERTEX
  8
0
  5
497E
 10
1528.29
 20
345.369
 30
3.47900e-013
  70
    32
  0
VERTEX
  8
0
  5
497F
 10
1528.29
 20
345.409
 30
3.47900e-013
  70
    32
  0
VERTEX
  8
0
  5
4980
 10
1528.29
 20
345.449
 30
3.47900e-013
  70
    32
  0
VERTEX
  8
0
  5
4981
 10
1528.29
 20
345.489
 30
3.47900e-013
  70
    32
  0
VERTEX
  8
0
  5
4982
 10
1528.29
 20
345.529
 30
3.47900e-013
  70
    32
  0
VERTEX
  8
0
  5
4983
 10
1528.29
 20
345.569
 30
3.47900e-013
  70
    32
  0
VERTEX
  8
0
  5
4984
 10
1528.29
 20
345.610
 30
3.47900e-013
  70
    32
  0
VERTEX
  8
0
  5
4985
 10
1528.29
 20
345.650
 30
3.47900e-013
  70
    32
  0
VERTEX
  8
0
  5
4986
 10
1528.28
 20
345.690
 30
3.47900e-013
  70
    32
  0
VERTEX
  8
0
  5
4987
 10
1528.28
 20
345.731
 30
3.47900e-013
  70
    32
  0
VERTEX
  8
0
  5
4988
 10
1528.28
 20
345.771
 30
3.47899e-013
  70
    32
  0
VERTEX
  8
0
  5
4989
 10
1528.28
 20
345.812
 30
3.47899e-013
  70
    32
  0
VERTEX
  8
0
  5
498A
 10
1528.28
 20
345.852
 30
3.47899e-013
  70
    32
  0
VERTEX
  8
0
  5
498B
 10
1528.28
 20
345.893
 30
3.47899e-013
  70
    32
  0
VERTEX
  8
0
  5
498C
 10
1528.27
 20
345.933
 30
3.47899e-013
  70
    32
  0
VERTEX
  8
0
  5
498D
 10
1528.27
 20
345.974
 30
3.47899e-013
  70
    32
  0
VERTEX
  8
0
  5
498E
 10
1528.27
 20
346.015
 30
3.47899e-013
  70
    32
  0
VERTEX
  8
0
  5
498F
 10
1528.27
 20
346.055
 30
3.47898e-013
  70
    32
  0
VERTEX
  8
0
  5
4990
 10
1528.27
 20
346.096
 30
3.47898e-013
  70
    32
  0
VERTEX
  8
0
  5
4991
 10
1528.27
 20
346.137
 30
3.47898e-013
  70
    32
  0
VERTEX
  8
0
  5
4992
 10
1528.26
 20
346.178
 30
3.47898e-013
  70
    32
  0
VERTEX
  8
0
  5
4993
 10
1528.26
 20
346.219
 30
3.47897e-013
  70
    32
  0
VERTEX
  8
0
  5
4994
 10
1528.26
 20
346.260
 30
3.47897e-013
  70
    32
  0
VERTEX
  8
0
  5
4995
 10
1528.26
 20
346.300
 30
3.47897e-013
  70
    32
  0
VERTEX
  8
0
  5
4996
 10
1528.25
 20
346.341
 30
3.47896e-013
  70
    32
  0
VERTEX
  8
0
  5
4997
 10
1528.25
 20
346.383
 30
3.47896e-013
  70
    32
  0
VERTEX
  8
0
  5
4998
 10
1528.25
 20
346.424
 30
3.47896e-013
  70
    32
  0
VERTEX
  8
0
  5
4999
 10
1528.25
 20
346.465
 30
3.47895e-013
  70
    32
  0
VERTEX
  8
0
  5
499A
 10
1528.24
 20
346.506
 30
3.47895e-013
  70
    32
  0
VERTEX
  8
0
  5
499B
 10
1528.24
 20
346.547
 30
3.47894e-013
  70
    32
  0
VERTEX
  8
0
  5
499C
 10
1528.24
 20
346.588
 30
3.47894e-013
  70
    32
  0
VERTEX
  8
0
  5
499D
 10
1528.24
 20
346.630
 30
3.47894e-013
  70
    32
  0
VERTEX
  8
0
  5
499E
 10
1528.23
 20
346.671
 30
3.47893e-013
  70
    32
  0
VERTEX
  8
0
  5
499F
 10
1528.23
 20
346.712
 30
3.47892e-013
  70
    32
  0
VERTEX
  8
0
  5
49A0
 10
1528.23
 20
346.754
 30
3.47892e-013
  70
    32
  0
VERTEX
  8
0
  5
49A1
 10
1528.22
 20
346.795
 30
3.47891e-013
  70
    32
  0
VERTEX
  8
0
  5
49A2
 10
1528.22
 20
346.836
 30
3.47891e-013
  70
    32
  0
VERTEX
  8
0
  5
49A3
 10
1528.22
 20
346.878
 30
3.47890e-013
  70
    32
  0
VERTEX
  8
0
  5
49A4
 10
1528.22
 20
346.919
 30
3.47889e-013
  70
    32
  0
VERTEX
  8
0
  5
49A5
 10
1528.21
 20
346.961
 30
3.47888e-013
  70
    32
  0
VERTEX
  8
0
  5
49A6
 10
1528.21
 20
347.003
 30
3.47888e-013
  70
    32
  0
VERTEX
  8
0
  5
49A7
 10
1528.21
 20
347.044
 30
3.47887e-013
  70
    32
  0
VERTEX
  8
0
  5
49A8
 10
1528.20
 20
347.086
 30
3.47886e-013
  70
    32
  0
VERTEX
  8
0
  5
49A9
 10
1528.20
 20
347.128
 30
3.47885e-013
  70
    32
  0
VERTEX
  8
0
  5
49AA
 10
1528.20
 20
347.169
 30
3.47884e-013
  70
    32
  0
VERTEX
  8
0
  5
49AB
 10
1528.19
 20
347.211
 30
3.47883e-013
  70
    32
  0
VERTEX
  8
0
  5
49AC
 10
1528.19
 20
347.253
 30
3.47882e-013
  70
    32
  0
VERTEX
  8
0
  5
49AD
 10
1528.19
 20
347.295
 30
3.47881e-013
  70
    32
  0
VERTEX
  8
0
  5
49AE
 10
1528.18
 20
347.337
 30
3.47880e-013
  70
    32
  0
VERTEX
  8
0
  5
49AF
 10
1528.18
 20
347.378
 30
3.47879e-013
  70
    32
  0
VERTEX
  8
0
  5
49B0
 10
1528.17
 20
347.420
 30
3.47878e-013
  70
    32
  0
VERTEX
  8
0
  5
49B1
 10
1528.17
 20
347.462
 30
3.47877e-013
  70
    32
  0
VERTEX
  8
0
  5
49B2
 10
1528.17
 20
347.504
 30
3.47876e-013
  70
    32
  0
VERTEX
  8
0
  5
49B3
 10
1528.16
 20
347.546
 30
3.47874e-013
  70
    32
  0
VERTEX
  8
0
  5
49B4
 10
1528.16
 20
347.588
 30
3.47873e-013
  70
    32
  0
VERTEX
  8
0
  5
49B5
 10
1528.16
 20
347.630
 30
3.47872e-013
  70
    32
  0
VERTEX
  8
0
  5
49B6
 10
1528.15
 20
347.673
 30
3.47870e-013
  70
    32
  0
VERTEX
  8
0
  5
49B7
 10
1528.15
 20
347.715
 30
3.47869e-013
  70
    32
  0
VERTEX
  8
0
  5
49B8
 10
1528.14
 20
347.757
 30
3.47867e-013
  70
    32
  0
VERTEX
  8
0
  5
49B9
 10
1528.14
 20
347.799
 30
3.47866e-013
  70
    32
  0
VERTEX
  8
0
  5
49BA
 10
1528.14
 20
347.841
 30
3.47864e-013
  70
    32
  0
VERTEX
  8
0
  5
49BB
 10
1528.13
 20
347.884
 30
3.47863e-013
  70
    32
  0
VERTEX
  8
0
  5
49BC
 10
1528.13
 20
347.926
 30
3.47861e-013
  70
    32
  0
VERTEX
  8
0
  5
49BD
 10
1528.12
 20
347.968
 30
3.47859e-013
  70
    32
  0
VERTEX
  8
0
  5
49BE
 10
1528.12
 20
348.010
 30
3.47858e-013
  70
    32
  0
VERTEX
  8
0
  5
49BF
 10
1528.11
 20
348.053
 30
3.47856e-013
  70
    32
  0
VERTEX
  8
0
  5
49C0
 10
1528.11
 20
348.095
 30
3.47854e-013
  70
    32
  0
VERTEX
  8
0
  5
49C1
 10
1528.11
 20
348.138
 30
3.47852e-013
  70
    32
  0
VERTEX
  8
0
  5
49C2
 10
1528.10
 20
348.180
 30
3.47850e-013
  70
    32
  0
VERTEX
  8
0
  5
49C3
 10
1528.10
 20
348.223
 30
3.47848e-013
  70
    32
  0
VERTEX
  8
0
  5
49C4
 10
1528.09
 20
348.265
 30
3.47847e-013
  70
    32
  0
VERTEX
  8
0
  5
49C5
 10
1528.09
 20
348.308
 30
3.47845e-013
  70
    32
  0
VERTEX
  8
0
  5
49C6
 10
1528.08
 20
348.350
 30
3.47843e-013
  70
    32
  0
VERTEX
  8
0
  5
49C7
 10
1528.08
 20
348.393
 30
3.47841e-013
  70
    32
  0
VERTEX
  8
0
  5
49C8
 10
1528.07
 20
348.435
 30
3.47840e-013
  70
    32
  0
VERTEX
  8
0
  5
49C9
 10
1528.07
 20
348.478
 30
3.47838e-013
  70
    32
  0
VERTEX
  8
0
  5
49CA
 10
1528.06
 20
348.521
 30
3.47837e-013
  70
    32
  0
VERTEX
  8
0
  5
49CB
 10
1528.06
 20
348.563
 30
3.47835e-013
  70
    32
  0
VERTEX
  8
0
  5
49CC
 10
1528.05
 20
348.606
 30
3.47834e-013
  70
    32
  0
VERTEX
  8
0
  5
49CD
 10
1528.05
 20
348.649
 30
3.47832e-013
  70
    32
  0
VERTEX
  8
0
  5
49CE
 10
1528.04
 20
348.692
 30
3.47831e-013
  70
    32
  0
VERTEX
  8
0
  5
49CF
 10
1528.04
 20
348.734
 30
3.47829e-013
  70
    32
  0
VERTEX
  8
0
  5
49D0
 10
1528.03
 20
348.777
 30
3.47828e-013
  70
    32
  0
VERTEX
  8
0
  5
49D1
 10
1528.03
 20
348.820
 30
3.47827e-013
  70
    32
  0
VERTEX
  8
0
  5
49D2
 10
1528.02
 20
348.863
 30
3.47825e-013
  70
    32
  0
VERTEX
  8
0
  5
49D3
 10
1528.02
 20
348.906
 30
3.47824e-013
  70
    32
  0
VERTEX
  8
0
  5
49D4
 10
1528.01
 20
348.949
 30
3.47823e-013
  70
    32
  0
VERTEX
  8
0
  5
49D5
 10
1528.01
 20
348.991
 30
3.47822e-013
  70
    32
  0
VERTEX
  8
0
  5
49D6
 10
1528.00
 20
349.034
 30
3.47820e-013
  70
    32
  0
VERTEX
  8
0
  5
49D7
 10
1528.00
 20
349.077
 30
3.47819e-013
  70
    32
  0
VERTEX
  8
0
  5
49D8
 10
1527.99
 20
349.120
 30
3.47818e-013
  70
    32
  0
VERTEX
  8
0
  5
49D9
 10
1527.99
 20
349.163
 30
3.47817e-013
  70
    32
  0
VERTEX
  8
0
  5
49DA
 10
1527.98
 20
349.206
 30
3.47816e-013
  70
    32
  0
VERTEX
  8
0
  5
49DB
 10
1527.98
 20
349.249
 30
3.47815e-013
  70
    32
  0
VERTEX
  8
0
  5
49DC
 10
1527.97
 20
349.292
 30
3.47814e-013
  70
    32
  0
VERTEX
  8
0
  5
49DD
 10
1527.96
 20
349.335
 30
3.47813e-013
  70
    32
  0
VERTEX
  8
0
  5
49DE
 10
1527.96
 20
349.379
 30
3.47812e-013
  70
    32
  0
VERTEX
  8
0
  5
49DF
 10
1527.95
 20
349.422
 30
3.47811e-013
  70
    32
  0
VERTEX
  8
0
  5
49E0
 10
1527.95
 20
349.465
 30
3.47810e-013
  70
    32
  0
VERTEX
  8
0
  5
49E1
 10
1527.94
 20
349.508
 30
3.47809e-013
  70
    32
  0
VERTEX
  8
0
  5
49E2
 10
1527.94
 20
349.551
 30
3.47808e-013
  70
    32
  0
VERTEX
  8
0
  5
49E3
 10
1527.93
 20
349.594
 30
3.47807e-013
  70
    32
  0
VERTEX
  8
0
  5
49E4
 10
1527.93
 20
349.637
 30
3.47806e-013
  70
    32
  0
VERTEX
  8
0
  5
49E5
 10
1527.92
 20
349.681
 30
3.47805e-013
  70
    32
  0
VERTEX
  8
0
  5
49E6
 10
1527.91
 20
349.724
 30
3.47804e-013
  70
    32
  0
VERTEX
  8
0
  5
49E7
 10
1527.91
 20
349.767
 30
3.47803e-013
  70
    32
  0
VERTEX
  8
0
  5
49E8
 10
1527.90
 20
349.810
 30
3.47802e-013
  70
    32
  0
VERTEX
  8
0
  5
49E9
 10
1527.90
 20
349.854
 30
3.47801e-013
  70
    32
  0
VERTEX
  8
0
  5
49EA
 10
1527.89
 20
349.897
 30
3.47800e-013
  70
    32
  0
VERTEX
  8
0
  5
49EB
 10
1527.88
 20
349.940
 30
3.47799e-013
  70
    32
  0
VERTEX
  8
0
  5
49EC
 10
1527.88
 20
349.984
 30
3.47798e-013
  70
    32
  0
VERTEX
  8
0
  5
49ED
 10
1527.87
 20
350.027
 30
3.47797e-013
  70
    32
  0
VERTEX
  8
0
  5
49EE
 10
1527.87
 20
350.070
 30
3.47796e-013
  70
    32
  0
VERTEX
  8
0
  5
49EF
 10
1527.86
 20
350.114
 30
3.47795e-013
  70
    32
  0
VERTEX
  8
0
  5
49F0
 10
1527.85
 20
350.157
 30
3.47794e-013
  70
    32
  0
VERTEX
  8
0
  5
49F1
 10
1527.85
 20
350.201
 30
3.47793e-013
  70
    32
  0
VERTEX
  8
0
  5
49F2
 10
1527.84
 20
350.244
 30
3.47792e-013
  70
    32
  0
VERTEX
  8
0
  5
49F3
 10
1527.83
 20
350.287
 30
3.47791e-013
  70
    32
  0
VERTEX
  8
0
  5
49F4
 10
1527.83
 20
350.331
 30
3.47790e-013
  70
    32
  0
VERTEX
  8
0
  5
49F5
 10
1527.82
 20
350.374
 30
3.47789e-013
  70
    32
  0
VERTEX
  8
0
  5
49F6
 10
1527.82
 20
350.418
 30
3.47788e-013
  70
    32
  0
VERTEX
  8
0
  5
49F7
 10
1527.81
 20
350.461
 30
3.47787e-013
  70
    32
  0
VERTEX
  8
0
  5
49F8
 10
1527.80
 20
350.505
 30
3.47786e-013
  70
    32
  0
VERTEX
  8
0
  5
49F9
 10
1527.80
 20
350.548
 30
3.47785e-013
  70
    32
  0
VERTEX
  8
0
  5
49FA
 10
1527.79
 20
350.592
 30
3.47784e-013
  70
    32
  0
VERTEX
  8
0
  5
49FB
 10
1527.78
 20
350.635
 30
3.47783e-013
  70
    32
  0
VERTEX
  8
0
  5
49FC
 10
1527.78
 20
350.679
 30
3.47782e-013
  70
    32
  0
VERTEX
  8
0
  5
49FD
 10
1527.77
 20
350.722
 30
3.47781e-013
  70
    32
  0
VERTEX
  8
0
  5
49FE
 10
1527.76
 20
350.766
 30
3.47780e-013
  70
    32
  0
VERTEX
  8
0
  5
49FF
 10
1527.76
 20
350.809
 30
3.47779e-013
  70
    32
  0
VERTEX
  8
0
  5
4A00
 10
1527.75
 20
350.853
 30
3.47777e-013
  70
    32
  0
VERTEX
  8
0
  5
4A01
 10
1527.74
 20
350.896
 30
3.47776e-013
  70
    32
  0
VERTEX
  8
0
  5
4A02
 10
1527.74
 20
350.940
 30
3.47775e-013
  70
    32
  0
VERTEX
  8
0
  5
4A03
 10
1527.73
 20
350.984
 30
3.47774e-013
  70
    32
  0
VERTEX
  8
0
  5
4A04
 10
1527.72
 20
351.027
 30
3.47772e-013
  70
    32
  0
VERTEX
  8
0
  5
4A05
 10
1527.72
 20
351.071
 30
3.47771e-013
  70
    32
  0
VERTEX
  8
0
  5
4A06
 10
1527.71
 20
351.114
 30
3.47770e-013
  70
    32
  0
VERTEX
  8
0
  5
4A07
 10
1527.70
 20
351.158
 30
3.47768e-013
  70
    32
  0
VERTEX
  8
0
  5
4A08
 10
1527.70
 20
351.202
 30
3.47767e-013
  70
    32
  0
VERTEX
  8
0
  5
4A09
 10
1527.69
 20
351.245
 30
3.47766e-013
  70
    32
  0
VERTEX
  8
0
  5
4A0A
 10
1527.68
 20
351.289
 30
3.47764e-013
  70
    32
  0
VERTEX
  8
0
  5
4A0B
 10
1527.68
 20
351.333
 30
3.47763e-013
  70
    32
  0
VERTEX
  8
0
  5
4A0C
 10
1527.67
 20
351.376
 30
3.47761e-013
  70
    32
  0
VERTEX
  8
0
  5
4A0D
 10
1527.66
 20
351.420
 30
3.47759e-013
  70
    32
  0
VERTEX
  8
0
  5
4A0E
 10
1527.65
 20
351.464
 30
3.47758e-013
  70
    32
  0
VERTEX
  8
0
  5
4A0F
 10
1527.65
 20
351.507
 30
3.47756e-013
  70
    32
  0
VERTEX
  8
0
  5
4A10
 10
1527.64
 20
351.551
 30
3.47754e-013
  70
    32
  0
VERTEX
  8
0
  5
4A11
 10
1527.63
 20
351.595
 30
3.47753e-013
  70
    32
  0
VERTEX
  8
0
  5
4A12
 10
1527.63
 20
351.638
 30
3.47751e-013
  70
    32
  0
VERTEX
  8
0
  5
4A13
 10
1527.62
 20
351.682
 30
3.47749e-013
  70
    32
  0
VERTEX
  8
0
  5
4A14
 10
1527.61
 20
351.726
 30
3.47747e-013
  70
    32
  0
VERTEX
  8
0
  5
4A15
 10
1527.60
 20
351.769
 30
3.47745e-013
  70
    32
  0
VERTEX
  8
0
  5
4A16
 10
1527.60
 20
351.813
 30
3.47743e-013
  70
    32
  0
VERTEX
  8
0
  5
4A17
 10
1527.59
 20
351.857
 30
3.47741e-013
  70
    32
  0
VERTEX
  8
0
  5
4A18
 10
1527.58
 20
351.900
 30
3.47739e-013
  70
    32
  0
VERTEX
  8
0
  5
4A19
 10
1527.58
 20
351.944
 30
3.47737e-013
  70
    32
  0
VERTEX
  8
0
  5
4A1A
 10
1527.57
 20
351.988
 30
3.47735e-013
  70
    32
  0
VERTEX
  8
0
  5
4A1B
 10
1527.56
 20
352.032
 30
3.47733e-013
  70
    32
  0
VERTEX
  8
0
  5
4A1C
 10
1527.55
 20
352.075
 30
3.47731e-013
  70
    32
  0
VERTEX
  8
0
  5
4A1D
 10
1527.55
 20
352.119
 30
3.47728e-013
  70
    32
  0
VERTEX
  8
0
  5
4A1E
 10
1527.54
 20
352.163
 30
3.47726e-013
  70
    32
  0
VERTEX
  8
0
  5
4A1F
 10
1527.53
 20
352.206
 30
3.47724e-013
  70
    32
  0
VERTEX
  8
0
  5
4A20
 10
1527.52
 20
352.250
 30
3.47722e-013
  70
    32
  0
VERTEX
  8
0
  5
4A21
 10
1527.52
 20
352.294
 30
3.47719e-013
  70
    32
  0
VERTEX
  8
0
  5
4A22
 10
1527.51
 20
352.338
 30
3.47717e-013
  70
    32
  0
VERTEX
  8
0
  5
4A23
 10
1527.50
 20
352.381
 30
3.47714e-013
  70
    32
  0
VERTEX
  8
0
  5
4A24
 10
1527.49
 20
352.425
 30
3.47712e-013
  70
    32
  0
VERTEX
  8
0
  5
4A25
 10
1527.49
 20
352.469
 30
3.47709e-013
  70
    32
  0
VERTEX
  8
0
  5
4A26
 10
1527.48
 20
352.512
 30
3.47707e-013
  70
    32
  0
VERTEX
  8
0
  5
4A27
 10
1527.47
 20
352.556
 30
3.47704e-013
  70
    32
  0
VERTEX
  8
0
  5
4A28
 10
1527.46
 20
352.600
 30
3.47702e-013
  70
    32
  0
VERTEX
  8
0
  5
4A29
 10
1527.46
 20
352.643
 30
3.47699e-013
  70
    32
  0
VERTEX
  8
0
  5
4A2A
 10
1527.45
 20
352.687
 30
3.47697e-013
  70
    32
  0
VERTEX
  8
0
  5
4A2B
 10
1527.44
 20
352.731
 30
3.47694e-013
  70
    32
  0
VERTEX
  8
0
  5
4A2C
 10
1527.43
 20
352.774
 30
3.47692e-013
  70
    32
  0
VERTEX
  8
0
  5
4A2D
 10
1527.43
 20
352.818
 30
3.47689e-013
  70
    32
  0
VERTEX
  8
0
  5
4A2E
 10
1527.42
 20
352.862
 30
3.47686e-013
  70
    32
  0
VERTEX
  8
0
  5
4A2F
 10
1527.41
 20
352.905
 30
3.47684e-013
  70
    32
  0
VERTEX
  8
0
  5
4A30
 10
1527.40
 20
352.949
 30
3.47681e-013
  70
    32
  0
VERTEX
  8
0
  5
4A31
 10
1527.39
 20
352.993
 30
3.47678e-013
  70
    32
  0
VERTEX
  8
0
  5
4A32
 10
1527.39
 20
353.036
 30
3.47676e-013
  70
    32
  0
VERTEX
  8
0
  5
4A33
 10
1527.38
 20
353.080
 30
3.47673e-013
  70
    32
  0
VERTEX
  8
0
  5
4A34
 10
1527.37
 20
353.124
 30
3.47670e-013
  70
    32
  0
VERTEX
  8
0
  5
4A35
 10
1527.36
 20
353.167
 30
3.47667e-013
  70
    32
  0
VERTEX
  8
0
  5
4A36
 10
1527.36
 20
353.211
 30
3.47665e-013
  70
    32
  0
VERTEX
  8
0
  5
4A37
 10
1527.35
 20
353.255
 30
3.47662e-013
  70
    32
  0
VERTEX
  8
0
  5
4A38
 10
1527.34
 20
353.298
 30
3.47659e-013
  70
    32
  0
VERTEX
  8
0
  5
4A39
 10
1527.33
 20
353.342
 30
3.47656e-013
  70
    32
  0
VERTEX
  8
0
  5
4A3A
 10
1527.32
 20
353.385
 30
3.47654e-013
  70
    32
  0
VERTEX
  8
0
  5
4A3B
 10
1527.32
 20
353.429
 30
3.47651e-013
  70
    32
  0
VERTEX
  8
0
  5
4A3C
 10
1527.31
 20
353.473
 30
3.47648e-013
  70
    32
  0
VERTEX
  8
0
  5
4A3D
 10
1527.30
 20
353.516
 30
3.47645e-013
  70
    32
  0
VERTEX
  8
0
  5
4A3E
 10
1527.29
 20
353.560
 30
3.47643e-013
  70
    32
  0
VERTEX
  8
0
  5
4A3F
 10
1527.28
 20
353.603
 30
3.47640e-013
  70
    32
  0
VERTEX
  8
0
  5
4A40
 10
1527.28
 20
353.647
 30
3.47637e-013
  70
    32
  0
VERTEX
  8
0
  5
4A41
 10
1527.27
 20
353.690
 30
3.47635e-013
  70
    32
  0
VERTEX
  8
0
  5
4A42
 10
1527.26
 20
353.734
 30
3.47632e-013
  70
    32
  0
VERTEX
  8
0
  5
4A43
 10
1527.25
 20
353.777
 30
3.47629e-013
  70
    32
  0
VERTEX
  8
0
  5
4A44
 10
1527.25
 20
353.821
 30
3.47626e-013
  70
    32
  0
VERTEX
  8
0
  5
4A45
 10
1527.24
 20
353.864
 30
3.47624e-013
  70
    32
  0
VERTEX
  8
0
  5
4A46
 10
1527.23
 20
353.908
 30
3.47621e-013
  70
    32
  0
VERTEX
  8
0
  5
4A47
 10
1527.22
 20
353.951
 30
3.47618e-013
  70
    32
  0
VERTEX
  8
0
  5
4A48
 10
1527.21
 20
353.995
 30
3.47616e-013
  70
    32
  0
VERTEX
  8
0
  5
4A49
 10
1527.20
 20
354.038
 30
3.47613e-013
  70
    32
  0
VERTEX
  8
0
  5
4A4A
 10
1527.20
 20
354.082
 30
3.47610e-013
  70
    32
  0
VERTEX
  8
0
  5
4A4B
 10
1527.19
 20
354.125
 30
3.47608e-013
  70
    32
  0
VERTEX
  8
0
  5
4A4C
 10
1527.18
 20
354.168
 30
3.47605e-013
  70
    32
  0
VERTEX
  8
0
  5
4A4D
 10
1527.17
 20
354.212
 30
3.47602e-013
  70
    32
  0
VERTEX
  8
0
  5
4A4E
 10
1527.16
 20
354.255
 30
3.47600e-013
  70
    32
  0
VERTEX
  8
0
  5
4A4F
 10
1527.16
 20
354.299
 30
3.47597e-013
  70
    32
  0
VERTEX
  8
0
  5
4A50
 10
1527.15
 20
354.342
 30
3.47595e-013
  70
    32
  0
VERTEX
  8
0
  5
4A51
 10
1527.14
 20
354.385
 30
3.47592e-013
  70
    32
  0
VERTEX
  8
0
  5
4A52
 10
1527.13
 20
354.429
 30
3.47590e-013
  70
    32
  0
VERTEX
  8
0
  5
4A53
 10
1527.12
 20
354.472
 30
3.47587e-013
  70
    32
  0
VERTEX
  8
0
  5
4A54
 10
1527.12
 20
354.515
 30
3.47585e-013
  70
    32
  0
VERTEX
  8
0
  5
4A55
 10
1527.11
 20
354.558
 30
3.47583e-013
  70
    32
  0
VERTEX
  8
0
  5
4A56
 10
1527.10
 20
354.602
 30
3.47580e-013
  70
    32
  0
VERTEX
  8
0
  5
4A57
 10
1527.09
 20
354.645
 30
3.47578e-013
  70
    32
  0
VERTEX
  8
0
  5
4A58
 10
1527.08
 20
354.688
 30
3.47575e-013
  70
    32
  0
VERTEX
  8
0
  5
4A59
 10
1527.07
 20
354.731
 30
3.47573e-013
  70
    32
  0
VERTEX
  8
0
  5
4A5A
 10
1527.07
 20
354.774
 30
3.47571e-013
  70
    32
  0
VERTEX
  8
0
  5
4A5B
 10
1527.06
 20
354.818
 30
3.47569e-013
  70
    32
  0
VERTEX
  8
0
  5
4A5C
 10
1527.05
 20
354.861
 30
3.47567e-013
  70
    32
  0
VERTEX
  8
0
  5
4A5D
 10
1527.04
 20
354.904
 30
3.47564e-013
  70
    32
  0
VERTEX
  8
0
  5
4A5E
 10
1527.03
 20
354.947
 30
3.47562e-013
  70
    32
  0
VERTEX
  8
0
  5
4A5F
 10
1527.02
 20
354.990
 30
3.47560e-013
  70
    32
  0
VERTEX
  8
0
  5
4A60
 10
1527.02
 20
355.033
 30
3.47558e-013
  70
    32
  0
VERTEX
  8
0
  5
4A61
 10
1527.01
 20
355.076
 30
3.47556e-013
  70
    32
  0
VERTEX
  8
0
  5
4A62
 10
1527.00
 20
355.119
 30
3.47554e-013
  70
    32
  0
VERTEX
  8
0
  5
4A63
 10
1526.99
 20
355.162
 30
3.47552e-013
  70
    32
  0
VERTEX
  8
0
  5
4A64
 10
1526.98
 20
355.205
 30
3.47550e-013
  70
    32
  0
VERTEX
  8
0
  5
4A65
 10
1526.98
 20
355.248
 30
3.47549e-013
  70
    32
  0
VERTEX
  8
0
  5
4A66
 10
1526.97
 20
355.291
 30
3.47547e-013
  70
    32
  0
VERTEX
  8
0
  5
4A67
 10
1526.96
 20
355.334
 30
3.47545e-013
  70
    32
  0
VERTEX
  8
0
  5
4A68
 10
1526.95
 20
355.377
 30
3.47543e-013
  70
    32
  0
VERTEX
  8
0
  5
4A69
 10
1526.94
 20
355.420
 30
3.47542e-013
  70
    32
  0
VERTEX
  8
0
  5
4A6A
 10
1526.93
 20
355.463
 30
3.47540e-013
  70
    32
  0
VERTEX
  8
0
  5
4A6B
 10
1526.93
 20
355.505
 30
3.47539e-013
  70
    32
  0
VERTEX
  8
0
  5
4A6C
 10
1526.92
 20
355.548
 30
3.47537e-013
  70
    32
  0
VERTEX
  8
0
  5
4A6D
 10
1526.91
 20
355.591
 30
3.47535e-013
  70
    32
  0
VERTEX
  8
0
  5
4A6E
 10
1526.90
 20
355.634
 30
3.47534e-013
  70
    32
  0
VERTEX
  8
0
  5
4A6F
 10
1526.89
 20
355.676
 30
3.47533e-013
  70
    32
  0
VERTEX
  8
0
  5
4A70
 10
1526.88
 20
355.719
 30
3.47531e-013
  70
    32
  0
VERTEX
  8
0
  5
4A71
 10
1526.88
 20
355.762
 30
3.47530e-013
  70
    32
  0
VERTEX
  8
0
  5
4A72
 10
1526.87
 20
355.804
 30
3.47528e-013
  70
    32
  0
VERTEX
  8
0
  5
4A73
 10
1526.86
 20
355.847
 30
3.47527e-013
  70
    32
  0
VERTEX
  8
0
  5
4A74
 10
1526.85
 20
355.890
 30
3.47526e-013
  70
    32
  0
VERTEX
  8
0
  5
4A75
 10
1526.84
 20
355.932
 30
3.47524e-013
  70
    32
  0
VERTEX
  8
0
  5
4A76
 10
1526.83
 20
355.975
 30
3.47523e-013
  70
    32
  0
VERTEX
  8
0
  5
4A77
 10
1526.82
 20
356.017
 30
3.47522e-013
  70
    32
  0
VERTEX
  8
0
  5
4A78
 10
1526.82
 20
356.060
 30
3.47520e-013
  70
    32
  0
VERTEX
  8
0
  5
4A79
 10
1526.81
 20
356.102
 30
3.47519e-013
  70
    32
  0
VERTEX
  8
0
  5
4A7A
 10
1526.80
 20
356.145
 30
3.47518e-013
  70
    32
  0
VERTEX
  8
0
  5
4A7B
 10
1526.79
 20
356.187
 30
3.47517e-013
  70
    32
  0
VERTEX
  8
0
  5
4A7C
 10
1526.78
 20
356.230
 30
3.47515e-013
  70
    32
  0
VERTEX
  8
0
  5
4A7D
 10
1526.77
 20
356.272
 30
3.47514e-013
  70
    32
  0
VERTEX
  8
0
  5
4A7E
 10
1526.77
 20
356.314
 30
3.47513e-013
  70
    32
  0
VERTEX
  8
0
  5
4A7F
 10
1526.76
 20
356.357
 30
3.47512e-013
  70
    32
  0
VERTEX
  8
0
  5
4A80
 10
1526.75
 20
356.399
 30
3.47510e-013
  70
    32
  0
VERTEX
  8
0
  5
4A81
 10
1526.74
 20
356.441
 30
3.47509e-013
  70
    32
  0
VERTEX
  8
0
  5
4A82
 10
1526.73
 20
356.483
 30
3.47508e-013
  70
    32
  0
VERTEX
  8
0
  5
4A83
 10
1526.72
 20
356.525
 30
3.47507e-013
  70
    32
  0
VERTEX
  8
0
  5
4A84
 10
1526.72
 20
356.568
 30
3.47506e-013
  70
    32
  0
VERTEX
  8
0
  5
4A85
 10
1526.71
 20
356.610
 30
3.47504e-013
  70
    32
  0
VERTEX
  8
0
  5
4A86
 10
1526.70
 20
356.652
 30
3.47503e-013
  70
    32
  0
VERTEX
  8
0
  5
4A87
 10
1526.69
 20
356.694
 30
3.47502e-013
  70
    32
  0
VERTEX
  8
0
  5
4A88
 10
1526.68
 20
356.736
 30
3.47501e-013
  70
    32
  0
VERTEX
  8
0
  5
4A89
 10
1526.67
 20
356.778
 30
3.47499e-013
  70
    32
  0
VERTEX
  8
0
  5
4A8A
 10
1526.67
 20
356.820
 30
3.47498e-013
  70
    32
  0
VERTEX
  8
0
  5
4A8B
 10
1526.66
 20
356.862
 30
3.47497e-013
  70
    32
  0
VERTEX
  8
0
  5
4A8C
 10
1526.65
 20
356.904
 30
3.47495e-013
  70
    32
  0
VERTEX
  8
0
  5
4A8D
 10
1526.64
 20
356.945
 30
3.47494e-013
  70
    32
  0
VERTEX
  8
0
  5
4A8E
 10
1526.63
 20
356.987
 30
3.47493e-013
  70
    32
  0
VERTEX
  8
0
  5
4A8F
 10
1526.62
 20
357.029
 30
3.47491e-013
  70
    32
  0
VERTEX
  8
0
  5
4A90
 10
1526.62
 20
357.071
 30
3.47490e-013
  70
    32
  0
VERTEX
  8
0
  5
4A91
 10
1526.61
 20
357.113
 30
3.47488e-013
  70
    32
  0
VERTEX
  8
0
  5
4A92
 10
1526.60
 20
357.154
 30
3.47487e-013
  70
    32
  0
VERTEX
  8
0
  5
4A93
 10
1526.59
 20
357.196
 30
3.47485e-013
  70
    32
  0
VERTEX
  8
0
  5
4A94
 10
1526.58
 20
357.237
 30
3.47484e-013
  70
    32
  0
VERTEX
  8
0
  5
4A95
 10
1526.57
 20
357.279
 30
3.47482e-013
  70
    32
  0
VERTEX
  8
0
  5
4A96
 10
1526.57
 20
357.321
 30
3.47480e-013
  70
    32
  0
VERTEX
  8
0
  5
4A97
 10
1526.56
 20
357.362
 30
3.47479e-013
  70
    32
  0
VERTEX
  8
0
  5
4A98
 10
1526.55
 20
357.404
 30
3.47477e-013
  70
    32
  0
VERTEX
  8
0
  5
4A99
 10
1526.54
 20
357.445
 30
3.47475e-013
  70
    32
  0
VERTEX
  8
0
  5
4A9A
 10
1526.53
 20
357.486
 30
3.47474e-013
  70
    32
  0
VERTEX
  8
0
  5
4A9B
 10
1526.52
 20
357.528
 30
3.47472e-013
  70
    32
  0
VERTEX
  8
0
  5
4A9C
 10
1526.52
 20
357.569
 30
3.47470e-013
  70
    32
  0
VERTEX
  8
0
  5
4A9D
 10
1526.51
 20
357.610
 30
3.47468e-013
  70
    32
  0
VERTEX
  8
0
  5
4A9E
 10
1526.50
 20
357.652
 30
3.47466e-013
  70
    32
  0
VERTEX
  8
0
  5
4A9F
 10
1526.49
 20
357.693
 30
3.47464e-013
  70
    32
  0
VERTEX
  8
0
  5
4AA0
 10
1526.48
 20
357.734
 30
3.47462e-013
  70
    32
  0
VERTEX
  8
0
  5
4AA1
 10
1526.47
 20
357.775
 30
3.47460e-013
  70
    32
  0
VERTEX
  8
0
  5
4AA2
 10
1526.47
 20
357.816
 30
3.47458e-013
  70
    32
  0
VERTEX
  8
0
  5
4AA3
 10
1526.46
 20
357.857
 30
3.47455e-013
  70
    32
  0
VERTEX
  8
0
  5
4AA4
 10
1526.45
 20
357.898
 30
3.47453e-013
  70
    32
  0
VERTEX
  8
0
  5
4AA5
 10
1526.44
 20
357.939
 30
3.47451e-013
  70
    32
  0
VERTEX
  8
0
  5
4AA6
 10
1526.43
 20
357.980
 30
3.47448e-013
  70
    32
  0
VERTEX
  8
0
  5
4AA7
 10
1526.42
 20
358.021
 30
3.47446e-013
  70
    32
  0
VERTEX
  8
0
  5
4AA8
 10
1526.42
 20
358.062
 30
3.47443e-013
  70
    32
  0
VERTEX
  8
0
  5
4AA9
 10
1526.41
 20
358.102
 30
3.47441e-013
  70
    32
  0
VERTEX
  8
0
  5
4AAA
 10
1526.40
 20
358.143
 30
3.47438e-013
  70
    32
  0
VERTEX
  8
0
  5
4AAB
 10
1526.39
 20
358.184
 30
3.47435e-013
  70
    32
  0
VERTEX
  8
0
  5
4AAC
 10
1526.38
 20
358.224
 30
3.47432e-013
  70
    32
  0
VERTEX
  8
0
  5
4AAD
 10
1526.38
 20
358.265
 30
3.47430e-013
  70
    32
  0
VERTEX
  8
0
  5
4AAE
 10
1526.37
 20
358.306
 30
3.47427e-013
  70
    32
  0
VERTEX
  8
0
  5
4AAF
 10
1526.36
 20
358.346
 30
3.47424e-013
  70
    32
  0
VERTEX
  8
0
  5
4AB0
 10
1526.35
 20
358.387
 30
3.47420e-013
  70
    32
  0
VERTEX
  8
0
  5
4AB1
 10
1526.34
 20
358.427
 30
3.47417e-013
  70
    32
  0
VERTEX
  8
0
  5
4AB2
 10
1526.33
 20
358.467
 30
3.47414e-013
  70
    32
  0
VERTEX
  8
0
  5
4AB3
 10
1526.33
 20
358.508
 30
3.47411e-013
  70
    32
  0
VERTEX
  8
0
  5
4AB4
 10
1526.32
 20
358.548
 30
3.47407e-013
  70
    32
  0
VERTEX
  8
0
  5
4AB5
 10
1526.31
 20
358.588
 30
3.47404e-013
  70
    32
  0
VERTEX
  8
0
  5
4AB6
 10
1526.30
 20
358.628
 30
3.47400e-013
  70
    32
  0
SEQEND
  8
0
  5
4AB7
  0
LINE
  5
452A
  8
0
  6
CONTINUOUS
 62
     3
 10
1526.3017150103969
 20
235.62848099074219
 30
0.0000000000003411
 11
1528.2995761315949
 21
233.63061986954401
 31
0.0000000000003411
  0
LINE
  5
452B
  8
0
  6
CONTINUOUS
 62
     3
 10
1528.2995761315949
 20
483.62634211194029
 30
0.0000000000003411
 11
1526.3017150103969
 21
481.6284809907421
 31
0.0000000000003411
  0
LINE
  5
452C
  8
0
  6
VERDECKT
 62
     1
 10
1510.3038504617609
 20
488.62848099074171
 30
0.0000000000003411
 11
1521.8434043443419
 21
489.12717547735781
 31
0.0000000000003428
  0
LINE
  5
452D
  8
0
  6
VERDECKT
 62
     1
 10
1510.3038504617609
 20
490.63034775063358
 30
0.0000000000003411
 11
1510.3038504617609
 21
488.62848099074159
 31
0.0000000000003411
  0
LINE
  5
452E
  8
0
  6
VERDECKT
 62
     1
 10
1521.7570527480309
 20
491.12531045823698
 30
0.0000000000003411
 11
1510.3038504617609
 21
490.63034775063358
 31
0.0000000000003393
  0
ARC
  5
452F
  8
0
  6
VERDECKT
 62
     1
 10
1521.9038504617599
 20
487.72848099074201
 30
0.0000000000003411
 40
3.3999999999998871
 50
90.0
 51
92.474560242947859
  0
ARC
  5
4530
  8
0
  6
VERDECKT
 62
     1
 10
1521.9038504617611
 20
229.5284809907418
 30
0.0000000000003411
 40
3.3999999999999022
 50
267.5254397570522
 51
270.0
  0
LINE
  5
4531
  8
0
  6
VERDECKT
 62
     1
 10
1510.3038504617609
 20
226.62661423085021
 30
0.0000000000003411
 11
1521.757052748032
 21
226.13165152324669
 31
0.0000000000003428
  0
LINE
  5
4532
  8
0
  6
VERDECKT
 62
     1
 10
1510.3038504617609
 20
228.62848099074191
 30
0.0000000000003411
 11
1510.3038504617609
 21
226.62661423085021
 31
0.0000000000003411
  0
LINE
  5
4533
  8
0
  6
VERDECKT
 62
     1
 10
1521.8434043443431
 20
228.1297865041262
 30
0.0000000000003411
 11
1510.3038504617609
 21
228.62848099074191
 31
0.0000000000003393
  0
ARC
  5
4534
  8
0
  6
VERDECKT
 62
     1
 10
-1521.9038504617611
 20
229.5284809907418
 30
-0.0000000000000997
 40
1.3999999999999291
210
0.0000000000000002
220
0.0
230
-1.0
 50
180.0
 51
272.47456024294632
  0
LINE
  5
4535
  8
0
  6
VERDECKT
 62
     1
 10
1523.30385046176
 20
487.72848099074201
 30
0.0000000000003411
 11
1523.3038504617609
 21
229.5284809907418
 31
0.0000000000003411
  0
ARC
  5
4536
  8
0
  6
VERDECKT
 62
     1
 10
-1521.9038504617599
 20
487.72848099074201
 30
-0.0000000000000997
 40
1.400000000000031
210
0.0000000000000002
220
0.0
230
-1.0
 50
87.525439757056176
 51
180.0
  0
LINE
  5
4537
  8
0
  6
VERDECKT
 62
     1
 10
1326.3038504617609
 20
228.62848099074191
 30
0.0000000000002842
 11
1324.3038504617609
 21
228.62848099074191
 31
0.0000000000002838
  0
LINE
  5
4538
  8
0
  6
VERDECKT
 62
     1
 10
1510.3038504617609
 20
226.62661423085009
 30
0.0000000000003411
 11
1322.8038504617609
 21
226.62661423085009
 31
0.0000000000002984
  0
LINE
  5
4539
  8
0
  6
VERDECKT
 62
     1
 10
1322.3038504617609
 20
487.7284809907419
 30
0.0000000000002842
 11
1322.3038504617609
 21
229.52848099074171
 31
0.0000000000002842
  0
LINE
  5
453A
  8
0
  6
VERDECKT
 62
     1
 10
1326.3038504617609
 20
488.62848099074159
 30
0.0000000000002842
 11
1324.3038504617609
 21
488.62848099074159
 31
0.0000000000002838
  0
LINE
  5
453B
  8
0
  6
VERDECKT
 62
     1
 10
1510.3038504617609
 20
490.63034775063358
 30
0.0000000000003411
 11
1322.80385046176
 21
490.63034775063358
 31
0.0000000000002984
  0
LINE
  5
453C
  8
0
  6
VERDECKT
 62
     1
 10
1521.9038504617599
 20
489.12848099074199
 30
0.0000000000003411
 11
1324.3038504617609
 21
489.12848099074199
 31
0.0000000000002961
  0
LINE
  5
453D
  8
0
  6
VERDECKT
 62
     1
 10
1521.9038504617611
 20
228.12848099074179
 30
0.0000000000003411
 11
1324.3038504617609
 21
228.12848099074179
 31
0.0000000000002961
  0
LINE
  5
453E
  8
0
  6
VERDECKT
 62
     1
 10
1407.303850461763
 20
230.62848099074199
 30
0.0000000000003411
 11
1407.303850461763
 21
228.62848099074179
 31
0.0000000000003411
  0
LINE
  5
453F
  8
0
  6
VERDECKT
 62
     1
 10
1519.3038504617621
 20
230.62848099074199
 30
0.0000000000003411
 11
1519.3038504617621
 21
228.62848099074179
 31
0.0000000000003411
  0
LINE
  5
4540
  8
0
  6
VERDECKT
 62
     1
 10
1407.303850461763
 20
488.62848099074199
 30
0.0000000000003411
 11
1407.303850461763
 21
486.62848099074171
 31
0.0000000000003411
  0
LINE
  5
4541
  8
0
  6
VERDECKT
 62
     1
 10
1519.3038504617621
 20
488.62848099074199
 30
0.0000000000003411
 11
1519.3038504617621
 21
486.62848099074171
 31
0.0000000000003411
  0
LINE
  5
4542
  8
0
  6
VERDECKT
 62
     1
 10
1327.3038504617639
 20
230.62848099074199
 30
0.0000000000002842
 11
1327.3038504617639
 21
228.62848099074179
 31
0.0000000000002842
  0
LINE
  5
4543
  8
0
  6
VERDECKT
 62
     1
 10
1397.303850461763
 20
230.62848099074199
 30
0.0000000000003411
 11
1397.303850461763
 21
228.62848099074179
 31
0.0000000000003411
  0
LINE
  5
4544
  8
0
  6
VERDECKT
 62
     1
 10
1327.3038504617639
 20
488.62848099074199
 30
0.0000000000002842
 11
1327.3038504617639
 21
486.62848099074171
 31
0.0000000000002842
  0
LINE
  5
4545
  8
0
  6
VERDECKT
 62
     1
 10
1397.303850461763
 20
488.62848099074199
 30
0.0000000000003411
 11
1397.303850461763
 21
486.62848099074171
 31
0.0000000000003411
  0
LINE
  5
4546
  8
0
  6
VERDECKT
 62
     1
 10
1322.3038504617609
 20
398.6284809907425
 30
0.0000000000002842
 11
1324.3038504617609
 21
398.6284809907425
 31
0.0000000000002847
  0
LINE
  5
4547
  8
0
  6
VERDECKT
 62
     1
 10
1322.3038504617609
 20
318.62848099074239
 30
0.0000000000002842
 11
1324.3038504617609
 21
318.62848099074239
 31
0.0000000000002847
  0
LINE
  5
4548
  8
0
  6
VERDECKT
 62
     1
 10
1322.3038504617609
 20
308.6284809907425
 30
0.0000000000002842
 11
1324.3038504617609
 21
308.6284809907425
 31
0.0000000000002847
  0
LINE
  5
4549
  8
0
  6
VERDECKT
 62
     1
 10
1322.3038504617609
 20
238.62848099074239
 30
0.0000000000002842
 11
1324.3038504617609
 21
238.62848099074239
 31
0.0000000000002847
  0
LINE
  5
454A
  8
0
  6
VERDECKT
 62
     1
 10
1322.3038504617609
 20
478.62848099074239
 30
0.0000000000002842
 11
1324.3038504617609
 21
478.62848099074239
 31
0.0000000000002847
  0
LINE
  5
454B
  8
0
  6
VERDECKT
 62
     1
 10
1322.3038504617609
 20
408.62848099074239
 30
0.0000000000002842
 11
1324.3038504617609
 21
408.62848099074239
 31
0.0000000000002847
  0
LINE
  5
454C
  8
0
  6
VERDECKT
 62
     1
 10
1480.2327826498961
 20
488.62848099074199
 30
0.0000000000003411
 11
1480.2327826498961
 21
486.62848099074171
 31
0.0000000000003411
  0
LINE
  5
454D
  8
0
  6
VERDECKT
 62
     1
 10
1480.2327826498961
 20
230.62848099074199
 30
0.0000000000003411
 11
1480.2327826498961
 21
228.62848099074179
 31
0.0000000000003411
  0
LINE
  5
454E
  8
0
  6
VERDECKT
 62
     1
 10
1490.2327826498949
 20
488.62848099074199
 30
0.0000000000003411
 11
1490.2327826498949
 21
486.62848099074171
 31
0.0000000000003411
  0
LINE
  5
454F
  8
0
  6
VERDECKT
 62
     1
 10
1490.2327826498949
 20
230.62848099074199
 30
0.0000000000003411
 11
1490.2327826498949
 21
228.62848099074179
 31
0.0000000000003411
  0
LINE
  5
4550
  8
0
  6
VERDECKT
 62
     1
 10
1510.2327826498949
 20
488.62848099074199
 30
0.0000000000003411
 11
1510.2327826498949
 21
486.62848099074171
 31
0.0000000000003411
  0
LINE
  5
4551
  8
0
  6
VERDECKT
 62
     1
 10
1510.2327826498949
 20
230.62848099074199
 30
0.0000000000003411
 11
1510.2327826498949
 21
228.62848099074179
 31
0.0000000000003411
  0
LINE
  5
4552
  8
0
  6
VERDECKT
 62
     1
 10
1495.2327826498949
 20
488.62848099074199
 30
0.0000000000003411
 11
1495.2327826498949
 21
486.62848099074171
 31
0.0000000000003411
  0
LINE
  5
4553
  8
0
  6
VERDECKT
 62
     1
 10
1495.2327826498949
 20
230.62848099074199
 30
0.0000000000003411
 11
1495.2327826498949
 21
228.62848099074179
 31
0.0000000000003411
  0
LINE
  5
4554
  8
0
  6
VERDECKT
 62
     1
 10
1505.2327826498949
 20
488.62848099074199
 30
0.0000000000003411
 11
1505.2327826498949
 21
486.62848099074171
 31
0.0000000000003411
  0
LINE
  5
4555
  8
0
  6
VERDECKT
 62
     1
 10
1505.2327826498949
 20
230.62848099074199
 30
0.0000000000003411
 11
1505.2327826498949
 21
228.62848099074179
 31
0.0000000000003411
  0
LINE
  5
4556
  8
0
  6
VERDECKT
 62
     1
 10
1326.3038504617609
 20
486.62848099074171
 30
0.0000000000002842
 11
1524.3038504617609
 21
486.62848099074171
 31
0.0000000000003293
  0
LINE
  5
4557
  8
0
  6
VERDECKT
 62
     1
 10
1524.3038504617609
 20
488.62848099074188
 30
0.0000000000003411
 11
1524.3038504617609
 21
484.62848099074199
 31
0.0000000000003411
  0
LINE
  5
4558
  8
0
  6
VERDECKT
 62
     1
 10
1524.3038504617609
 20
484.62848099074199
 30
0.0000000000003411
 11
1524.3038504617609
 21
478.62848099074199
 31
0.0000000000003411
  0
LINE
  5
4559
  8
0
  6
VERDECKT
 62
     1
 10
1524.3038504617609
 20
488.62848099074199
 30
0.0000000000003411
 11
1326.3038504617609
 21
488.62848099074199
 31
0.000000000000296
  0
ARC
  5
455A
  8
0
  6
VERDECKT
 62
     1
 10
-1326.30385046176
 20
484.62848099074222
 30
0.0000000000000177
 40
3.999999999999317
210
0.0000000000000002
220
0.0
230
-1.0
 50
359.99999999999682
 51
50.805032574024622
  0
ARC
  5
455B
  8
0
  6
VERDECKT
 62
     1
 10
-1326.30385046176
 20
484.62848099074262
 30
0.0000000000000177
 40
3.999999999999353
210
0.0000000000000002
220
0.0
230
-1.0
 50
59.999999999998643
 51
90.000000000003453
  0
ARC
  5
455C
  8
0
  6
VERDECKT
 62
     1
 10
-1326.30385046176
 20
232.6284809907412
 30
0.0000000000000177
 40
3.9999999999993738
210
0.0000000000000002
220
0.0
230
-1.0
 50
270.0
 51
300.00000000000512
  0
ARC
  5
455D
  8
0
  6
VERDECKT
 62
     1
 10
-1326.30385046176
 20
232.62848099074151
 30
0.0000000000000177
 40
3.9999999999993499
210
0.0000000000000002
220
0.0
230
-1.0
 50
309.19496742597619
 51
0.0000000000040775
  0
LINE
  5
455E
  8
0
  6
VERDECKT
 62
     1
 10
1324.8896368993951
 20
232.62848099074179
 30
0.0000000000002842
 11
1322.3038504617609
 21
232.62848099074179
 31
0.0000000000002842
  0
LINE
  5
455F
  8
0
  6
VERDECKT
 62
     1
 10
1326.3038504617609
 20
228.62848099074171
 30
0.0000000000002842
 11
1326.3038504617609
 21
231.2142674283605
 31
0.0000000000002842
  0
LINE
  5
4560
  8
0
  6
VERDECKT
 62
     1
 10
1326.3038504617609
 20
234.0426945531072
 30
0.0000000000002842
 11
1332.3038504617689
 21
240.0426945531151
 31
0.0000000000002856
  0
LINE
  5
4561
  8
0
  6
VERDECKT
 62
     1
 10
1326.3038504617609
 20
234.0426945531072
 30
0.0000000000002842
 11
1324.8896368993951
 21
232.62848099074179
 31
0.0000000000002842
  0
LINE
  5
4562
  8
0
  6
VERDECKT
 62
     1
 10
1324.3038504617609
 20
232.62848099074199
 30
0.0000000000002842
 11
1324.3038504617609
 21
484.62848099074171
 31
0.0000000000002842
  0
ARC
  5
4563
  8
0
  6
VERDECKT
 62
     1
 10
1326.30385046176
 20
232.62848099074199
 30
0.0000000000002842
 40
1.999999999999772
 50
179.99999999999841
 51
270.00000000000648
  0
LINE
  5
4564
  8
0
  6
VERDECKT
 62
     1
 10
1524.3038504617609
 20
230.62848099074199
 30
0.0000000000003411
 11
1326.3038504617609
 21
230.62848099074199
 31
0.000000000000296
  0
LINE
  5
4565
  8
0
  6
VERDECKT
 62
     1
 10
1322.3038504617609
 20
484.62848099074199
 30
0.0000000000002842
 11
1324.889636899396
 21
484.62848099074199
 31
0.0000000000002842
  0
LINE
  5
4566
  8
0
  6
VERDECKT
 62
     1
 10
1326.3038504617609
 20
486.0426945531234
 30
0.0000000000002842
 11
1326.3038504617609
 21
488.62848099074199
 31
0.0000000000002842
  0
LINE
  5
4567
  8
0
  6
VERDECKT
 62
     1
 10
1324.889636899396
 20
484.62848099074188
 30
0.0000000000002842
 11
1326.3038504617609
 21
483.21426742837718
 31
0.0000000000002842
  0
LINE
  5
4568
  8
0
  6
VERDECKT
 62
     1
 10
1332.3038504617689
 20
477.21426742836883
 30
0.0000000000002842
 11
1326.3038504617609
 21
483.21426742837718
 31
0.0000000000002829
  0
LINE
  5
4569
  8
0
  6
VERDECKT
 62
     1
 10
1327.718064024142
 20
484.62848099074199
 30
0.0000000000002842
 11
1326.3038504617609
 21
486.0426945531234
 31
0.0000000000002842
  0
LINE
  5
456A
  8
0
  6
VERDECKT
 62
     1
 10
1326.3038504617609
 20
228.62848099074179
 30
0.0000000000002842
 11
1524.3038504617609
 21
228.62848099074179
 31
0.0000000000003293
  0
LINE
  5
456B
  8
0
  6
VERDECKT
 62
     1
 10
1327.718064024142
 20
484.62848099074188
 30
0.0000000000002842
 11
1333.7180640241411
 21
478.62848099074188
 31
0.0000000000002856
  0
LINE
  5
456C
  8
0
  6
VERDECKT
 62
     1
 10
1332.3038504617689
 20
240.0426945531151
 30
0.0000000000002842
 11
1332.3038504617689
 21
477.21426742836883
 31
0.0000000000002842
  0
ARC
  5
456D
  8
0
  6
VERDECKT
 62
     1
 10
1326.30385046176
 20
484.62848099074171
 30
0.0000000000002842
 40
1.9999999999999709
 50
89.999999999993491
 51
180.0000000000008
  0
LINE
  5
456E
  8
0
  6
VERDECKT
 62
     1
 10
1524.3038504617659
 20
238.62848099074199
 30
0.0000000000003411
 11
1333.718064024142
 21
238.62848099074199
 31
0.0000000000002977
  0
LINE
  5
456F
  8
0
  6
VERDECKT
 62
     1
 10
1333.718064024142
 20
478.62848099074199
 30
0.0000000000002842
 11
1524.303850461755
 21
478.62848099074199
 31
0.0000000000003276
  0
LINE
  5
4570
  8
0
  6
VERDECKT
 62
     1
 10
1326.30385046176
 20
231.2142674283605
 30
0.0000000000002842
 11
1327.718064024142
 21
232.62848099074179
 31
0.0000000000002842
  0
LINE
  5
4571
  8
0
  6
VERDECKT
 62
     1
 10
1333.718064024142
 20
238.62848099074219
 30
0.0000000000002842
 11
1327.718064024142
 21
232.62848099074179
 31
0.0000000000002829
  0
LINE
  5
4572
  8
0
  6
VERDECKT
 62
     1
 10
1524.3038504617609
 20
238.62848099074219
 30
0.0000000000003411
 11
1524.3038504617609
 21
232.62848099074179
 31
0.0000000000003411
  0
LINE
  5
4573
  8
0
  6
VERDECKT
 62
     1
 10
1524.3038504617609
 20
232.62848099074179
 30
0.0000000000003411
 11
1524.3038504617609
 21
228.62848099074179
 31
0.0000000000003411
  0
POLYLINE
  5
4574
  8
0
  6
VERDECKT
 62
     1
 10
1916.6781038144256
 20
407.62796592407381
 30
0.0000000000004263
 66
     1
 70
     8
  0
VERTEX
  8
0
  5
4AB8
 10
1916.68
 20
407.628
 30
4.26300e-013
  70
    32
  0
VERTEX
  8
0
  5
4AB9
 10
1916.68
 20
407.628
 30
4.26300e-013
  70
    32
  0
VERTEX
  8
0
  5
4ABA
 10
1916.68
 20
407.628
 30
4.26300e-013
  70
    32
  0
VERTEX
  8
0
  5
4ABB
 10
1916.68
 20
407.628
 30
4.26300e-013
  70
    32
  0
VERTEX
  8
0
  5
4ABC
 10
1916.68
 20
407.628
 30
4.26300e-013
  70
    32
  0
VERTEX
  8
0
  5
4ABD
 10
1916.68
 20
407.628
 30
4.26300e-013
  70
    32
  0
VERTEX
  8
0
  5
4ABE
 10
1916.68
 20
407.628
 30
4.26300e-013
  70
    32
  0
VERTEX
  8
0
  5
4ABF
 10
1916.68
 20
407.628
 30
4.26300e-013
  70
    32
  0
VERTEX
  8
0
  5
4AC0
 10
1916.68
 20
407.628
 30
4.26300e-013
  70
    32
  0
VERTEX
  8
0
  5
4AC1
 10
1916.68
 20
407.628
 30
4.26300e-013
  70
    32
  0
VERTEX
  8
0
  5
4AC2
 10
1916.68
 20
407.628
 30
4.26300e-013
  70
    32
  0
VERTEX
  8
0
  5
4AC3
 10
1916.68
 20
407.628
 30
4.26300e-013
  70
    32
  0
VERTEX
  8
0
  5
4AC4
 10
1916.68
 20
407.628
 30
4.26300e-013
  70
    32
  0
VERTEX
  8
0
  5
4AC5
 10
1916.68
 20
407.628
 30
4.26300e-013
  70
    32
  0
VERTEX
  8
0
  5
4AC6
 10
1916.68
 20
407.628
 30
4.26300e-013
  70
    32
  0
VERTEX
  8
0
  5
4AC7
 10
1916.68
 20
407.628
 30
4.26300e-013
  70
    32
  0
VERTEX
  8
0
  5
4AC8
 10
1916.68
 20
407.628
 30
4.26300e-013
  70
    32
  0
VERTEX
  8
0
  5
4AC9
 10
1916.68
 20
407.628
 30
4.26300e-013
  70
    32
  0
VERTEX
  8
0
  5
4ACA
 10
1916.68
 20
407.628
 30
4.26300e-013
  70
    32
  0
VERTEX
  8
0
  5
4ACB
 10
1916.68
 20
407.628
 30
4.26300e-013
  70
    32
  0
VERTEX
  8
0
  5
4ACC
 10
1916.68
 20
407.628
 30
4.26300e-013
  70
    32
  0
VERTEX
  8
0
  5
4ACD
 10
1916.68
 20
407.628
 30
4.26300e-013
  70
    32
  0
VERTEX
  8
0
  5
4ACE
 10
1916.68
 20
407.628
 30
4.26300e-013
  70
    32
  0
VERTEX
  8
0
  5
4ACF
 10
1916.68
 20
407.628
 30
4.26300e-013
  70
    32
  0
VERTEX
  8
0
  5
4AD0
 10
1916.68
 20
407.628
 30
4.26300e-013
  70
    32
  0
VERTEX
  8
0
  5
4AD1
 10
1916.68
 20
407.628
 30
4.26300e-013
  70
    32
  0
VERTEX
  8
0
  5
4AD2
 10
1916.68
 20
407.628
 30
4.26300e-013
  70
    32
  0
VERTEX
  8
0
  5
4AD3
 10
1916.68
 20
407.628
 30
4.26300e-013
  70
    32
  0
VERTEX
  8
0
  5
4AD4
 10
1916.68
 20
407.628
 30
4.26300e-013
  70
    32
  0
VERTEX
  8
0
  5
4AD5
 10
1916.68
 20
407.628
 30
4.26300e-013
  70
    32
  0
VERTEX
  8
0
  5
4AD6
 10
1916.68
 20
407.628
 30
4.26300e-013
  70
    32
  0
VERTEX
  8
0
  5
4AD7
 10
1916.68
 20
407.628
 30
4.26300e-013
  70
    32
  0
VERTEX
  8
0
  5
4AD8
 10
1916.68
 20
407.628
 30
4.26300e-013
  70
    32
  0
VERTEX
  8
0
  5
4AD9
 10
1916.68
 20
407.628
 30
4.26300e-013
  70
    32
  0
VERTEX
  8
0
  5
4ADA
 10
1916.67
 20
407.628
 30
4.26300e-013
  70
    32
  0
VERTEX
  8
0
  5
4ADB
 10
1916.67
 20
407.628
 30
4.26300e-013
  70
    32
  0
VERTEX
  8
0
  5
4ADC
 10
1916.67
 20
407.628
 30
4.26300e-013
  70
    32
  0
VERTEX
  8
0
  5
4ADD
 10
1916.67
 20
407.628
 30
4.26300e-013
  70
    32
  0
VERTEX
  8
0
  5
4ADE
 10
1916.67
 20
407.628
 30
4.26300e-013
  70
    32
  0
VERTEX
  8
0
  5
4ADF
 10
1916.67
 20
407.628
 30
4.26300e-013
  70
    32
  0
VERTEX
  8
0
  5
4AE0
 10
1916.67
 20
407.628
 30
4.26300e-013
  70
    32
  0
VERTEX
  8
0
  5
4AE1
 10
1916.67
 20
407.628
 30
4.26300e-013
  70
    32
  0
VERTEX
  8
0
  5
4AE2
 10
1916.67
 20
407.628
 30
4.26300e-013
  70
    32
  0
VERTEX
  8
0
  5
4AE3
 10
1916.67
 20
407.628
 30
4.26300e-013
  70
    32
  0
VERTEX
  8
0
  5
4AE4
 10
1916.67
 20
407.628
 30
4.26300e-013
  70
    32
  0
VERTEX
  8
0
  5
4AE5
 10
1916.67
 20
407.628
 30
4.26300e-013
  70
    32
  0
VERTEX
  8
0
  5
4AE6
 10
1916.67
 20
407.628
 30
4.26300e-013
  70
    32
  0
VERTEX
  8
0
  5
4AE7
 10
1916.67
 20
407.628
 30
4.26300e-013
  70
    32
  0
VERTEX
  8
0
  5
4AE8
 10
1916.67
 20
407.628
 30
4.26300e-013
  70
    32
  0
VERTEX
  8
0
  5
4AE9
 10
1916.67
 20
407.628
 30
4.26300e-013
  70
    32
  0
VERTEX
  8
0
  5
4AEA
 10
1916.67
 20
407.628
 30
4.26300e-013
  70
    32
  0
VERTEX
  8
0
  5
4AEB
 10
1916.67
 20
407.628
 30
4.26300e-013
  70
    32
  0
VERTEX
  8
0
  5
4AEC
 10
1916.67
 20
407.628
 30
4.26300e-013
  70
    32
  0
VERTEX
  8
0
  5
4AED
 10
1916.67
 20
407.628
 30
4.26300e-013
  70
    32
  0
VERTEX
  8
0
  5
4AEE
 10
1916.67
 20
407.628
 30
4.26300e-013
  70
    32
  0
VERTEX
  8
0
  5
4AEF
 10
1916.67
 20
407.628
 30
4.26300e-013
  70
    32
  0
VERTEX
  8
0
  5
4AF0
 10
1916.67
 20
407.628
 30
4.26300e-013
  70
    32
  0
VERTEX
  8
0
  5
4AF1
 10
1916.67
 20
407.628
 30
4.26300e-013
  70
    32
  0
VERTEX
  8
0
  5
4AF2
 10
1916.67
 20
407.628
 30
4.26300e-013
  70
    32
  0
VERTEX
  8
0
  5
4AF3
 10
1916.67
 20
407.628
 30
4.26300e-013
  70
    32
  0
VERTEX
  8
0
  5
4AF4
 10
1916.67
 20
407.628
 30
4.26300e-013
  70
    32
  0
VERTEX
  8
0
  5
4AF5
 10
1916.67
 20
407.628
 30
4.26300e-013
  70
    32
  0
VERTEX
  8
0
  5
4AF6
 10
1916.67
 20
407.628
 30
4.26300e-013
  70
    32
  0
VERTEX
  8
0
  5
4AF7
 10
1916.67
 20
407.628
 30
4.26300e-013
  70
    32
  0
VERTEX
  8
0
  5
4AF8
 10
1916.67
 20
407.628
 30
4.26300e-013
  70
    32
  0
VERTEX
  8
0
  5
4AF9
 10
1916.67
 20
407.628
 30
4.26300e-013
  70
    32
  0
VERTEX
  8
0
  5
4AFA
 10
1916.67
 20
407.628
 30
4.26300e-013
  70
    32
  0
VERTEX
  8
0
  5
4AFB
 10
1916.67
 20
407.628
 30
4.26300e-013
  70
    32
  0
VERTEX
  8
0
  5
4AFC
 10
1916.67
 20
407.628
 30
4.26300e-013
  70
    32
  0
VERTEX
  8
0
  5
4AFD
 10
1916.67
 20
407.628
 30
4.26300e-013
  70
    32
  0
VERTEX
  8
0
  5
4AFE
 10
1916.67
 20
407.628
 30
4.26300e-013
  70
    32
  0
VERTEX
  8
0
  5
4AFF
 10
1916.67
 20
407.628
 30
4.26300e-013
  70
    32
  0
VERTEX
  8
0
  5
4B00
 10
1916.67
 20
407.628
 30
4.26300e-013
  70
    32
  0
VERTEX
  8
0
  5
4B01
 10
1916.67
 20
407.628
 30
4.26300e-013
  70
    32
  0
VERTEX
  8
0
  5
4B02
 10
1916.67
 20
407.628
 30
4.26300e-013
  70
    32
  0
VERTEX
  8
0
  5
4B03
 10
1916.67
 20
407.628
 30
4.26300e-013
  70
    32
  0
VERTEX
  8
0
  5
4B04
 10
1916.67
 20
407.628
 30
4.26300e-013
  70
    32
  0
VERTEX
  8
0
  5
4B05
 10
1916.67
 20
407.628
 30
4.26300e-013
  70
    32
  0
VERTEX
  8
0
  5
4B06
 10
1916.67
 20
407.628
 30
4.26300e-013
  70
    32
  0
VERTEX
  8
0
  5
4B07
 10
1916.67
 20
407.628
 30
4.26300e-013
  70
    32
  0
VERTEX
  8
0
  5
4B08
 10
1916.67
 20
407.628
 30
4.26300e-013
  70
    32
  0
VERTEX
  8
0
  5
4B09
 10
1916.67
 20
407.628
 30
4.26300e-013
  70
    32
  0
VERTEX
  8
0
  5
4B0A
 10
1916.67
 20
407.628
 30
4.26300e-013
  70
    32
  0
VERTEX
  8
0
  5
4B0B
 10
1916.67
 20
407.628
 30
4.26300e-013
  70
    32
  0
VERTEX
  8
0
  5
4B0C
 10
1916.67
 20
407.628
 30
4.26300e-013
  70
    32
  0
VERTEX
  8
0
  5
4B0D
 10
1916.67
 20
407.628
 30
4.26300e-013
  70
    32
  0
VERTEX
  8
0
  5
4B0E
 10
1916.67
 20
407.628
 30
4.26300e-013
  70
    32
  0
VERTEX
  8
0
  5
4B0F
 10
1916.67
 20
407.628
 30
4.26300e-013
  70
    32
  0
VERTEX
  8
0
  5
4B10
 10
1916.67
 20
407.628
 30
4.26300e-013
  70
    32
  0
VERTEX
  8
0
  5
4B11
 10
1916.67
 20
407.628
 30
4.26300e-013
  70
    32
  0
VERTEX
  8
0
  5
4B12
 10
1916.67
 20
407.628
 30
4.26300e-013
  70
    32
  0
VERTEX
  8
0
  5
4B13
 10
1916.67
 20
407.628
 30
4.26300e-013
  70
    32
  0
VERTEX
  8
0
  5
4B14
 10
1916.67
 20
407.628
 30
4.26300e-013
  70
    32
  0
VERTEX
  8
0
  5
4B15
 10
1916.67
 20
407.628
 30
4.26300e-013
  70
    32
  0
VERTEX
  8
0
  5
4B16
 10
1916.67
 20
407.628
 30
4.26300e-013
  70
    32
  0
VERTEX
  8
0
  5
4B17
 10
1916.67
 20
407.628
 30
4.26300e-013
  70
    32
  0
VERTEX
  8
0
  5
4B18
 10
1916.67
 20
407.628
 30
4.26300e-013
  70
    32
  0
VERTEX
  8
0
  5
4B19
 10
1916.67
 20
407.628
 30
4.26300e-013
  70
    32
  0
VERTEX
  8
0
  5
4B1A
 10
1916.67
 20
407.628
 30
4.26300e-013
  70
    32
  0
VERTEX
  8
0
  5
4B1B
 10
1916.67
 20
407.628
 30
4.26300e-013
  70
    32
  0
VERTEX
  8
0
  5
4B1C
 10
1916.67
 20
407.628
 30
4.26300e-013
  70
    32
  0
VERTEX
  8
0
  5
4B1D
 10
1916.67
 20
407.628
 30
4.26300e-013
  70
    32
  0
VERTEX
  8
0
  5
4B1E
 10
1916.67
 20
407.628
 30
4.26300e-013
  70
    32
  0
VERTEX
  8
0
  5
4B1F
 10
1916.67
 20
407.628
 30
4.26300e-013
  70
    32
  0
VERTEX
  8
0
  5
4B20
 10
1916.67
 20
407.628
 30
4.26300e-013
  70
    32
  0
VERTEX
  8
0
  5
4B21
 10
1916.67
 20
407.628
 30
4.26300e-013
  70
    32
  0
VERTEX
  8
0
  5
4B22
 10
1916.67
 20
407.628
 30
4.26300e-013
  70
    32
  0
VERTEX
  8
0
  5
4B23
 10
1916.67
 20
407.628
 30
4.26300e-013
  70
    32
  0
VERTEX
  8
0
  5
4B24
 10
1916.67
 20
407.628
 30
4.26300e-013
  70
    32
  0
VERTEX
  8
0
  5
4B25
 10
1916.67
 20
407.628
 30
4.26300e-013
  70
    32
  0
VERTEX
  8
0
  5
4B26
 10
1916.67
 20
407.628
 30
4.26300e-013
  70
    32
  0
VERTEX
  8
0
  5
4B27
 10
1916.67
 20
407.628
 30
4.26300e-013
  70
    32
  0
VERTEX
  8
0
  5
4B28
 10
1916.67
 20
407.628
 30
4.26300e-013
  70
    32
  0
VERTEX
  8
0
  5
4B29
 10
1916.67
 20
407.628
 30
4.26300e-013
  70
    32
  0
VERTEX
  8
0
  5
4B2A
 10
1916.67
 20
407.628
 30
4.26300e-013
  70
    32
  0
VERTEX
  8
0
  5
4B2B
 10
1916.67
 20
407.628
 30
4.26300e-013
  70
    32
  0
VERTEX
  8
0
  5
4B2C
 10
1916.67
 20
407.628
 30
4.26300e-013
  70
    32
  0
VERTEX
  8
0
  5
4B2D
 10
1916.67
 20
407.628
 30
4.26300e-013
  70
    32
  0
VERTEX
  8
0
  5
4B2E
 10
1916.67
 20
407.628
 30
4.26300e-013
  70
    32
  0
VERTEX
  8
0
  5
4B2F
 10
1916.67
 20
407.628
 30
4.26300e-013
  70
    32
  0
VERTEX
  8
0
  5
4B30
 10
1916.67
 20
407.628
 30
4.26300e-013
  70
    32
  0
VERTEX
  8
0
  5
4B31
 10
1916.67
 20
407.628
 30
4.26300e-013
  70
    32
  0
VERTEX
  8
0
  5
4B32
 10
1916.67
 20
407.628
 30
4.26300e-013
  70
    32
  0
VERTEX
  8
0
  5
4B33
 10
1916.67
 20
407.628
 30
4.26300e-013
  70
    32
  0
VERTEX
  8
0
  5
4B34
 10
1916.67
 20
407.628
 30
4.26300e-013
  70
    32
  0
VERTEX
  8
0
  5
4B35
 10
1916.67
 20
407.628
 30
4.26300e-013
  70
    32
  0
VERTEX
  8
0
  5
4B36
 10
1916.67
 20
407.628
 30
4.26300e-013
  70
    32
  0
VERTEX
  8
0
  5
4B37
 10
1916.67
 20
407.628
 30
4.26300e-013
  70
    32
  0
VERTEX
  8
0
  5
4B38
 10
1916.67
 20
407.628
 30
4.26300e-013
  70
    32
  0
SEQEND
  8
0
  5
4B39
  0
POLYLINE
  5
4575
  8
0
  6
VERDECKT
 62
     1
 10
1916.6663455348166
 20
309.6284809907421
 30
0.0000000000004263
 66
     1
 70
     8
  0
VERTEX
  8
0
  5
4B3A
 10
1916.67
 20
309.628
 30
4.26300e-013
  70
    32
  0
VERTEX
  8
0
  5
4B3B
 10
1916.67
 20
309.628
 30
4.26300e-013
  70
    32
  0
VERTEX
  8
0
  5
4B3C
 10
1916.67
 20
309.628
 30
4.26300e-013
  70
    32
  0
VERTEX
  8
0
  5
4B3D
 10
1916.67
 20
309.628
 30
4.26300e-013
  70
    32
  0
VERTEX
  8
0
  5
4B3E
 10
1916.67
 20
309.628
 30
4.26300e-013
  70
    32
  0
VERTEX
  8
0
  5
4B3F
 10
1916.67
 20
309.628
 30
4.26300e-013
  70
    32
  0
VERTEX
  8
0
  5
4B40
 10
1916.67
 20
309.628
 30
4.26300e-013
  70
    32
  0
VERTEX
  8
0
  5
4B41
 10
1916.67
 20
309.628
 30
4.26300e-013
  70
    32
  0
VERTEX
  8
0
  5
4B42
 10
1916.67
 20
309.628
 30
4.26300e-013
  70
    32
  0
VERTEX
  8
0
  5
4B43
 10
1916.67
 20
309.628
 30
4.26300e-013
  70
    32
  0
VERTEX
  8
0
  5
4B44
 10
1916.67
 20
309.628
 30
4.26300e-013
  70
    32
  0
VERTEX
  8
0
  5
4B45
 10
1916.67
 20
309.628
 30
4.26300e-013
  70
    32
  0
VERTEX
  8
0
  5
4B46
 10
1916.67
 20
309.628
 30
4.26300e-013
  70
    32
  0
VERTEX
  8
0
  5
4B47
 10
1916.67
 20
309.628
 30
4.26300e-013
  70
    32
  0
VERTEX
  8
0
  5
4B48
 10
1916.67
 20
309.628
 30
4.26300e-013
  70
    32
  0
VERTEX
  8
0
  5
4B49
 10
1916.67
 20
309.628
 30
4.26300e-013
  70
    32
  0
VERTEX
  8
0
  5
4B4A
 10
1916.67
 20
309.628
 30
4.26300e-013
  70
    32
  0
VERTEX
  8
0
  5
4B4B
 10
1916.67
 20
309.628
 30
4.26300e-013
  70
    32
  0
VERTEX
  8
0
  5
4B4C
 10
1916.67
 20
309.628
 30
4.26300e-013
  70
    32
  0
VERTEX
  8
0
  5
4B4D
 10
1916.67
 20
309.628
 30
4.26300e-013
  70
    32
  0
VERTEX
  8
0
  5
4B4E
 10
1916.67
 20
309.628
 30
4.26300e-013
  70
    32
  0
VERTEX
  8
0
  5
4B4F
 10
1916.67
 20
309.628
 30
4.26300e-013
  70
    32
  0
VERTEX
  8
0
  5
4B50
 10
1916.67
 20
309.628
 30
4.26300e-013
  70
    32
  0
VERTEX
  8
0
  5
4B51
 10
1916.67
 20
309.628
 30
4.26300e-013
  70
    32
  0
VERTEX
  8
0
  5
4B52
 10
1916.67
 20
309.628
 30
4.26300e-013
  70
    32
  0
VERTEX
  8
0
  5
4B53
 10
1916.67
 20
309.629
 30
4.26300e-013
  70
    32
  0
VERTEX
  8
0
  5
4B54
 10
1916.67
 20
309.629
 30
4.26300e-013
  70
    32
  0
VERTEX
  8
0
  5
4B55
 10
1916.67
 20
309.629
 30
4.26300e-013
  70
    32
  0
VERTEX
  8
0
  5
4B56
 10
1916.67
 20
309.629
 30
4.26300e-013
  70
    32
  0
VERTEX
  8
0
  5
4B57
 10
1916.67
 20
309.629
 30
4.26300e-013
  70
    32
  0
VERTEX
  8
0
  5
4B58
 10
1916.67
 20
309.629
 30
4.26300e-013
  70
    32
  0
VERTEX
  8
0
  5
4B59
 10
1916.67
 20
309.629
 30
4.26300e-013
  70
    32
  0
VERTEX
  8
0
  5
4B5A
 10
1916.67
 20
309.629
 30
4.26300e-013
  70
    32
  0
VERTEX
  8
0
  5
4B5B
 10
1916.67
 20
309.629
 30
4.26300e-013
  70
    32
  0
VERTEX
  8
0
  5
4B5C
 10
1916.67
 20
309.629
 30
4.26300e-013
  70
    32
  0
VERTEX
  8
0
  5
4B5D
 10
1916.67
 20
309.629
 30
4.26300e-013
  70
    32
  0
VERTEX
  8
0
  5
4B5E
 10
1916.67
 20
309.629
 30
4.26300e-013
  70
    32
  0
VERTEX
  8
0
  5
4B5F
 10
1916.67
 20
309.629
 30
4.26300e-013
  70
    32
  0
VERTEX
  8
0
  5
4B60
 10
1916.67
 20
309.629
 30
4.26300e-013
  70
    32
  0
VERTEX
  8
0
  5
4B61
 10
1916.67
 20
309.629
 30
4.26300e-013
  70
    32
  0
VERTEX
  8
0
  5
4B62
 10
1916.67
 20
309.629
 30
4.26300e-013
  70
    32
  0
VERTEX
  8
0
  5
4B63
 10
1916.67
 20
309.629
 30
4.26300e-013
  70
    32
  0
VERTEX
  8
0
  5
4B64
 10
1916.67
 20
309.629
 30
4.26300e-013
  70
    32
  0
VERTEX
  8
0
  5
4B65
 10
1916.67
 20
309.629
 30
4.26300e-013
  70
    32
  0
VERTEX
  8
0
  5
4B66
 10
1916.67
 20
309.629
 30
4.26300e-013
  70
    32
  0
VERTEX
  8
0
  5
4B67
 10
1916.67
 20
309.629
 30
4.26300e-013
  70
    32
  0
VERTEX
  8
0
  5
4B68
 10
1916.67
 20
309.629
 30
4.26300e-013
  70
    32
  0
VERTEX
  8
0
  5
4B69
 10
1916.67
 20
309.629
 30
4.26300e-013
  70
    32
  0
VERTEX
  8
0
  5
4B6A
 10
1916.67
 20
309.629
 30
4.26300e-013
  70
    32
  0
VERTEX
  8
0
  5
4B6B
 10
1916.67
 20
309.629
 30
4.26300e-013
  70
    32
  0
VERTEX
  8
0
  5
4B6C
 10
1916.67
 20
309.629
 30
4.26300e-013
  70
    32
  0
VERTEX
  8
0
  5
4B6D
 10
1916.67
 20
309.629
 30
4.26300e-013
  70
    32
  0
VERTEX
  8
0
  5
4B6E
 10
1916.67
 20
309.629
 30
4.26300e-013
  70
    32
  0
VERTEX
  8
0
  5
4B6F
 10
1916.67
 20
309.629
 30
4.26300e-013
  70
    32
  0
VERTEX
  8
0
  5
4B70
 10
1916.67
 20
309.629
 30
4.26300e-013
  70
    32
  0
VERTEX
  8
0
  5
4B71
 10
1916.67
 20
309.629
 30
4.26300e-013
  70
    32
  0
VERTEX
  8
0
  5
4B72
 10
1916.67
 20
309.629
 30
4.26300e-013
  70
    32
  0
VERTEX
  8
0
  5
4B73
 10
1916.67
 20
309.629
 30
4.26300e-013
  70
    32
  0
VERTEX
  8
0
  5
4B74
 10
1916.67
 20
309.629
 30
4.26300e-013
  70
    32
  0
VERTEX
  8
0
  5
4B75
 10
1916.67
 20
309.629
 30
4.26300e-013
  70
    32
  0
VERTEX
  8
0
  5
4B76
 10
1916.67
 20
309.629
 30
4.26300e-013
  70
    32
  0
VERTEX
  8
0
  5
4B77
 10
1916.67
 20
309.629
 30
4.26300e-013
  70
    32
  0
VERTEX
  8
0
  5
4B78
 10
1916.67
 20
309.629
 30
4.26300e-013
  70
    32
  0
VERTEX
  8
0
  5
4B79
 10
1916.67
 20
309.629
 30
4.26300e-013
  70
    32
  0
VERTEX
  8
0
  5
4B7A
 10
1916.67
 20
309.629
 30
4.26300e-013
  70
    32
  0
VERTEX
  8
0
  5
4B7B
 10
1916.67
 20
309.629
 30
4.26300e-013
  70
    32
  0
VERTEX
  8
0
  5
4B7C
 10
1916.67
 20
309.629
 30
4.26300e-013
  70
    32
  0
VERTEX
  8
0
  5
4B7D
 10
1916.67
 20
309.629
 30
4.26300e-013
  70
    32
  0
VERTEX
  8
0
  5
4B7E
 10
1916.67
 20
309.629
 30
4.26300e-013
  70
    32
  0
VERTEX
  8
0
  5
4B7F
 10
1916.67
 20
309.629
 30
4.26300e-013
  70
    32
  0
VERTEX
  8
0
  5
4B80
 10
1916.67
 20
309.629
 30
4.26300e-013
  70
    32
  0
VERTEX
  8
0
  5
4B81
 10
1916.67
 20
309.629
 30
4.26300e-013
  70
    32
  0
VERTEX
  8
0
  5
4B82
 10
1916.67
 20
309.629
 30
4.26300e-013
  70
    32
  0
VERTEX
  8
0
  5
4B83
 10
1916.67
 20
309.629
 30
4.26300e-013
  70
    32
  0
VERTEX
  8
0
  5
4B84
 10
1916.67
 20
309.629
 30
4.26300e-013
  70
    32
  0
VERTEX
  8
0
  5
4B85
 10
1916.67
 20
309.629
 30
4.26300e-013
  70
    32
  0
VERTEX
  8
0
  5
4B86
 10
1916.67
 20
309.629
 30
4.26300e-013
  70
    32
  0
VERTEX
  8
0
  5
4B87
 10
1916.67
 20
309.629
 30
4.26300e-013
  70
    32
  0
VERTEX
  8
0
  5
4B88
 10
1916.67
 20
309.629
 30
4.26300e-013
  70
    32
  0
VERTEX
  8
0
  5
4B89
 10
1916.67
 20
309.629
 30
4.26300e-013
  70
    32
  0
VERTEX
  8
0
  5
4B8A
 10
1916.67
 20
309.629
 30
4.26300e-013
  70
    32
  0
VERTEX
  8
0
  5
4B8B
 10
1916.67
 20
309.629
 30
4.26300e-013
  70
    32
  0
VERTEX
  8
0
  5
4B8C
 10
1916.67
 20
309.629
 30
4.26300e-013
  70
    32
  0
VERTEX
  8
0
  5
4B8D
 10
1916.67
 20
309.629
 30
4.26300e-013
  70
    32
  0
VERTEX
  8
0
  5
4B8E
 10
1916.67
 20
309.629
 30
4.26300e-013
  70
    32
  0
VERTEX
  8
0
  5
4B8F
 10
1916.67
 20
309.629
 30
4.26300e-013
  70
    32
  0
VERTEX
  8
0
  5
4B90
 10
1916.67
 20
309.629
 30
4.26300e-013
  70
    32
  0
VERTEX
  8
0
  5
4B91
 10
1916.67
 20
309.629
 30
4.26300e-013
  70
    32
  0
VERTEX
  8
0
  5
4B92
 10
1916.67
 20
309.629
 30
4.26300e-013
  70
    32
  0
VERTEX
  8
0
  5
4B93
 10
1916.67
 20
309.629
 30
4.26300e-013
  70
    32
  0
VERTEX
  8
0
  5
4B94
 10
1916.67
 20
309.629
 30
4.26300e-013
  70
    32
  0
VERTEX
  8
0
  5
4B95
 10
1916.67
 20
309.629
 30
4.26300e-013
  70
    32
  0
VERTEX
  8
0
  5
4B96
 10
1916.67
 20
309.629
 30
4.26300e-013
  70
    32
  0
VERTEX
  8
0
  5
4B97
 10
1916.67
 20
309.629
 30
4.26300e-013
  70
    32
  0
VERTEX
  8
0
  5
4B98
 10
1916.67
 20
309.629
 30
4.26300e-013
  70
    32
  0
VERTEX
  8
0
  5
4B99
 10
1916.68
 20
309.629
 30
4.26300e-013
  70
    32
  0
VERTEX
  8
0
  5
4B9A
 10
1916.68
 20
309.629
 30
4.26300e-013
  70
    32
  0
VERTEX
  8
0
  5
4B9B
 10
1916.68
 20
309.629
 30
4.26300e-013
  70
    32
  0
VERTEX
  8
0
  5
4B9C
 10
1916.68
 20
309.629
 30
4.26300e-013
  70
    32
  0
VERTEX
  8
0
  5
4B9D
 10
1916.68
 20
309.629
 30
4.26300e-013
  70
    32
  0
VERTEX
  8
0
  5
4B9E
 10
1916.68
 20
309.629
 30
4.26300e-013
  70
    32
  0
VERTEX
  8
0
  5
4B9F
 10
1916.68
 20
309.629
 30
4.26300e-013
  70
    32
  0
VERTEX
  8
0
  5
4BA0
 10
1916.68
 20
309.629
 30
4.26300e-013
  70
    32
  0
VERTEX
  8
0
  5
4BA1
 10
1916.68
 20
309.629
 30
4.26300e-013
  70
    32
  0
VERTEX
  8
0
  5
4BA2
 10
1916.68
 20
309.629
 30
4.26300e-013
  70
    32
  0
VERTEX
  8
0
  5
4BA3
 10
1916.68
 20
309.629
 30
4.26300e-013
  70
    32
  0
VERTEX
  8
0
  5
4BA4
 10
1916.68
 20
309.629
 30
4.26300e-013
  70
    32
  0
VERTEX
  8
0
  5
4BA5
 10
1916.68
 20
309.629
 30
4.26300e-013
  70
    32
  0
VERTEX
  8
0
  5
4BA6
 10
1916.68
 20
309.629
 30
4.26300e-013
  70
    32
  0
VERTEX
  8
0
  5
4BA7
 10
1916.68
 20
309.629
 30
4.26300e-013
  70
    32
  0
VERTEX
  8
0
  5
4BA8
 10
1916.68
 20
309.629
 30
4.26300e-013
  70
    32
  0
VERTEX
  8
0
  5
4BA9
 10
1916.68
 20
309.629
 30
4.26300e-013
  70
    32
  0
VERTEX
  8
0
  5
4BAA
 10
1916.68
 20
309.629
 30
4.26300e-013
  70
    32
  0
VERTEX
  8
0
  5
4BAB
 10
1916.68
 20
309.629
 30
4.26300e-013
  70
    32
  0
VERTEX
  8
0
  5
4BAC
 10
1916.68
 20
309.629
 30
4.26300e-013
  70
    32
  0
VERTEX
  8
0
  5
4BAD
 10
1916.68
 20
309.629
 30
4.26300e-013
  70
    32
  0
VERTEX
  8
0
  5
4BAE
 10
1916.68
 20
309.629
 30
4.26300e-013
  70
    32
  0
VERTEX
  8
0
  5
4BAF
 10
1916.68
 20
309.629
 30
4.26300e-013
  70
    32
  0
VERTEX
  8
0
  5
4BB0
 10
1916.68
 20
309.629
 30
4.26300e-013
  70
    32
  0
VERTEX
  8
0
  5
4BB1
 10
1916.68
 20
309.629
 30
4.26300e-013
  70
    32
  0
VERTEX
  8
0
  5
4BB2
 10
1916.68
 20
309.629
 30
4.26300e-013
  70
    32
  0
VERTEX
  8
0
  5
4BB3
 10
1916.68
 20
309.629
 30
4.26300e-013
  70
    32
  0
VERTEX
  8
0
  5
4BB4
 10
1916.68
 20
309.629
 30
4.26300e-013
  70
    32
  0
VERTEX
  8
0
  5
4BB5
 10
1916.68
 20
309.629
 30
4.26300e-013
  70
    32
  0
VERTEX
  8
0
  5
4BB6
 10
1916.68
 20
309.629
 30
4.26300e-013
  70
    32
  0
VERTEX
  8
0
  5
4BB7
 10
1916.68
 20
309.629
 30
4.26300e-013
  70
    32
  0
VERTEX
  8
0
  5
4BB8
 10
1916.68
 20
309.629
 30
4.26300e-013
  70
    32
  0
VERTEX
  8
0
  5
4BB9
 10
1916.68
 20
309.629
 30
4.26300e-013
  70
    32
  0
VERTEX
  8
0
  5
4BBA
 10
1916.68
 20
309.629
 30
4.26300e-013
  70
    32
  0
SEQEND
  8
0
  5
4BBB
  0
POLYLINE
  5
4576
  8
0
  6
VERDECKT
 62
     1
 10
1929.258117094108
 20
358.62848099074228
 30
0.0000000000004263
 66
     1
 70
     8
  0
VERTEX
  8
0
  5
4BBC
 10
1929.26
 20
358.628
 30
4.26300e-013
  70
    32
  0
VERTEX
  8
0
  5
4BBD
 10
1929.26
 20
360.989
 30
4.26300e-013
  70
    32
  0
VERTEX
  8
0
  5
4BBE
 10
1929.25
 20
363.345
 30
4.26300e-013
  70
    32
  0
VERTEX
  8
0
  5
4BBF
 10
1929.23
 20
365.689
 30
4.26300e-013
  70
    32
  0
VERTEX
  8
0
  5
4BC0
 10
1929.21
 20
368.016
 30
4.26300e-013
  70
    32
  0
VERTEX
  8
0
  5
4BC1
 10
1929.18
 20
370.320
 30
4.26300e-013
  70
    32
  0
VERTEX
  8
0
  5
4BC2
 10
1929.15
 20
372.596
 30
4.26300e-013
  70
    32
  0
VERTEX
  8
0
  5
4BC3
 10
1929.11
 20
374.839
 30
4.26300e-013
  70
    32
  0
VERTEX
  8
0
  5
4BC4
 10
1929.07
 20
377.042
 30
4.26300e-013
  70
    32
  0
VERTEX
  8
0
  5
4BC5
 10
1929.02
 20
379.201
 30
4.26300e-013
  70
    32
  0
VERTEX
  8
0
  5
4BC6
 10
1928.96
 20
381.311
 30
4.26300e-013
  70
    32
  0
VERTEX
  8
0
  5
4BC7
 10
1928.90
 20
383.366
 30
4.26300e-013
  70
    32
  0
VERTEX
  8
0
  5
4BC8
 10
1928.83
 20
385.361
 30
4.26300e-013
  70
    32
  0
VERTEX
  8
0
  5
4BC9
 10
1928.76
 20
387.292
 30
4.26300e-013
  70
    32
  0
VERTEX
  8
0
  5
4BCA
 10
1928.69
 20
389.154
 30
4.26300e-013
  70
    32
  0
VERTEX
  8
0
  5
4BCB
 10
1928.61
 20
390.942
 30
4.26300e-013
  70
    32
  0
VERTEX
  8
0
  5
4BCC
 10
1928.52
 20
392.653
 30
4.26300e-013
  70
    32
  0
VERTEX
  8
0
  5
4BCD
 10
1928.43
 20
394.281
 30
4.26300e-013
  70
    32
  0
VERTEX
  8
0
  5
4BCE
 10
1928.34
 20
395.824
 30
4.26300e-013
  70
    32
  0
VERTEX
  8
0
  5
4BCF
 10
1928.24
 20
397.277
 30
4.26300e-013
  70
    32
  0
VERTEX
  8
0
  5
4BD0
 10
1928.14
 20
398.637
 30
4.26300e-013
  70
    32
  0
VERTEX
  8
0
  5
4BD1
 10
1928.03
 20
399.900
 30
4.26300e-013
  70
    32
  0
VERTEX
  8
0
  5
4BD2
 10
1927.93
 20
401.064
 30
4.26300e-013
  70
    32
  0
VERTEX
  8
0
  5
4BD3
 10
1927.82
 20
402.126
 30
4.26300e-013
  70
    32
  0
VERTEX
  8
0
  5
4BD4
 10
1927.70
 20
403.083
 30
4.26300e-013
  70
    32
  0
VERTEX
  8
0
  5
4BD5
 10
1927.59
 20
403.933
 30
4.26300e-013
  70
    32
  0
VERTEX
  8
0
  5
4BD6
 10
1927.47
 20
404.674
 30
4.26300e-013
  70
    32
  0
VERTEX
  8
0
  5
4BD7
 10
1927.35
 20
405.304
 30
4.26300e-013
  70
    32
  0
VERTEX
  8
0
  5
4BD8
 10
1927.23
 20
405.821
 30
4.26300e-013
  70
    32
  0
VERTEX
  8
0
  5
4BD9
 10
1927.11
 20
406.225
 30
4.26300e-013
  70
    32
  0
VERTEX
  8
0
  5
4BDA
 10
1926.99
 20
406.514
 30
4.26300e-013
  70
    32
  0
VERTEX
  8
0
  5
4BDB
 10
1926.86
 20
406.688
 30
4.26300e-013
  70
    32
  0
VERTEX
  8
0
  5
4BDC
 10
1926.74
 20
406.746
 30
4.26300e-013
  70
    32
  0
VERTEX
  8
0
  5
4BDD
 10
1926.62
 20
406.688
 30
4.26300e-013
  70
    32
  0
VERTEX
  8
0
  5
4BDE
 10
1926.49
 20
406.514
 30
4.26300e-013
  70
    32
  0
VERTEX
  8
0
  5
4BDF
 10
1926.37
 20
406.225
 30
4.26300e-013
  70
    32
  0
VERTEX
  8
0
  5
4BE0
 10
1926.25
 20
405.821
 30
4.26300e-013
  70
    32
  0
VERTEX
  8
0
  5
4BE1
 10
1926.13
 20
405.304
 30
4.26300e-013
  70
    32
  0
VERTEX
  8
0
  5
4BE2
 10
1926.01
 20
404.674
 30
4.26300e-013
  70
    32
  0
VERTEX
  8
0
  5
4BE3
 10
1925.89
 20
403.933
 30
4.26300e-013
  70
    32
  0
VERTEX
  8
0
  5
4BE4
 10
1925.78
 20
403.083
 30
4.26300e-013
  70
    32
  0
VERTEX
  8
0
  5
4BE5
 10
1925.66
 20
402.126
 30
4.26300e-013
  70
    32
  0
VERTEX
  8
0
  5
4BE6
 10
1925.55
 20
401.064
 30
4.26300e-013
  70
    32
  0
VERTEX
  8
0
  5
4BE7
 10
1925.45
 20
399.900
 30
4.26300e-013
  70
    32
  0
VERTEX
  8
0
  5
4BE8
 10
1925.34
 20
398.637
 30
4.26300e-013
  70
    32
  0
VERTEX
  8
0
  5
4BE9
 10
1925.24
 20
397.277
 30
4.26300e-013
  70
    32
  0
VERTEX
  8
0
  5
4BEA
 10
1925.14
 20
395.824
 30
4.26300e-013
  70
    32
  0
VERTEX
  8
0
  5
4BEB
 10
1925.05
 20
394.281
 30
4.26300e-013
  70
    32
  0
VERTEX
  8
0
  5
4BEC
 10
1924.96
 20
392.653
 30
4.26300e-013
  70
    32
  0
VERTEX
  8
0
  5
4BED
 10
1924.87
 20
390.942
 30
4.26300e-013
  70
    32
  0
VERTEX
  8
0
  5
4BEE
 10
1924.79
 20
389.154
 30
4.26300e-013
  70
    32
  0
VERTEX
  8
0
  5
4BEF
 10
1924.72
 20
387.292
 30
4.26300e-013
  70
    32
  0
VERTEX
  8
0
  5
4BF0
 10
1924.65
 20
385.361
 30
4.26300e-013
  70
    32
  0
VERTEX
  8
0
  5
4BF1
 10
1924.58
 20
383.366
 30
4.26300e-013
  70
    32
  0
VERTEX
  8
0
  5
4BF2
 10
1924.52
 20
381.311
 30
4.26300e-013
  70
    32
  0
VERTEX
  8
0
  5
4BF3
 10
1924.46
 20
379.201
 30
4.26300e-013
  70
    32
  0
VERTEX
  8
0
  5
4BF4
 10
1924.41
 20
377.042
 30
4.26300e-013
  70
    32
  0
VERTEX
  8
0
  5
4BF5
 10
1924.37
 20
374.839
 30
4.26300e-013
  70
    32
  0
VERTEX
  8
0
  5
4BF6
 10
1924.33
 20
372.596
 30
4.26300e-013
  70
    32
  0
VERTEX
  8
0
  5
4BF7
 10
1924.30
 20
370.320
 30
4.26300e-013
  70
    32
  0
VERTEX
  8
0
  5
4BF8
 10
1924.27
 20
368.016
 30
4.26300e-013
  70
    32
  0
VERTEX
  8
0
  5
4BF9
 10
1924.25
 20
365.689
 30
4.26300e-013
  70
    32
  0
VERTEX
  8
0
  5
4BFA
 10
1924.23
 20
363.345
 30
4.26300e-013
  70
    32
  0
VERTEX
  8
0
  5
4BFB
 10
1924.22
 20
360.989
 30
4.26300e-013
  70
    32
  0
VERTEX
  8
0
  5
4BFC
 10
1924.22
 20
358.628
 30
4.26300e-013
  70
    32
  0
VERTEX
  8
0
  5
4BFD
 10
1924.22
 20
356.267
 30
4.26300e-013
  70
    32
  0
VERTEX
  8
0
  5
4BFE
 10
1924.23
 20
353.912
 30
4.26300e-013
  70
    32
  0
VERTEX
  8
0
  5
4BFF
 10
1924.25
 20
351.568
 30
4.26300e-013
  70
    32
  0
VERTEX
  8
0
  5
4C00
 10
1924.27
 20
349.241
 30
4.26300e-013
  70
    32
  0
VERTEX
  8
0
  5
4C01
 10
1924.30
 20
346.937
 30
4.26300e-013
  70
    32
  0
VERTEX
  8
0
  5
4C02
 10
1924.33
 20
344.661
 30
4.26300e-013
  70
    32
  0
VERTEX
  8
0
  5
4C03
 10
1924.37
 20
342.418
 30
4.26300e-013
  70
    32
  0
VERTEX
  8
0
  5
4C04
 10
1924.41
 20
340.215
 30
4.26300e-013
  70
    32
  0
VERTEX
  8
0
  5
4C05
 10
1924.46
 20
338.056
 30
4.26300e-013
  70
    32
  0
VERTEX
  8
0
  5
4C06
 10
1924.52
 20
335.946
 30
4.26300e-013
  70
    32
  0
VERTEX
  8
0
  5
4C07
 10
1924.58
 20
333.891
 30
4.26300e-013
  70
    32
  0
VERTEX
  8
0
  5
4C08
 10
1924.65
 20
331.896
 30
4.26300e-013
  70
    32
  0
VERTEX
  8
0
  5
4C09
 10
1924.72
 20
329.965
 30
4.26300e-013
  70
    32
  0
VERTEX
  8
0
  5
4C0A
 10
1924.79
 20
328.103
 30
4.26300e-013
  70
    32
  0
VERTEX
  8
0
  5
4C0B
 10
1924.87
 20
326.315
 30
4.26300e-013
  70
    32
  0
VERTEX
  8
0
  5
4C0C
 10
1924.96
 20
324.604
 30
4.26300e-013
  70
    32
  0
VERTEX
  8
0
  5
4C0D
 10
1925.05
 20
322.976
 30
4.26300e-013
  70
    32
  0
VERTEX
  8
0
  5
4C0E
 10
1925.14
 20
321.433
 30
4.26300e-013
  70
    32
  0
VERTEX
  8
0
  5
4C0F
 10
1925.24
 20
319.980
 30
4.26300e-013
  70
    32
  0
VERTEX
  8
0
  5
4C10
 10
1925.34
 20
318.620
 30
4.26300e-013
  70
    32
  0
VERTEX
  8
0
  5
4C11
 10
1925.45
 20
317.357
 30
4.26300e-013
  70
    32
  0
VERTEX
  8
0
  5
4C12
 10
1925.55
 20
316.193
 30
4.26300e-013
  70
    32
  0
VERTEX
  8
0
  5
4C13
 10
1925.66
 20
315.131
 30
4.26300e-013
  70
    32
  0
VERTEX
  8
0
  5
4C14
 10
1925.78
 20
314.174
 30
4.26300e-013
  70
    32
  0
VERTEX
  8
0
  5
4C15
 10
1925.89
 20
313.324
 30
4.26300e-013
  70
    32
  0
VERTEX
  8
0
  5
4C16
 10
1926.01
 20
312.583
 30
4.26300e-013
  70
    32
  0
VERTEX
  8
0
  5
4C17
 10
1926.13
 20
311.953
 30
4.26300e-013
  70
    32
  0
VERTEX
  8
0
  5
4C18
 10
1926.25
 20
311.436
 30
4.26300e-013
  70
    32
  0
VERTEX
  8
0
  5
4C19
 10
1926.37
 20
311.032
 30
4.26300e-013
  70
    32
  0
VERTEX
  8
0
  5
4C1A
 10
1926.49
 20
310.743
 30
4.26300e-013
  70
    32
  0
VERTEX
  8
0
  5
4C1B
 10
1926.62
 20
310.569
 30
4.26300e-013
  70
    32
  0
VERTEX
  8
0
  5
4C1C
 10
1926.74
 20
310.511
 30
4.26300e-013
  70
    32
  0
VERTEX
  8
0
  5
4C1D
 10
1926.86
 20
310.569
 30
4.26300e-013
  70
    32
  0
VERTEX
  8
0
  5
4C1E
 10
1926.99
 20
310.743
 30
4.26300e-013
  70
    32
  0
VERTEX
  8
0
  5
4C1F
 10
1927.11
 20
311.032
 30
4.26300e-013
  70
    32
  0
VERTEX
  8
0
  5
4C20
 10
1927.23
 20
311.436
 30
4.26300e-013
  70
    32
  0
VERTEX
  8
0
  5
4C21
 10
1927.35
 20
311.953
 30
4.26300e-013
  70
    32
  0
VERTEX
  8
0
  5
4C22
 10
1927.47
 20
312.583
 30
4.26300e-013
  70
    32
  0
VERTEX
  8
0
  5
4C23
 10
1927.59
 20
313.324
 30
4.26300e-013
  70
    32
  0
VERTEX
  8
0
  5
4C24
 10
1927.70
 20
314.174
 30
4.26300e-013
  70
    32
  0
VERTEX
  8
0
  5
4C25
 10
1927.82
 20
315.131
 30
4.26300e-013
  70
    32
  0
VERTEX
  8
0
  5
4C26
 10
1927.93
 20
316.193
 30
4.26300e-013
  70
    32
  0
VERTEX
  8
0
  5
4C27
 10
1928.03
 20
317.357
 30
4.26300e-013
  70
    32
  0
VERTEX
  8
0
  5
4C28
 10
1928.14
 20
318.620
 30
4.26300e-013
  70
    32
  0
VERTEX
  8
0
  5
4C29
 10
1928.24
 20
319.980
 30
4.26300e-013
  70
    32
  0
VERTEX
  8
0
  5
4C2A
 10
1928.34
 20
321.433
 30
4.26300e-013
  70
    32
  0
VERTEX
  8
0
  5
4C2B
 10
1928.43
 20
322.976
 30
4.26300e-013
  70
    32
  0
VERTEX
  8
0
  5
4C2C
 10
1928.52
 20
324.604
 30
4.26300e-013
  70
    32
  0
VERTEX
  8
0
  5
4C2D
 10
1928.61
 20
326.315
 30
4.26300e-013
  70
    32
  0
VERTEX
  8
0
  5
4C2E
 10
1928.69
 20
328.103
 30
4.26300e-013
  70
    32
  0
VERTEX
  8
0
  5
4C2F
 10
1928.76
 20
329.965
 30
4.26300e-013
  70
    32
  0
VERTEX
  8
0
  5
4C30
 10
1928.83
 20
331.896
 30
4.26300e-013
  70
    32
  0
VERTEX
  8
0
  5
4C31
 10
1928.90
 20
333.891
 30
4.26300e-013
  70
    32
  0
VERTEX
  8
0
  5
4C32
 10
1928.96
 20
335.946
 30
4.26300e-013
  70
    32
  0
VERTEX
  8
0
  5
4C33
 10
1929.02
 20
338.056
 30
4.26300e-013
  70
    32
  0
VERTEX
  8
0
  5
4C34
 10
1929.07
 20
340.215
 30
4.26300e-013
  70
    32
  0
VERTEX
  8
0
  5
4C35
 10
1929.11
 20
342.418
 30
4.26300e-013
  70
    32
  0
VERTEX
  8
0
  5
4C36
 10
1929.15
 20
344.661
 30
4.26300e-013
  70
    32
  0
VERTEX
  8
0
  5
4C37
 10
1929.18
 20
346.937
 30
4.26300e-013
  70
    32
  0
VERTEX
  8
0
  5
4C38
 10
1929.21
 20
349.241
 30
4.26300e-013
  70
    32
  0
VERTEX
  8
0
  5
4C39
 10
1929.23
 20
351.568
 30
4.26300e-013
  70
    32
  0
VERTEX
  8
0
  5
4C3A
 10
1929.25
 20
353.912
 30
4.26300e-013
  70
    32
  0
VERTEX
  8
0
  5
4C3B
 10
1929.26
 20
356.267
 30
4.26300e-013
  70
    32
  0
VERTEX
  8
0
  5
4C3C
 10
1929.26
 20
358.628
 30
4.26300e-013
  70
    32
  0
SEQEND
  8
0
  5
4C3D
  0
POLYLINE
  5
4577
  8
0
  6
VERDECKT
 62
     1
 10
1926.751871363879
 20
408.75306746211265
 30
0.0000000000004263
 66
     1
 70
     8
  0
VERTEX
  8
0
  5
4C3E
 10
1926.75
 20
408.753
 30
4.26300e-013
  70
    32
  0
VERTEX
  8
0
  5
4C3F
 10
1926.69
 20
408.744
 30
4.26300e-013
  70
    32
  0
VERTEX
  8
0
  5
4C40
 10
1926.62
 20
408.704
 30
4.26300e-013
  70
    32
  0
VERTEX
  8
0
  5
4C41
 10
1926.56
 20
408.633
 30
4.26300e-013
  70
    32
  0
VERTEX
  8
0
  5
4C42
 10
1926.49
 20
408.533
 30
4.26300e-013
  70
    32
  0
VERTEX
  8
0
  5
4C43
 10
1926.43
 20
408.402
 30
4.26300e-013
  70
    32
  0
VERTEX
  8
0
  5
4C44
 10
1926.37
 20
408.241
 30
4.26300e-013
  70
    32
  0
VERTEX
  8
0
  5
4C45
 10
1926.30
 20
408.050
 30
4.26300e-013
  70
    32
  0
VERTEX
  8
0
  5
4C46
 10
1926.24
 20
407.829
 30
4.26300e-013
  70
    32
  0
VERTEX
  8
0
  5
4C47
 10
1926.18
 20
407.579
 30
4.26300e-013
  70
    32
  0
VERTEX
  8
0
  5
4C48
 10
1926.11
 20
407.298
 30
4.26300e-013
  70
    32
  0
VERTEX
  8
0
  5
4C49
 10
1926.05
 20
406.988
 30
4.26300e-013
  70
    32
  0
VERTEX
  8
0
  5
4C4A
 10
1925.99
 20
406.649
 30
4.26300e-013
  70
    32
  0
VERTEX
  8
0
  5
4C4B
 10
1925.93
 20
406.281
 30
4.26300e-013
  70
    32
  0
VERTEX
  8
0
  5
4C4C
 10
1925.86
 20
405.884
 30
4.26300e-013
  70
    32
  0
VERTEX
  8
0
  5
4C4D
 10
1925.80
 20
405.458
 30
4.26300e-013
  70
    32
  0
VERTEX
  8
0
  5
4C4E
 10
1925.74
 20
405.004
 30
4.26300e-013
  70
    32
  0
VERTEX
  8
0
  5
4C4F
 10
1925.68
 20
404.521
 30
4.26300e-013
  70
    32
  0
VERTEX
  8
0
  5
4C50
 10
1925.63
 20
404.011
 30
4.26300e-013
  70
    32
  0
VERTEX
  8
0
  5
4C51
 10
1925.57
 20
403.474
 30
4.26300e-013
  70
    32
  0
VERTEX
  8
0
  5
4C52
 10
1925.51
 20
402.909
 30
4.26300e-013
  70
    32
  0
VERTEX
  8
0
  5
4C53
 10
1925.45
 20
402.318
 30
4.26300e-013
  70
    32
  0
VERTEX
  8
0
  5
4C54
 10
1925.40
 20
401.700
 30
4.26300e-013
  70
    32
  0
VERTEX
  8
0
  5
4C55
 10
1925.34
 20
401.055
 30
4.26300e-013
  70
    32
  0
VERTEX
  8
0
  5
4C56
 10
1925.29
 20
400.386
 30
4.26300e-013
  70
    32
  0
VERTEX
  8
0
  5
4C57
 10
1925.24
 20
399.690
 30
4.26300e-013
  70
    32
  0
VERTEX
  8
0
  5
4C58
 10
1925.18
 20
398.970
 30
4.26300e-013
  70
    32
  0
VERTEX
  8
0
  5
4C59
 10
1925.13
 20
398.226
 30
4.26300e-013
  70
    32
  0
VERTEX
  8
0
  5
4C5A
 10
1925.08
 20
397.458
 30
4.26300e-013
  70
    32
  0
VERTEX
  8
0
  5
4C5B
 10
1925.03
 20
396.666
 30
4.26300e-013
  70
    32
  0
VERTEX
  8
0
  5
4C5C
 10
1924.98
 20
395.851
 30
4.26300e-013
  70
    32
  0
VERTEX
  8
0
  5
4C5D
 10
1924.94
 20
395.013
 30
4.26300e-013
  70
    32
  0
VERTEX
  8
0
  5
4C5E
 10
1924.89
 20
394.153
 30
4.26300e-013
  70
    32
  0
VERTEX
  8
0
  5
4C5F
 10
1924.84
 20
393.272
 30
4.26300e-013
  70
    32
  0
VERTEX
  8
0
  5
4C60
 10
1924.80
 20
392.370
 30
4.26300e-013
  70
    32
  0
VERTEX
  8
0
  5
4C61
 10
1924.76
 20
391.448
 30
4.26300e-013
  70
    32
  0
VERTEX
  8
0
  5
4C62
 10
1924.72
 20
390.505
 30
4.26300e-013
  70
    32
  0
VERTEX
  8
0
  5
4C63
 10
1924.67
 20
389.543
 30
4.26300e-013
  70
    32
  0
VERTEX
  8
0
  5
4C64
 10
1924.64
 20
388.563
 30
4.26300e-013
  70
    32
  0
VERTEX
  8
0
  5
4C65
 10
1924.60
 20
387.564
 30
4.26300e-013
  70
    32
  0
VERTEX
  8
0
  5
4C66
 10
1924.56
 20
386.548
 30
4.26300e-013
  70
    32
  0
VERTEX
  8
0
  5
4C67
 10
1924.53
 20
385.515
 30
4.26300e-013
  70
    32
  0
VERTEX
  8
0
  5
4C68
 10
1924.49
 20
384.466
 30
4.26300e-013
  70
    32
  0
VERTEX
  8
0
  5
4C69
 10
1924.46
 20
383.401
 30
4.26300e-013
  70
    32
  0
VERTEX
  8
0
  5
4C6A
 10
1924.43
 20
382.321
 30
4.26300e-013
  70
    32
  0
VERTEX
  8
0
  5
4C6B
 10
1924.40
 20
381.226
 30
4.26300e-013
  70
    32
  0
VERTEX
  8
0
  5
4C6C
 10
1924.37
 20
380.118
 30
4.26300e-013
  70
    32
  0
VERTEX
  8
0
  5
4C6D
 10
1924.34
 20
378.997
 30
4.26300e-013
  70
    32
  0
VERTEX
  8
0
  5
4C6E
 10
1924.32
 20
377.864
 30
4.26300e-013
  70
    32
  0
VERTEX
  8
0
  5
4C6F
 10
1924.29
 20
376.719
 30
4.26300e-013
  70
    32
  0
VERTEX
  8
0
  5
4C70
 10
1924.27
 20
375.562
 30
4.26300e-013
  70
    32
  0
VERTEX
  8
0
  5
4C71
 10
1924.25
 20
374.396
 30
4.26300e-013
  70
    32
  0
VERTEX
  8
0
  5
4C72
 10
1924.23
 20
373.220
 30
4.26300e-013
  70
    32
  0
VERTEX
  8
0
  5
4C73
 10
1924.21
 20
372.036
 30
4.26300e-013
  70
    32
  0
VERTEX
  8
0
  5
4C74
 10
1924.20
 20
370.843
 30
4.26300e-013
  70
    32
  0
VERTEX
  8
0
  5
4C75
 10
1924.18
 20
369.642
 30
4.26300e-013
  70
    32
  0
VERTEX
  8
0
  5
4C76
 10
1924.17
 20
368.436
 30
4.26300e-013
  70
    32
  0
VERTEX
  8
0
  5
4C77
 10
1924.16
 20
367.223
 30
4.26300e-013
  70
    32
  0
VERTEX
  8
0
  5
4C78
 10
1924.15
 20
366.005
 30
4.26300e-013
  70
    32
  0
VERTEX
  8
0
  5
4C79
 10
1924.14
 20
364.782
 30
4.26300e-013
  70
    32
  0
VERTEX
  8
0
  5
4C7A
 10
1924.13
 20
363.556
 30
4.26300e-013
  70
    32
  0
VERTEX
  8
0
  5
4C7B
 10
1924.12
 20
362.327
 30
4.26300e-013
  70
    32
  0
VERTEX
  8
0
  5
4C7C
 10
1924.12
 20
361.095
 30
4.26300e-013
  70
    32
  0
VERTEX
  8
0
  5
4C7D
 10
1924.12
 20
359.862
 30
4.26300e-013
  70
    32
  0
VERTEX
  8
0
  5
4C7E
 10
1924.12
 20
358.628
 30
4.26300e-013
  70
    32
  0
VERTEX
  8
0
  5
4C7F
 10
1924.12
 20
357.395
 30
4.26300e-013
  70
    32
  0
VERTEX
  8
0
  5
4C80
 10
1924.12
 20
356.162
 30
4.26300e-013
  70
    32
  0
VERTEX
  8
0
  5
4C81
 10
1924.12
 20
354.930
 30
4.26300e-013
  70
    32
  0
VERTEX
  8
0
  5
4C82
 10
1924.13
 20
353.701
 30
4.26300e-013
  70
    32
  0
VERTEX
  8
0
  5
4C83
 10
1924.14
 20
352.475
 30
4.26300e-013
  70
    32
  0
VERTEX
  8
0
  5
4C84
 10
1924.15
 20
351.252
 30
4.26300e-013
  70
    32
  0
VERTEX
  8
0
  5
4C85
 10
1924.16
 20
350.034
 30
4.26300e-013
  70
    32
  0
VERTEX
  8
0
  5
4C86
 10
1924.17
 20
348.821
 30
4.26300e-013
  70
    32
  0
VERTEX
  8
0
  5
4C87
 10
1924.18
 20
347.614
 30
4.26300e-013
  70
    32
  0
VERTEX
  8
0
  5
4C88
 10
1924.20
 20
346.414
 30
4.26300e-013
  70
    32
  0
VERTEX
  8
0
  5
4C89
 10
1924.21
 20
345.221
 30
4.26300e-013
  70
    32
  0
VERTEX
  8
0
  5
4C8A
 10
1924.23
 20
344.037
 30
4.26300e-013
  70
    32
  0
VERTEX
  8
0
  5
4C8B
 10
1924.25
 20
342.861
 30
4.26300e-013
  70
    32
  0
VERTEX
  8
0
  5
4C8C
 10
1924.27
 20
341.695
 30
4.26300e-013
  70
    32
  0
VERTEX
  8
0
  5
4C8D
 10
1924.29
 20
340.538
 30
4.26300e-013
  70
    32
  0
VERTEX
  8
0
  5
4C8E
 10
1924.32
 20
339.393
 30
4.26300e-013
  70
    32
  0
VERTEX
  8
0
  5
4C8F
 10
1924.34
 20
338.260
 30
4.26300e-013
  70
    32
  0
VERTEX
  8
0
  5
4C90
 10
1924.37
 20
337.139
 30
4.26300e-013
  70
    32
  0
VERTEX
  8
0
  5
4C91
 10
1924.40
 20
336.031
 30
4.26300e-013
  70
    32
  0
VERTEX
  8
0
  5
4C92
 10
1924.43
 20
334.936
 30
4.26300e-013
  70
    32
  0
VERTEX
  8
0
  5
4C93
 10
1924.46
 20
333.856
 30
4.26300e-013
  70
    32
  0
VERTEX
  8
0
  5
4C94
 10
1924.49
 20
332.791
 30
4.26300e-013
  70
    32
  0
VERTEX
  8
0
  5
4C95
 10
1924.53
 20
331.742
 30
4.26300e-013
  70
    32
  0
VERTEX
  8
0
  5
4C96
 10
1924.56
 20
330.709
 30
4.26300e-013
  70
    32
  0
VERTEX
  8
0
  5
4C97
 10
1924.60
 20
329.693
 30
4.26300e-013
  70
    32
  0
VERTEX
  8
0
  5
4C98
 10
1924.64
 20
328.694
 30
4.26300e-013
  70
    32
  0
VERTEX
  8
0
  5
4C99
 10
1924.67
 20
327.714
 30
4.26300e-013
  70
    32
  0
VERTEX
  8
0
  5
4C9A
 10
1924.72
 20
326.752
 30
4.26300e-013
  70
    32
  0
VERTEX
  8
0
  5
4C9B
 10
1924.76
 20
325.809
 30
4.26300e-013
  70
    32
  0
VERTEX
  8
0
  5
4C9C
 10
1924.80
 20
324.887
 30
4.26300e-013
  70
    32
  0
VERTEX
  8
0
  5
4C9D
 10
1924.84
 20
323.985
 30
4.26300e-013
  70
    32
  0
VERTEX
  8
0
  5
4C9E
 10
1924.89
 20
323.104
 30
4.26300e-013
  70
    32
  0
VERTEX
  8
0
  5
4C9F
 10
1924.94
 20
322.244
 30
4.26300e-013
  70
    32
  0
VERTEX
  8
0
  5
4CA0
 10
1924.98
 20
321.406
 30
4.26300e-013
  70
    32
  0
VERTEX
  8
0
  5
4CA1
 10
1925.03
 20
320.591
 30
4.26300e-013
  70
    32
  0
VERTEX
  8
0
  5
4CA2
 10
1925.08
 20
319.799
 30
4.26300e-013
  70
    32
  0
VERTEX
  8
0
  5
4CA3
 10
1925.13
 20
319.031
 30
4.26300e-013
  70
    32
  0
VERTEX
  8
0
  5
4CA4
 10
1925.18
 20
318.286
 30
4.26300e-013
  70
    32
  0
VERTEX
  8
0
  5
4CA5
 10
1925.24
 20
317.566
 30
4.26300e-013
  70
    32
  0
VERTEX
  8
0
  5
4CA6
 10
1925.29
 20
316.871
 30
4.26300e-013
  70
    32
  0
VERTEX
  8
0
  5
4CA7
 10
1925.34
 20
316.202
 30
4.26300e-013
  70
    32
  0
VERTEX
  8
0
  5
4CA8
 10
1925.40
 20
315.557
 30
4.26300e-013
  70
    32
  0
VERTEX
  8
0
  5
4CA9
 10
1925.45
 20
314.939
 30
4.26300e-013
  70
    32
  0
VERTEX
  8
0
  5
4CAA
 10
1925.51
 20
314.348
 30
4.26300e-013
  70
    32
  0
VERTEX
  8
0
  5
4CAB
 10
1925.57
 20
313.783
 30
4.26300e-013
  70
    32
  0
VERTEX
  8
0
  5
4CAC
 10
1925.63
 20
313.246
 30
4.26300e-013
  70
    32
  0
VERTEX
  8
0
  5
4CAD
 10
1925.68
 20
312.735
 30
4.26300e-013
  70
    32
  0
VERTEX
  8
0
  5
4CAE
 10
1925.74
 20
312.253
 30
4.26300e-013
  70
    32
  0
VERTEX
  8
0
  5
4CAF
 10
1925.80
 20
311.799
 30
4.26300e-013
  70
    32
  0
VERTEX
  8
0
  5
4CB0
 10
1925.86
 20
311.373
 30
4.26300e-013
  70
    32
  0
VERTEX
  8
0
  5
4CB1
 10
1925.93
 20
310.976
 30
4.26300e-013
  70
    32
  0
VERTEX
  8
0
  5
4CB2
 10
1925.99
 20
310.608
 30
4.26300e-013
  70
    32
  0
VERTEX
  8
0
  5
4CB3
 10
1926.05
 20
310.269
 30
4.26300e-013
  70
    32
  0
VERTEX
  8
0
  5
4CB4
 10
1926.11
 20
309.959
 30
4.26300e-013
  70
    32
  0
VERTEX
  8
0
  5
4CB5
 10
1926.18
 20
309.678
 30
4.26300e-013
  70
    32
  0
VERTEX
  8
0
  5
4CB6
 10
1926.24
 20
309.428
 30
4.26300e-013
  70
    32
  0
VERTEX
  8
0
  5
4CB7
 10
1926.30
 20
309.207
 30
4.26300e-013
  70
    32
  0
VERTEX
  8
0
  5
4CB8
 10
1926.37
 20
309.016
 30
4.26300e-013
  70
    32
  0
VERTEX
  8
0
  5
4CB9
 10
1926.43
 20
308.855
 30
4.26300e-013
  70
    32
  0
VERTEX
  8
0
  5
4CBA
 10
1926.49
 20
308.724
 30
4.26300e-013
  70
    32
  0
VERTEX
  8
0
  5
4CBB
 10
1926.56
 20
308.624
 30
4.26300e-013
  70
    32
  0
VERTEX
  8
0
  5
4CBC
 10
1926.62
 20
308.553
 30
4.26300e-013
  70
    32
  0
VERTEX
  8
0
  5
4CBD
 10
1926.69
 20
308.513
 30
4.26300e-013
  70
    32
  0
VERTEX
  8
0
  5
4CBE
 10
1926.75
 20
308.504
 30
4.26300e-013
  70
    32
  0
SEQEND
  8
0
  5
4CBF
  0
LINE
  5
4578
  8
0
  6
VERDECKT
 62
     1
 10
1916.6663455348171
 20
309.62848099074711
 30
0.0000000000004263
 11
1530.3017150103969
 21
309.62848099074711
 31
0.0000000000003375
  0
LINE
  5
4579
  8
0
  6
VERDECKT
 62
     1
 10
1916.6663455348171
 20
407.62848099073727
 30
0.0000000000004263
 11
1530.3017150103969
 21
407.62848099073727
 31
0.0000000000003375
  0
LINE
  5
457A
  8
0
  6
VERDECKT
 62
     1
 10
1926.7513896008461
 20
310.51151309102443
 30
0.0000000000004263
 11
1916.6781038144261
 21
309.62899605741057
 31
0.000000000000424
  0
LINE
  5
457B
  8
0
  6
VERDECKT
 62
     1
 10
1926.7513896008461
 20
406.74544889046001
 30
0.0000000000004263
 11
1916.6781038144261
 21
407.62796592407381
 31
0.000000000000424
  0
LINE
  5
457C
  8
0
  6
VERDECKT
 62
     1
 10
1531.130142135147
 20
307.62848099074603
 30
0.0000000000003411
 11
1530.3017150103969
 21
307.62848099074603
 31
0.0000000000003409
  0
LINE
  5
457D
  8
0
  6
VERDECKT
 62
     1
 10
1531.130142135137
 20
409.62848099073841
 30
0.0000000000003411
 11
1530.3017150103969
 21
409.62848099073841
 31
0.0000000000003409
  0
LINE
  5
457E
  8
0
  6
VERDECKT
 62
     1
 10
1528.3017150103849
 20
483.62848099074279
 30
0.0000000000003411
 11
1530.2295240399339
 21
483.62848099074301
 31
0.0000000000003415
  0
LINE
  5
457F
  8
0
  6
VERDECKT
 62
     1
 10
1528.3017150103849
 20
483.62848099074228
 30
0.0000000000003411
 11
1528.2995761315949
 21
483.62848099074228
 31
0.0000000000003411
  0
LINE
  5
4580
  8
0
  6
VERDECKT
 62
     1
 10
1428.8896368993869
 20
483.62848099074148
 30
0.0000000000003126
 11
1525.30385046176
 21
483.62848099074148
 31
0.0000000000003411
  0
LINE
  5
4581
  8
0
  6
VERDECKT
 62
     1
 10
1428.3038504617609
 20
483.62848099074148
 30
0.0000000000003126
 11
1428.8896368993869
 21
483.62848099074148
 31
0.0000000000003126
  0
LINE
  5
4582
  8
0
  6
VERDECKT
 62
     1
 10
1530.30177818314
 20
233.6284809907421
 30
0.0000000000003411
 11
1530.229524039931
 21
233.6284809907421
 31
0.0000000000003411
  0
LINE
  5
4583
  8
0
  6
VERDECKT
 62
     1
 10
1530.30177818314
 20
483.62848099074262
 30
0.0000000000003411
 11
1530.30177818314
 21
233.62848099074219
 31
0.0000000000003411
  0
LINE
  5
4584
  8
0
  6
VERDECKT
 62
     1
 10
1530.2295240399339
 20
483.62848099074262
 30
0.0000000000003411
 11
1530.30177818314
 21
483.62848099074267
 31
0.0000000000003411
  0
LINE
  5
4585
  8
0
  6
VERDECKT
 62
     1
 10
1528.3017150104081
 20
233.6284809907423
 30
0.0000000000003411
 11
1528.3017150103849
 21
483.62848099074228
 31
0.0000000000003411
  0
LINE
  5
4586
  8
0
  6
VERDECKT
 62
     1
 10
1528.3017150104081
 20
233.6284809907423
 30
0.0000000000003411
 11
1528.2995761315949
 21
233.6284809907423
 31
0.0000000000003411
  0
LINE
  5
4587
  8
0
  6
VERDECKT
 62
     1
 10
1530.2295240399301
 20
233.6284809907423
 30
0.0000000000003411
 11
1528.3017150104081
 21
233.6284809907421
 31
0.0000000000003406
  0
LINE
  5
4588
  8
0
  6
VERDECKT
 62
     1
 10
1428.8896368993869
 20
233.6284809907421
 30
0.0000000000003126
 11
1428.3038504617609
 21
233.6284809907421
 31
0.0000000000003126
  0
LINE
  5
4589
  8
0
  6
VERDECKT
 62
     1
 10
1525.30385046176
 20
233.6284809907421
 30
0.0000000000003411
 11
1428.8896368993869
 21
233.6284809907421
 31
0.0000000000003126
  0
CIRCLE
  5
458A
  8
0
  6
VERDECKT
 62
     1
 10
-1334.3038504617609
 20
243.6284809907423
 30
-0.0000000000000089
 40
2.399999999999999
210
0.0000000000000002
220
0.0
230
-1.0
  0
CIRCLE
  5
458B
  8
0
  6
VERDECKT
 62
     1
 10
-1334.3038504617609
 20
473.62848099074131
 30
-0.0000000000000089
 40
2.399999999999999
210
0.0000000000000002
220
0.0
230
-1.0
  0
LINE
  5
458C
  8
0
  6
VERDECKT
 62
     1
 10
1340.3038504617609
 20
236.62848099074199
 30
0.0000000000003126
 11
1340.3038504617609
 21
247.62848099074199
 31
0.0000000000003126
  0
ARC
  5
458D
  8
0
  6
VERDECKT
 62
     1
 10
1337.30385046176
 20
247.62848099074191
 30
0.0000000000003126
 40
3.0000000000002269
 50
0.0000000000021755
 51
89.999999999995666
  0
LINE
  5
458E
  8
0
  6
VERDECKT
 62
     1
 10
1337.3038504617609
 20
250.6284809907421
 30
0.0000000000003126
 11
1331.30385046176
 21
250.6284809907421
 31
0.0000000000003113
  0
ARC
  5
458F
  8
0
  6
VERDECKT
 62
     1
 10
-1331.3038504617609
 20
253.62848099074219
 30
-0.0000000000000096
 40
3.0000000000001128
210
0.0000000000000002
220
0.0
230
-1.0
 50
270.0
 51
359.99999999999352
  0
LINE
  5
4590
  8
0
  6
VERDECKT
 62
     1
 10
1328.3038504617609
 20
253.62848099074199
 30
0.0000000000003126
 11
1328.3038504617609
 21
463.62848099074148
 31
0.0000000000003126
  0
ARC
  5
4591
  8
0
  6
VERDECKT
 62
     1
 10
-1331.3038504617609
 20
463.62848099074142
 30
-0.0000000000000096
 40
3.0000000000002269
210
0.0000000000000002
220
0.0
230
-1.0
 50
0.0000000000032569
 51
89.999999999995666
  0
LINE
  5
4592
  8
0
  6
VERDECKT
 62
     1
 10
1331.30385046176
 20
466.62848099074159
 30
0.0000000000003126
 11
1337.3038504617609
 21
466.62848099074159
 31
0.000000000000314
  0
ARC
  5
4593
  8
0
  6
VERDECKT
 62
     1
 10
1337.30385046176
 20
469.62848099074171
 30
0.0000000000003126
 40
3.0000000000001701
 50
270.0
 51
359.9999999999925
  0
LINE
  5
4594
  8
0
  6
VERDECKT
 62
     1
 10
1340.3038504617609
 20
469.62848099074171
 30
0.0000000000003126
 11
1340.3038504617609
 21
480.62848099074159
 31
0.0000000000003126
  0
ARC
  5
4595
  8
0
  6
VERDECKT
 62
     1
 10
-1428.30385046176
 20
236.62848099074179
 30
0.0000000000000125
 40
2.9999999999995932
210
0.0000000000000002
220
0.0
230
-1.0
 50
286.03010381483779
 51
0.0000000000032632
  0
POLYLINE
  8
0
  5
4CC0
  62
1
  66
     1
 10
0.000000
 20
0.000000
 30
0.000000
  70
     8
  0
VERTEX
  8
0
  5
4CC1
 10
1428.30
 20
233.628
 30
3.25100e-013
  70
    32
  0
VERTEX
  8
0
  5
4CC2
 10
1428.30
 20
233.628
 30
3.25100e-013
  70
    32
  0
VERTEX
  8
0
  5
4CC3
 10
1428.30
 20
233.628
 30
3.25100e-013
  70
    32
  0
VERTEX
  8
0
  5
4CC4
 10
1428.29
 20
233.628
 30
3.25100e-013
  70
    32
  0
VERTEX
  8
0
  5
4CC5
 10
1428.29
 20
233.629
 30
3.25100e-013
  70
    32
  0
VERTEX
  8
0
  5
4CC6
 10
1428.29
 20
233.629
 30
3.25100e-013
  70
    32
  0
VERTEX
  8
0
  5
4CC7
 10
1428.28
 20
233.629
 30
3.25100e-013
  70
    32
  0
VERTEX
  8
0
  5
4CC8
 10
1428.28
 20
233.629
 30
3.25100e-013
  70
    32
  0
VERTEX
  8
0
  5
4CC9
 10
1428.28
 20
233.629
 30
3.25100e-013
  70
    32
  0
VERTEX
  8
0
  5
4CCA
 10
1428.28
 20
233.629
 30
3.25100e-013
  70
    32
  0
VERTEX
  8
0
  5
4CCB
 10
1428.27
 20
233.629
 30
3.25100e-013
  70
    32
  0
VERTEX
  8
0
  5
4CCC
 10
1428.27
 20
233.629
 30
3.25100e-013
  70
    32
  0
VERTEX
  8
0
  5
4CCD
 10
1428.27
 20
233.629
 30
3.25100e-013
  70
    32
  0
VERTEX
  8
0
  5
4CCE
 10
1428.26
 20
233.629
 30
3.25100e-013
  70
    32
  0
VERTEX
  8
0
  5
4CCF
 10
1428.26
 20
233.629
 30
3.25100e-013
  70
    32
  0
VERTEX
  8
0
  5
4CD0
 10
1428.26
 20
233.629
 30
3.25100e-013
  70
    32
  0
VERTEX
  8
0
  5
4CD1
 10
1428.25
 20
233.629
 30
3.25100e-013
  70
    32
  0
VERTEX
  8
0
  5
4CD2
 10
1428.25
 20
233.629
 30
3.25100e-013
  70
    32
  0
VERTEX
  8
0
  5
4CD3
 10
1428.25
 20
233.629
 30
3.25100e-013
  70
    32
  0
VERTEX
  8
0
  5
4CD4
 10
1428.24
 20
233.629
 30
3.25100e-013
  70
    32
  0
VERTEX
  8
0
  5
4CD5
 10
1428.24
 20
233.629
 30
3.25100e-013
  70
    32
  0
VERTEX
  8
0
  5
4CD6
 10
1428.24
 20
233.629
 30
3.25100e-013
  70
    32
  0
VERTEX
  8
0
  5
4CD7
 10
1428.23
 20
233.629
 30
3.25100e-013
  70
    32
  0
VERTEX
  8
0
  5
4CD8
 10
1428.23
 20
233.629
 30
3.25100e-013
  70
    32
  0
VERTEX
  8
0
  5
4CD9
 10
1428.23
 20
233.629
 30
3.25100e-013
  70
    32
  0
VERTEX
  8
0
  5
4CDA
 10
1428.22
 20
233.630
 30
3.25100e-013
  70
    32
  0
VERTEX
  8
0
  5
4CDB
 10
1428.22
 20
233.630
 30
3.25100e-013
  70
    32
  0
VERTEX
  8
0
  5
4CDC
 10
1428.22
 20
233.630
 30
3.25100e-013
  70
    32
  0
VERTEX
  8
0
  5
4CDD
 10
1428.22
 20
233.630
 30
3.25100e-013
  70
    32
  0
VERTEX
  8
0
  5
4CDE
 10
1428.21
 20
233.630
 30
3.25100e-013
  70
    32
  0
VERTEX
  8
0
  5
4CDF
 10
1428.21
 20
233.630
 30
3.25099e-013
  70
    32
  0
VERTEX
  8
0
  5
4CE0
 10
1428.21
 20
233.630
 30
3.25099e-013
  70
    32
  0
VERTEX
  8
0
  5
4CE1
 10
1428.20
 20
233.630
 30
3.25099e-013
  70
    32
  0
VERTEX
  8
0
  5
4CE2
 10
1428.20
 20
233.630
 30
3.25099e-013
  70
    32
  0
VERTEX
  8
0
  5
4CE3
 10
1428.20
 20
233.630
 30
3.25098e-013
  70
    32
  0
VERTEX
  8
0
  5
4CE4
 10
1428.19
 20
233.631
 30
3.25098e-013
  70
    32
  0
VERTEX
  8
0
  5
4CE5
 10
1428.19
 20
233.631
 30
3.25097e-013
  70
    32
  0
VERTEX
  8
0
  5
4CE6
 10
1428.19
 20
233.631
 30
3.25097e-013
  70
    32
  0
VERTEX
  8
0
  5
4CE7
 10
1428.18
 20
233.631
 30
3.25096e-013
  70
    32
  0
VERTEX
  8
0
  5
4CE8
 10
1428.18
 20
233.631
 30
3.25096e-013
  70
    32
  0
VERTEX
  8
0
  5
4CE9
 10
1428.18
 20
233.631
 30
3.25095e-013
  70
    32
  0
VERTEX
  8
0
  5
4CEA
 10
1428.17
 20
233.631
 30
3.25095e-013
  70
    32
  0
VERTEX
  8
0
  5
4CEB
 10
1428.17
 20
233.631
 30
3.25094e-013
  70
    32
  0
VERTEX
  8
0
  5
4CEC
 10
1428.17
 20
233.632
 30
3.25093e-013
  70
    32
  0
VERTEX
  8
0
  5
4CED
 10
1428.16
 20
233.632
 30
3.25093e-013
  70
    32
  0
VERTEX
  8
0
  5
4CEE
 10
1428.16
 20
233.632
 30
3.25092e-013
  70
    32
  0
VERTEX
  8
0
  5
4CEF
 10
1428.16
 20
233.632
 30
3.25091e-013
  70
    32
  0
VERTEX
  8
0
  5
4CF0
 10
1428.15
 20
233.632
 30
3.25090e-013
  70
    32
  0
VERTEX
  8
0
  5
4CF1
 10
1428.15
 20
233.632
 30
3.25089e-013
  70
    32
  0
VERTEX
  8
0
  5
4CF2
 10
1428.15
 20
233.633
 30
3.25089e-013
  70
    32
  0
VERTEX
  8
0
  5
4CF3
 10
1428.14
 20
233.633
 30
3.25088e-013
  70
    32
  0
VERTEX
  8
0
  5
4CF4
 10
1428.14
 20
233.633
 30
3.25087e-013
  70
    32
  0
VERTEX
  8
0
  5
4CF5
 10
1428.14
 20
233.633
 30
3.25086e-013
  70
    32
  0
VERTEX
  8
0
  5
4CF6
 10
1428.13
 20
233.633
 30
3.25085e-013
  70
    32
  0
VERTEX
  8
0
  5
4CF7
 10
1428.13
 20
233.633
 30
3.25084e-013
  70
    32
  0
VERTEX
  8
0
  5
4CF8
 10
1428.13
 20
233.634
 30
3.25083e-013
  70
    32
  0
VERTEX
  8
0
  5
4CF9
 10
1428.12
 20
233.634
 30
3.25082e-013
  70
    32
  0
VERTEX
  8
0
  5
4CFA
 10
1428.12
 20
233.634
 30
3.25081e-013
  70
    32
  0
VERTEX
  8
0
  5
4CFB
 10
1428.12
 20
233.634
 30
3.25080e-013
  70
    32
  0
VERTEX
  8
0
  5
4CFC
 10
1428.12
 20
233.634
 30
3.25079e-013
  70
    32
  0
VERTEX
  8
0
  5
4CFD
 10
1428.11
 20
233.635
 30
3.25078e-013
  70
    32
  0
VERTEX
  8
0
  5
4CFE
 10
1428.11
 20
233.635
 30
3.25076e-013
  70
    32
  0
VERTEX
  8
0
  5
4CFF
 10
1428.11
 20
233.635
 30
3.25075e-013
  70
    32
  0
VERTEX
  8
0
  5
4D00
 10
1428.10
 20
233.635
 30
3.25074e-013
  70
    32
  0
VERTEX
  8
0
  5
4D01
 10
1428.10
 20
233.636
 30
3.25073e-013
  70
    32
  0
VERTEX
  8
0
  5
4D02
 10
1428.10
 20
233.636
 30
3.25072e-013
  70
    32
  0
VERTEX
  8
0
  5
4D03
 10
1428.09
 20
233.636
 30
3.25071e-013
  70
    32
  0
VERTEX
  8
0
  5
4D04
 10
1428.09
 20
233.636
 30
3.25069e-013
  70
    32
  0
VERTEX
  8
0
  5
4D05
 10
1428.09
 20
233.636
 30
3.25068e-013
  70
    32
  0
VERTEX
  8
0
  5
4D06
 10
1428.08
 20
233.637
 30
3.25067e-013
  70
    32
  0
VERTEX
  8
0
  5
4D07
 10
1428.08
 20
233.637
 30
3.25066e-013
  70
    32
  0
VERTEX
  8
0
  5
4D08
 10
1428.08
 20
233.637
 30
3.25064e-013
  70
    32
  0
VERTEX
  8
0
  5
4D09
 10
1428.07
 20
233.637
 30
3.25063e-013
  70
    32
  0
VERTEX
  8
0
  5
4D0A
 10
1428.07
 20
233.638
 30
3.25062e-013
  70
    32
  0
VERTEX
  8
0
  5
4D0B
 10
1428.07
 20
233.638
 30
3.25061e-013
  70
    32
  0
VERTEX
  8
0
  5
4D0C
 10
1428.06
 20
233.638
 30
3.25059e-013
  70
    32
  0
VERTEX
  8
0
  5
4D0D
 10
1428.06
 20
233.638
 30
3.25058e-013
  70
    32
  0
VERTEX
  8
0
  5
4D0E
 10
1428.06
 20
233.639
 30
3.25057e-013
  70
    32
  0
VERTEX
  8
0
  5
4D0F
 10
1428.05
 20
233.639
 30
3.25056e-013
  70
    32
  0
VERTEX
  8
0
  5
4D10
 10
1428.05
 20
233.639
 30
3.25054e-013
  70
    32
  0
VERTEX
  8
0
  5
4D11
 10
1428.05
 20
233.640
 30
3.25053e-013
  70
    32
  0
VERTEX
  8
0
  5
4D12
 10
1428.04
 20
233.640
 30
3.25052e-013
  70
    32
  0
VERTEX
  8
0
  5
4D13
 10
1428.04
 20
233.640
 30
3.25050e-013
  70
    32
  0
VERTEX
  8
0
  5
4D14
 10
1428.04
 20
233.640
 30
3.25049e-013
  70
    32
  0
VERTEX
  8
0
  5
4D15
 10
1428.03
 20
233.641
 30
3.25048e-013
  70
    32
  0
VERTEX
  8
0
  5
4D16
 10
1428.03
 20
233.641
 30
3.25046e-013
  70
    32
  0
VERTEX
  8
0
  5
4D17
 10
1428.03
 20
233.641
 30
3.25045e-013
  70
    32
  0
VERTEX
  8
0
  5
4D18
 10
1428.02
 20
233.642
 30
3.25044e-013
  70
    32
  0
VERTEX
  8
0
  5
4D19
 10
1428.02
 20
233.642
 30
3.25043e-013
  70
    32
  0
VERTEX
  8
0
  5
4D1A
 10
1428.02
 20
233.642
 30
3.25041e-013
  70
    32
  0
VERTEX
  8
0
  5
4D1B
 10
1428.01
 20
233.643
 30
3.25040e-013
  70
    32
  0
VERTEX
  8
0
  5
4D1C
 10
1428.01
 20
233.643
 30
3.25039e-013
  70
    32
  0
VERTEX
  8
0
  5
4D1D
 10
1428.01
 20
233.643
 30
3.25037e-013
  70
    32
  0
VERTEX
  8
0
  5
4D1E
 10
1428.00
 20
233.644
 30
3.25036e-013
  70
    32
  0
VERTEX
  8
0
  5
4D1F
 10
1428.00
 20
233.644
 30
3.25035e-013
  70
    32
  0
VERTEX
  8
0
  5
4D20
 10
1428.00
 20
233.644
 30
3.25034e-013
  70
    32
  0
VERTEX
  8
0
  5
4D21
 10
1427.99
 20
233.645
 30
3.25032e-013
  70
    32
  0
VERTEX
  8
0
  5
4D22
 10
1427.99
 20
233.645
 30
3.25031e-013
  70
    32
  0
VERTEX
  8
0
  5
4D23
 10
1427.99
 20
233.645
 30
3.25030e-013
  70
    32
  0
VERTEX
  8
0
  5
4D24
 10
1427.98
 20
233.646
 30
3.25029e-013
  70
    32
  0
VERTEX
  8
0
  5
4D25
 10
1427.98
 20
233.646
 30
3.25028e-013
  70
    32
  0
VERTEX
  8
0
  5
4D26
 10
1427.98
 20
233.646
 30
3.25026e-013
  70
    32
  0
VERTEX
  8
0
  5
4D27
 10
1427.97
 20
233.647
 30
3.25025e-013
  70
    32
  0
VERTEX
  8
0
  5
4D28
 10
1427.97
 20
233.647
 30
3.25024e-013
  70
    32
  0
VERTEX
  8
0
  5
4D29
 10
1427.97
 20
233.647
 30
3.25023e-013
  70
    32
  0
VERTEX
  8
0
  5
4D2A
 10
1427.96
 20
233.648
 30
3.25022e-013
  70
    32
  0
VERTEX
  8
0
  5
4D2B
 10
1427.96
 20
233.648
 30
3.25021e-013
  70
    32
  0
VERTEX
  8
0
  5
4D2C
 10
1427.96
 20
233.649
 30
3.25020e-013
  70
    32
  0
VERTEX
  8
0
  5
4D2D
 10
1427.95
 20
233.649
 30
3.25019e-013
  70
    32
  0
VERTEX
  8
0
  5
4D2E
 10
1427.95
 20
233.649
 30
3.25018e-013
  70
    32
  0
VERTEX
  8
0
  5
4D2F
 10
1427.95
 20
233.650
 30
3.25017e-013
  70
    32
  0
VERTEX
  8
0
  5
4D30
 10
1427.94
 20
233.650
 30
3.25016e-013
  70
    32
  0
VERTEX
  8
0
  5
4D31
 10
1427.94
 20
233.650
 30
3.25015e-013
  70
    32
  0
VERTEX
  8
0
  5
4D32
 10
1427.94
 20
233.651
 30
3.25014e-013
  70
    32
  0
VERTEX
  8
0
  5
4D33
 10
1427.93
 20
233.651
 30
3.25013e-013
  70
    32
  0
VERTEX
  8
0
  5
4D34
 10
1427.93
 20
233.652
 30
3.25012e-013
  70
    32
  0
VERTEX
  8
0
  5
4D35
 10
1427.93
 20
233.652
 30
3.25011e-013
  70
    32
  0
VERTEX
  8
0
  5
4D36
 10
1427.92
 20
233.653
 30
3.25010e-013
  70
    32
  0
VERTEX
  8
0
  5
4D37
 10
1427.92
 20
233.653
 30
3.25009e-013
  70
    32
  0
VERTEX
  8
0
  5
4D38
 10
1427.92
 20
233.653
 30
3.25009e-013
  70
    32
  0
VERTEX
  8
0
  5
4D39
 10
1427.91
 20
233.654
 30
3.25008e-013
  70
    32
  0
VERTEX
  8
0
  5
4D3A
 10
1427.91
 20
233.654
 30
3.25007e-013
  70
    32
  0
VERTEX
  8
0
  5
4D3B
 10
1427.91
 20
233.655
 30
3.25006e-013
  70
    32
  0
VERTEX
  8
0
  5
4D3C
 10
1427.90
 20
233.655
 30
3.25006e-013
  70
    32
  0
VERTEX
  8
0
  5
4D3D
 10
1427.90
 20
233.656
 30
3.25005e-013
  70
    32
  0
VERTEX
  8
0
  5
4D3E
 10
1427.90
 20
233.656
 30
3.25005e-013
  70
    32
  0
VERTEX
  8
0
  5
4D3F
 10
1427.90
 20
233.656
 30
3.25004e-013
  70
    32
  0
VERTEX
  8
0
  5
4D40
 10
1427.89
 20
233.657
 30
3.25003e-013
  70
    32
  0
VERTEX
  8
0
  5
4D41
 10
1427.89
 20
233.657
 30
3.25003e-013
  70
    32
  0
VERTEX
  8
0
  5
4D42
 10
1427.89
 20
233.658
 30
3.25002e-013
  70
    32
  0
VERTEX
  8
0
  5
4D43
 10
1427.88
 20
233.658
 30
3.25002e-013
  70
    32
  0
VERTEX
  8
0
  5
4D44
 10
1427.88
 20
233.659
 30
3.25002e-013
  70
    32
  0
VERTEX
  8
0
  5
4D45
 10
1427.88
 20
233.659
 30
3.25001e-013
  70
    32
  0
VERTEX
  8
0
  5
4D46
 10
1427.87
 20
233.660
 30
3.25001e-013
  70
    32
  0
VERTEX
  8
0
  5
4D47
 10
1427.87
 20
233.660
 30
3.25001e-013
  70
    32
  0
VERTEX
  8
0
  5
4D48
 10
1427.87
 20
233.661
 30
3.25001e-013
  70
    32
  0
VERTEX
  8
0
  5
4D49
 10
1427.86
 20
233.661
 30
3.25000e-013
  70
    32
  0
VERTEX
  8
0
  5
4D4A
 10
1427.86
 20
233.662
 30
3.25000e-013
  70
    32
  0
VERTEX
  8
0
  5
4D4B
 10
1427.86
 20
233.662
 30
3.25000e-013
  70
    32
  0
VERTEX
  8
0
  5
4D4C
 10
1427.85
 20
233.663
 30
3.25000e-013
  70
    32
  0
VERTEX
  8
0
  5
4D4D
 10
1427.85
 20
233.663
 30
3.25000e-013
  70
    32
  0
VERTEX
  8
0
  5
4D4E
 10
1427.85
 20
233.664
 30
3.25000e-013
  70
    32
  0
VERTEX
  8
0
  5
4D4F
 10
1427.84
 20
233.664
 30
3.25000e-013
  70
    32
  0
VERTEX
  8
0
  5
4D50
 10
1427.84
 20
233.665
 30
3.25000e-013
  70
    32
  0
VERTEX
  8
0
  5
4D51
 10
1427.84
 20
233.665
 30
3.25000e-013
  70
    32
  0
VERTEX
  8
0
  5
4D52
 10
1427.83
 20
233.666
 30
3.25000e-013
  70
    32
  0
VERTEX
  8
0
  5
4D53
 10
1427.83
 20
233.666
 30
3.25000e-013
  70
    32
  0
VERTEX
  8
0
  5
4D54
 10
1427.83
 20
233.667
 30
3.25000e-013
  70
    32
  0
VERTEX
  8
0
  5
4D55
 10
1427.82
 20
233.667
 30
3.25000e-013
  70
    32
  0
VERTEX
  8
0
  5
4D56
 10
1427.82
 20
233.668
 30
3.25000e-013
  70
    32
  0
VERTEX
  8
0
  5
4D57
 10
1427.82
 20
233.668
 30
3.25000e-013
  70
    32
  0
VERTEX
  8
0
  5
4D58
 10
1427.81
 20
233.669
 30
3.25000e-013
  70
    32
  0
VERTEX
  8
0
  5
4D59
 10
1427.81
 20
233.670
 30
3.25000e-013
  70
    32
  0
VERTEX
  8
0
  5
4D5A
 10
1427.81
 20
233.670
 30
3.25000e-013
  70
    32
  0
VERTEX
  8
0
  5
4D5B
 10
1427.80
 20
233.671
 30
3.25000e-013
  70
    32
  0
VERTEX
  8
0
  5
4D5C
 10
1427.80
 20
233.671
 30
3.25000e-013
  70
    32
  0
VERTEX
  8
0
  5
4D5D
 10
1427.80
 20
233.672
 30
3.25000e-013
  70
    32
  0
VERTEX
  8
0
  5
4D5E
 10
1427.79
 20
233.672
 30
3.25000e-013
  70
    32
  0
VERTEX
  8
0
  5
4D5F
 10
1427.79
 20
233.673
 30
3.25000e-013
  70
    32
  0
VERTEX
  8
0
  5
4D60
 10
1427.79
 20
233.674
 30
3.25000e-013
  70
    32
  0
VERTEX
  8
0
  5
4D61
 10
1427.78
 20
233.674
 30
3.24999e-013
  70
    32
  0
VERTEX
  8
0
  5
4D62
 10
1427.78
 20
233.675
 30
3.24999e-013
  70
    32
  0
VERTEX
  8
0
  5
4D63
 10
1427.78
 20
233.675
 30
3.24999e-013
  70
    32
  0
VERTEX
  8
0
  5
4D64
 10
1427.77
 20
233.676
 30
3.24999e-013
  70
    32
  0
VERTEX
  8
0
  5
4D65
 10
1427.77
 20
233.676
 30
3.24999e-013
  70
    32
  0
VERTEX
  8
0
  5
4D66
 10
1427.77
 20
233.677
 30
3.24999e-013
  70
    32
  0
VERTEX
  8
0
  5
4D67
 10
1427.76
 20
233.678
 30
3.24999e-013
  70
    32
  0
VERTEX
  8
0
  5
4D68
 10
1427.76
 20
233.678
 30
3.24999e-013
  70
    32
  0
VERTEX
  8
0
  5
4D69
 10
1427.76
 20
233.679
 30
3.24999e-013
  70
    32
  0
VERTEX
  8
0
  5
4D6A
 10
1427.75
 20
233.679
 30
3.24998e-013
  70
    32
  0
VERTEX
  8
0
  5
4D6B
 10
1427.75
 20
233.680
 30
3.24998e-013
  70
    32
  0
VERTEX
  8
0
  5
4D6C
 10
1427.75
 20
233.681
 30
3.24998e-013
  70
    32
  0
VERTEX
  8
0
  5
4D6D
 10
1427.74
 20
233.681
 30
3.24998e-013
  70
    32
  0
VERTEX
  8
0
  5
4D6E
 10
1427.74
 20
233.682
 30
3.24998e-013
  70
    32
  0
VERTEX
  8
0
  5
4D6F
 10
1427.74
 20
233.683
 30
3.24997e-013
  70
    32
  0
VERTEX
  8
0
  5
4D70
 10
1427.73
 20
233.683
 30
3.24997e-013
  70
    32
  0
VERTEX
  8
0
  5
4D71
 10
1427.73
 20
233.684
 30
3.24997e-013
  70
    32
  0
VERTEX
  8
0
  5
4D72
 10
1427.73
 20
233.685
 30
3.24997e-013
  70
    32
  0
VERTEX
  8
0
  5
4D73
 10
1427.72
 20
233.685
 30
3.24996e-013
  70
    32
  0
VERTEX
  8
0
  5
4D74
 10
1427.72
 20
233.686
 30
3.24996e-013
  70
    32
  0
VERTEX
  8
0
  5
4D75
 10
1427.72
 20
233.686
 30
3.24996e-013
  70
    32
  0
VERTEX
  8
0
  5
4D76
 10
1427.71
 20
233.687
 30
3.24995e-013
  70
    32
  0
VERTEX
  8
0
  5
4D77
 10
1427.71
 20
233.688
 30
3.24995e-013
  70
    32
  0
VERTEX
  8
0
  5
4D78
 10
1427.71
 20
233.688
 30
3.24995e-013
  70
    32
  0
VERTEX
  8
0
  5
4D79
 10
1427.70
 20
233.689
 30
3.24994e-013
  70
    32
  0
VERTEX
  8
0
  5
4D7A
 10
1427.70
 20
233.690
 30
3.24994e-013
  70
    32
  0
VERTEX
  8
0
  5
4D7B
 10
1427.70
 20
233.690
 30
3.24994e-013
  70
    32
  0
VERTEX
  8
0
  5
4D7C
 10
1427.69
 20
233.691
 30
3.24993e-013
  70
    32
  0
VERTEX
  8
0
  5
4D7D
 10
1427.69
 20
233.692
 30
3.24993e-013
  70
    32
  0
VERTEX
  8
0
  5
4D7E
 10
1427.69
 20
233.693
 30
3.24992e-013
  70
    32
  0
VERTEX
  8
0
  5
4D7F
 10
1427.68
 20
233.693
 30
3.24992e-013
  70
    32
  0
VERTEX
  8
0
  5
4D80
 10
1427.68
 20
233.694
 30
3.24991e-013
  70
    32
  0
VERTEX
  8
0
  5
4D81
 10
1427.68
 20
233.695
 30
3.24991e-013
  70
    32
  0
VERTEX
  8
0
  5
4D82
 10
1427.67
 20
233.695
 30
3.24990e-013
  70
    32
  0
VERTEX
  8
0
  5
4D83
 10
1427.67
 20
233.696
 30
3.24990e-013
  70
    32
  0
VERTEX
  8
0
  5
4D84
 10
1427.67
 20
233.697
 30
3.24989e-013
  70
    32
  0
VERTEX
  8
0
  5
4D85
 10
1427.66
 20
233.697
 30
3.24988e-013
  70
    32
  0
VERTEX
  8
0
  5
4D86
 10
1427.66
 20
233.698
 30
3.24988e-013
  70
    32
  0
VERTEX
  8
0
  5
4D87
 10
1427.66
 20
233.699
 30
3.24987e-013
  70
    32
  0
VERTEX
  8
0
  5
4D88
 10
1427.65
 20
233.700
 30
3.24986e-013
  70
    32
  0
VERTEX
  8
0
  5
4D89
 10
1427.65
 20
233.700
 30
3.24986e-013
  70
    32
  0
VERTEX
  8
0
  5
4D8A
 10
1427.65
 20
233.701
 30
3.24985e-013
  70
    32
  0
VERTEX
  8
0
  5
4D8B
 10
1427.65
 20
233.702
 30
3.24984e-013
  70
    32
  0
VERTEX
  8
0
  5
4D8C
 10
1427.64
 20
233.702
 30
3.24984e-013
  70
    32
  0
VERTEX
  8
0
  5
4D8D
 10
1427.64
 20
233.703
 30
3.24983e-013
  70
    32
  0
VERTEX
  8
0
  5
4D8E
 10
1427.64
 20
233.704
 30
3.24982e-013
  70
    32
  0
VERTEX
  8
0
  5
4D8F
 10
1427.63
 20
233.705
 30
3.24981e-013
  70
    32
  0
VERTEX
  8
0
  5
4D90
 10
1427.63
 20
233.705
 30
3.24980e-013
  70
    32
  0
VERTEX
  8
0
  5
4D91
 10
1427.63
 20
233.706
 30
3.24979e-013
  70
    32
  0
VERTEX
  8
0
  5
4D92
 10
1427.62
 20
233.707
 30
3.24978e-013
  70
    32
  0
VERTEX
  8
0
  5
4D93
 10
1427.62
 20
233.708
 30
3.24977e-013
  70
    32
  0
VERTEX
  8
0
  5
4D94
 10
1427.62
 20
233.708
 30
3.24976e-013
  70
    32
  0
VERTEX
  8
0
  5
4D95
 10
1427.61
 20
233.709
 30
3.24975e-013
  70
    32
  0
VERTEX
  8
0
  5
4D96
 10
1427.61
 20
233.710
 30
3.24974e-013
  70
    32
  0
VERTEX
  8
0
  5
4D97
 10
1427.61
 20
233.711
 30
3.24973e-013
  70
    32
  0
VERTEX
  8
0
  5
4D98
 10
1427.60
 20
233.712
 30
3.24972e-013
  70
    32
  0
VERTEX
  8
0
  5
4D99
 10
1427.60
 20
233.712
 30
3.24971e-013
  70
    32
  0
VERTEX
  8
0
  5
4D9A
 10
1427.60
 20
233.713
 30
3.24970e-013
  70
    32
  0
VERTEX
  8
0
  5
4D9B
 10
1427.59
 20
233.714
 30
3.24969e-013
  70
    32
  0
VERTEX
  8
0
  5
4D9C
 10
1427.59
 20
233.715
 30
3.24968e-013
  70
    32
  0
VERTEX
  8
0
  5
4D9D
 10
1427.59
 20
233.715
 30
3.24966e-013
  70
    32
  0
VERTEX
  8
0
  5
4D9E
 10
1427.58
 20
233.716
 30
3.24965e-013
  70
    32
  0
VERTEX
  8
0
  5
4D9F
 10
1427.58
 20
233.717
 30
3.24964e-013
  70
    32
  0
VERTEX
  8
0
  5
4DA0
 10
1427.58
 20
233.718
 30
3.24962e-013
  70
    32
  0
VERTEX
  8
0
  5
4DA1
 10
1427.57
 20
233.719
 30
3.24961e-013
  70
    32
  0
VERTEX
  8
0
  5
4DA2
 10
1427.57
 20
233.719
 30
3.24960e-013
  70
    32
  0
VERTEX
  8
0
  5
4DA3
 10
1427.57
 20
233.720
 30
3.24958e-013
  70
    32
  0
VERTEX
  8
0
  5
4DA4
 10
1427.56
 20
233.721
 30
3.24957e-013
  70
    32
  0
VERTEX
  8
0
  5
4DA5
 10
1427.56
 20
233.722
 30
3.24955e-013
  70
    32
  0
VERTEX
  8
0
  5
4DA6
 10
1427.56
 20
233.723
 30
3.24954e-013
  70
    32
  0
VERTEX
  8
0
  5
4DA7
 10
1427.55
 20
233.724
 30
3.24952e-013
  70
    32
  0
VERTEX
  8
0
  5
4DA8
 10
1427.55
 20
233.724
 30
3.24950e-013
  70
    32
  0
VERTEX
  8
0
  5
4DA9
 10
1427.55
 20
233.725
 30
3.24949e-013
  70
    32
  0
VERTEX
  8
0
  5
4DAA
 10
1427.55
 20
233.726
 30
3.24947e-013
  70
    32
  0
VERTEX
  8
0
  5
4DAB
 10
1427.54
 20
233.727
 30
3.24945e-013
  70
    32
  0
VERTEX
  8
0
  5
4DAC
 10
1427.54
 20
233.728
 30
3.24944e-013
  70
    32
  0
VERTEX
  8
0
  5
4DAD
 10
1427.54
 20
233.729
 30
3.24942e-013
  70
    32
  0
VERTEX
  8
0
  5
4DAE
 10
1427.53
 20
233.729
 30
3.24940e-013
  70
    32
  0
VERTEX
  8
0
  5
4DAF
 10
1427.53
 20
233.730
 30
3.24938e-013
  70
    32
  0
VERTEX
  8
0
  5
4DB0
 10
1427.53
 20
233.731
 30
3.24936e-013
  70
    32
  0
VERTEX
  8
0
  5
4DB1
 10
1427.52
 20
233.732
 30
3.24934e-013
  70
    32
  0
VERTEX
  8
0
  5
4DB2
 10
1427.52
 20
233.733
 30
3.24932e-013
  70
    32
  0
VERTEX
  8
0
  5
4DB3
 10
1427.52
 20
233.734
 30
3.24930e-013
  70
    32
  0
VERTEX
  8
0
  5
4DB4
 10
1427.51
 20
233.735
 30
3.24928e-013
  70
    32
  0
VERTEX
  8
0
  5
4DB5
 10
1427.51
 20
233.735
 30
3.24926e-013
  70
    32
  0
VERTEX
  8
0
  5
4DB6
 10
1427.51
 20
233.736
 30
3.24924e-013
  70
    32
  0
VERTEX
  8
0
  5
4DB7
 10
1427.50
 20
233.737
 30
3.24922e-013
  70
    32
  0
VERTEX
  8
0
  5
4DB8
 10
1427.50
 20
233.738
 30
3.24919e-013
  70
    32
  0
VERTEX
  8
0
  5
4DB9
 10
1427.50
 20
233.739
 30
3.24917e-013
  70
    32
  0
VERTEX
  8
0
  5
4DBA
 10
1427.49
 20
233.740
 30
3.24915e-013
  70
    32
  0
VERTEX
  8
0
  5
4DBB
 10
1427.49
 20
233.741
 30
3.24912e-013
  70
    32
  0
VERTEX
  8
0
  5
4DBC
 10
1427.49
 20
233.742
 30
3.24910e-013
  70
    32
  0
VERTEX
  8
0
  5
4DBD
 10
1427.48
 20
233.742
 30
3.24908e-013
  70
    32
  0
VERTEX
  8
0
  5
4DBE
 10
1427.48
 20
233.743
 30
3.24905e-013
  70
    32
  0
VERTEX
  8
0
  5
4DBF
 10
1427.48
 20
233.744
 30
3.24903e-013
  70
    32
  0
VERTEX
  8
0
  5
4DC0
 10
1427.48
 20
233.745
 30
3.24900e-013
  70
    32
  0
SEQEND
  8
0
  5
4DC1
  0
ARC
  5
4597
  8
0
  6
VERDECKT
 62
     1
 10
-1343.3038504617609
 20
480.62848099074142
 30
-0.0000000000000069
 40
3.0000000000002269
210
0.0000000000000002
220
0.0
230
-1.0
 50
0.0000000000032569
 51
89.999999999995666
  0
LINE
  5
4598
  8
0
  6
VERDECKT
 62
     1
 10
1343.3038504617609
 20
483.62848099074148
 30
0.0000000000003126
 11
1404.30385046176
 21
483.62848099074148
 31
0.0000000000003265
  0
ARC
  5
4599
  8
0
  6
VERDECKT
 62
     1
 10
-1404.30385046176
 20
480.62848099074142
 30
0.000000000000007
 40
3.0000000000001701
210
0.0000000000000002
220
0.0
230
-1.0
 50
90.000000000004306
 51
179.9999999999967
  0
LINE
  5
459A
  8
0
  6
VERDECKT
 62
     1
 10
1407.3038504617609
 20
480.62848099074159
 30
0.0000000000003126
 11
1407.3038504617609
 21
472.62848099074182
 31
0.0000000000003126
  0
ARC
  5
459B
  8
0
  6
VERDECKT
 62
     1
 10
1413.30385046176
 20
472.62848099074182
 30
0.0000000000003126
 40
5.9999999999997717
 50
179.9999999999994
 51
270.0000000000021
  0
LINE
  5
459C
  8
0
  6
VERDECKT
 62
     1
 10
1413.30385046176
 20
466.62848099074182
 30
0.0000000000003126
 11
1419.30385046176
 21
466.62848099074182
 31
0.000000000000314
  0
ARC
  5
459D
  8
0
  6
VERDECKT
 62
     1
 10
1419.30385046176
 20
472.62848099074222
 30
0.0000000000003126
 40
6.0000000000003553
 50
270.0
 51
359.99999999999869
  0
LINE
  5
459E
  8
0
  6
VERDECKT
 62
     1
 10
1425.30385046176
 20
472.62848099074199
 30
0.0000000000003126
 11
1425.3038504617609
 21
480.62848099074171
 31
0.0000000000003126
  0
ARC
  5
459F
  8
0
  6
VERDECKT
 62
     1
 10
-1343.3038504617609
 20
236.62848099074219
 30
-0.0000000000000069
 40
3.0000000000001128
210
0.0000000000000002
220
0.0
230
-1.0
 50
270.0
 51
359.99999999999352
  0
LINE
  5
45A0
  8
0
  6
VERDECKT
 62
     1
 10
1404.30385046176
 20
233.6284809907421
 30
0.0000000000003126
 11
1343.3038504617609
 21
233.6284809907421
 31
0.0000000000002988
  0
ARC
  5
45A1
  8
0
  6
VERDECKT
 62
     1
 10
-1404.30385046176
 20
236.62848099074219
 30
0.000000000000007
 40
3.0000000000002269
210
0.0000000000000002
220
0.0
230
-1.0
 50
180.0000000000021
 51
269.99999999999562
  0
LINE
  5
45A2
  8
0
  6
VERDECKT
 62
     1
 10
1407.3038504617609
 20
244.62848099074159
 30
0.0000000000003126
 11
1407.3038504617609
 21
236.62848099074199
 31
0.0000000000003126
  0
ARC
  5
45A3
  8
0
  6
VERDECKT
 62
     1
 10
1413.30385046176
 20
244.6284809907421
 30
0.0000000000003126
 40
5.9999999999997717
 50
89.999999999997854
 51
180.00000000000429
  0
LINE
  5
45A4
  8
0
  6
VERDECKT
 62
     1
 10
1419.30385046176
 20
250.62848099074179
 30
0.0000000000003126
 11
1413.30385046176
 21
250.62848099074179
 31
0.0000000000003113
  0
ARC
  5
45A5
  8
0
  6
VERDECKT
 62
     1
 10
1419.30385046176
 20
244.6284809907421
 30
0.0000000000003126
 40
5.9999999999995444
 50
359.99999999999568
 51
90.000000000002174
  0
LINE
  5
45A6
  8
0
  6
VERDECKT
 62
     1
 10
1425.3038504617609
 20
236.62848099074191
 30
0.0000000000003126
 11
1425.30385046176
 21
244.62848099074159
 31
0.0000000000003126
  0
POLYLINE
  8
0
  5
4DC2
  62
1
  66
     1
 10
0.000000
 20
0.000000
 30
0.000000
  70
     8
  0
VERTEX
  8
0
  5
4DC3
 10
1427.48
 20
483.512
 30
3.24900e-013
  70
    32
  0
VERTEX
  8
0
  5
4DC4
 10
1427.48
 20
483.513
 30
3.24903e-013
  70
    32
  0
VERTEX
  8
0
  5
4DC5
 10
1427.48
 20
483.514
 30
3.24905e-013
  70
    32
  0
VERTEX
  8
0
  5
4DC6
 10
1427.48
 20
483.515
 30
3.24908e-013
  70
    32
  0
VERTEX
  8
0
  5
4DC7
 10
1427.49
 20
483.515
 30
3.24910e-013
  70
    32
  0
VERTEX
  8
0
  5
4DC8
 10
1427.49
 20
483.516
 30
3.24912e-013
  70
    32
  0
VERTEX
  8
0
  5
4DC9
 10
1427.49
 20
483.517
 30
3.24915e-013
  70
    32
  0
VERTEX
  8
0
  5
4DCA
 10
1427.50
 20
483.518
 30
3.24917e-013
  70
    32
  0
VERTEX
  8
0
  5
4DCB
 10
1427.50
 20
483.519
 30
3.24919e-013
  70
    32
  0
VERTEX
  8
0
  5
4DCC
 10
1427.50
 20
483.520
 30
3.24922e-013
  70
    32
  0
VERTEX
  8
0
  5
4DCD
 10
1427.51
 20
483.521
 30
3.24924e-013
  70
    32
  0
VERTEX
  8
0
  5
4DCE
 10
1427.51
 20
483.522
 30
3.24926e-013
  70
    32
  0
VERTEX
  8
0
  5
4DCF
 10
1427.51
 20
483.522
 30
3.24928e-013
  70
    32
  0
VERTEX
  8
0
  5
4DD0
 10
1427.52
 20
483.523
 30
3.24930e-013
  70
    32
  0
VERTEX
  8
0
  5
4DD1
 10
1427.52
 20
483.524
 30
3.24932e-013
  70
    32
  0
VERTEX
  8
0
  5
4DD2
 10
1427.52
 20
483.525
 30
3.24934e-013
  70
    32
  0
VERTEX
  8
0
  5
4DD3
 10
1427.53
 20
483.526
 30
3.24936e-013
  70
    32
  0
VERTEX
  8
0
  5
4DD4
 10
1427.53
 20
483.527
 30
3.24938e-013
  70
    32
  0
VERTEX
  8
0
  5
4DD5
 10
1427.53
 20
483.528
 30
3.24940e-013
  70
    32
  0
VERTEX
  8
0
  5
4DD6
 10
1427.54
 20
483.528
 30
3.24942e-013
  70
    32
  0
VERTEX
  8
0
  5
4DD7
 10
1427.54
 20
483.529
 30
3.24944e-013
  70
    32
  0
VERTEX
  8
0
  5
4DD8
 10
1427.54
 20
483.530
 30
3.24945e-013
  70
    32
  0
VERTEX
  8
0
  5
4DD9
 10
1427.55
 20
483.531
 30
3.24947e-013
  70
    32
  0
VERTEX
  8
0
  5
4DDA
 10
1427.55
 20
483.532
 30
3.24949e-013
  70
    32
  0
VERTEX
  8
0
  5
4DDB
 10
1427.55
 20
483.533
 30
3.24950e-013
  70
    32
  0
VERTEX
  8
0
  5
4DDC
 10
1427.55
 20
483.533
 30
3.24952e-013
  70
    32
  0
VERTEX
  8
0
  5
4DDD
 10
1427.56
 20
483.534
 30
3.24954e-013
  70
    32
  0
VERTEX
  8
0
  5
4DDE
 10
1427.56
 20
483.535
 30
3.24955e-013
  70
    32
  0
VERTEX
  8
0
  5
4DDF
 10
1427.56
 20
483.536
 30
3.24957e-013
  70
    32
  0
VERTEX
  8
0
  5
4DE0
 10
1427.57
 20
483.537
 30
3.24958e-013
  70
    32
  0
VERTEX
  8
0
  5
4DE1
 10
1427.57
 20
483.538
 30
3.24960e-013
  70
    32
  0
VERTEX
  8
0
  5
4DE2
 10
1427.57
 20
483.538
 30
3.24961e-013
  70
    32
  0
VERTEX
  8
0
  5
4DE3
 10
1427.58
 20
483.539
 30
3.24962e-013
  70
    32
  0
VERTEX
  8
0
  5
4DE4
 10
1427.58
 20
483.540
 30
3.24964e-013
  70
    32
  0
VERTEX
  8
0
  5
4DE5
 10
1427.58
 20
483.541
 30
3.24965e-013
  70
    32
  0
VERTEX
  8
0
  5
4DE6
 10
1427.59
 20
483.542
 30
3.24966e-013
  70
    32
  0
VERTEX
  8
0
  5
4DE7
 10
1427.59
 20
483.542
 30
3.24968e-013
  70
    32
  0
VERTEX
  8
0
  5
4DE8
 10
1427.59
 20
483.543
 30
3.24969e-013
  70
    32
  0
VERTEX
  8
0
  5
4DE9
 10
1427.60
 20
483.544
 30
3.24970e-013
  70
    32
  0
VERTEX
  8
0
  5
4DEA
 10
1427.60
 20
483.545
 30
3.24971e-013
  70
    32
  0
VERTEX
  8
0
  5
4DEB
 10
1427.60
 20
483.545
 30
3.24972e-013
  70
    32
  0
VERTEX
  8
0
  5
4DEC
 10
1427.61
 20
483.546
 30
3.24973e-013
  70
    32
  0
VERTEX
  8
0
  5
4DED
 10
1427.61
 20
483.547
 30
3.24974e-013
  70
    32
  0
VERTEX
  8
0
  5
4DEE
 10
1427.61
 20
483.548
 30
3.24975e-013
  70
    32
  0
VERTEX
  8
0
  5
4DEF
 10
1427.62
 20
483.549
 30
3.24976e-013
  70
    32
  0
VERTEX
  8
0
  5
4DF0
 10
1427.62
 20
483.549
 30
3.24977e-013
  70
    32
  0
VERTEX
  8
0
  5
4DF1
 10
1427.62
 20
483.550
 30
3.24978e-013
  70
    32
  0
VERTEX
  8
0
  5
4DF2
 10
1427.63
 20
483.551
 30
3.24979e-013
  70
    32
  0
VERTEX
  8
0
  5
4DF3
 10
1427.63
 20
483.552
 30
3.24980e-013
  70
    32
  0
VERTEX
  8
0
  5
4DF4
 10
1427.63
 20
483.552
 30
3.24981e-013
  70
    32
  0
VERTEX
  8
0
  5
4DF5
 10
1427.64
 20
483.553
 30
3.24982e-013
  70
    32
  0
VERTEX
  8
0
  5
4DF6
 10
1427.64
 20
483.554
 30
3.24983e-013
  70
    32
  0
VERTEX
  8
0
  5
4DF7
 10
1427.64
 20
483.555
 30
3.24984e-013
  70
    32
  0
VERTEX
  8
0
  5
4DF8
 10
1427.65
 20
483.555
 30
3.24984e-013
  70
    32
  0
VERTEX
  8
0
  5
4DF9
 10
1427.65
 20
483.556
 30
3.24985e-013
  70
    32
  0
VERTEX
  8
0
  5
4DFA
 10
1427.65
 20
483.557
 30
3.24986e-013
  70
    32
  0
VERTEX
  8
0
  5
4DFB
 10
1427.65
 20
483.557
 30
3.24986e-013
  70
    32
  0
VERTEX
  8
0
  5
4DFC
 10
1427.66
 20
483.558
 30
3.24987e-013
  70
    32
  0
VERTEX
  8
0
  5
4DFD
 10
1427.66
 20
483.559
 30
3.24988e-013
  70
    32
  0
VERTEX
  8
0
  5
4DFE
 10
1427.66
 20
483.560
 30
3.24988e-013
  70
    32
  0
VERTEX
  8
0
  5
4DFF
 10
1427.67
 20
483.560
 30
3.24989e-013
  70
    32
  0
VERTEX
  8
0
  5
4E00
 10
1427.67
 20
483.561
 30
3.24990e-013
  70
    32
  0
VERTEX
  8
0
  5
4E01
 10
1427.67
 20
483.562
 30
3.24990e-013
  70
    32
  0
VERTEX
  8
0
  5
4E02
 10
1427.68
 20
483.562
 30
3.24991e-013
  70
    32
  0
VERTEX
  8
0
  5
4E03
 10
1427.68
 20
483.563
 30
3.24991e-013
  70
    32
  0
VERTEX
  8
0
  5
4E04
 10
1427.68
 20
483.564
 30
3.24992e-013
  70
    32
  0
VERTEX
  8
0
  5
4E05
 10
1427.69
 20
483.564
 30
3.24992e-013
  70
    32
  0
VERTEX
  8
0
  5
4E06
 10
1427.69
 20
483.565
 30
3.24993e-013
  70
    32
  0
VERTEX
  8
0
  5
4E07
 10
1427.69
 20
483.566
 30
3.24993e-013
  70
    32
  0
VERTEX
  8
0
  5
4E08
 10
1427.70
 20
483.567
 30
3.24994e-013
  70
    32
  0
VERTEX
  8
0
  5
4E09
 10
1427.70
 20
483.567
 30
3.24994e-013
  70
    32
  0
VERTEX
  8
0
  5
4E0A
 10
1427.70
 20
483.568
 30
3.24994e-013
  70
    32
  0
VERTEX
  8
0
  5
4E0B
 10
1427.71
 20
483.569
 30
3.24995e-013
  70
    32
  0
VERTEX
  8
0
  5
4E0C
 10
1427.71
 20
483.569
 30
3.24995e-013
  70
    32
  0
VERTEX
  8
0
  5
4E0D
 10
1427.71
 20
483.570
 30
3.24995e-013
  70
    32
  0
VERTEX
  8
0
  5
4E0E
 10
1427.72
 20
483.570
 30
3.24996e-013
  70
    32
  0
VERTEX
  8
0
  5
4E0F
 10
1427.72
 20
483.571
 30
3.24996e-013
  70
    32
  0
VERTEX
  8
0
  5
4E10
 10
1427.72
 20
483.572
 30
3.24996e-013
  70
    32
  0
VERTEX
  8
0
  5
4E11
 10
1427.73
 20
483.572
 30
3.24997e-013
  70
    32
  0
VERTEX
  8
0
  5
4E12
 10
1427.73
 20
483.573
 30
3.24997e-013
  70
    32
  0
VERTEX
  8
0
  5
4E13
 10
1427.73
 20
483.574
 30
3.24997e-013
  70
    32
  0
VERTEX
  8
0
  5
4E14
 10
1427.74
 20
483.574
 30
3.24997e-013
  70
    32
  0
VERTEX
  8
0
  5
4E15
 10
1427.74
 20
483.575
 30
3.24998e-013
  70
    32
  0
VERTEX
  8
0
  5
4E16
 10
1427.74
 20
483.576
 30
3.24998e-013
  70
    32
  0
VERTEX
  8
0
  5
4E17
 10
1427.75
 20
483.576
 30
3.24998e-013
  70
    32
  0
VERTEX
  8
0
  5
4E18
 10
1427.75
 20
483.577
 30
3.24998e-013
  70
    32
  0
VERTEX
  8
0
  5
4E19
 10
1427.75
 20
483.577
 30
3.24998e-013
  70
    32
  0
VERTEX
  8
0
  5
4E1A
 10
1427.76
 20
483.578
 30
3.24999e-013
  70
    32
  0
VERTEX
  8
0
  5
4E1B
 10
1427.76
 20
483.579
 30
3.24999e-013
  70
    32
  0
VERTEX
  8
0
  5
4E1C
 10
1427.76
 20
483.579
 30
3.24999e-013
  70
    32
  0
VERTEX
  8
0
  5
4E1D
 10
1427.77
 20
483.580
 30
3.24999e-013
  70
    32
  0
VERTEX
  8
0
  5
4E1E
 10
1427.77
 20
483.581
 30
3.24999e-013
  70
    32
  0
VERTEX
  8
0
  5
4E1F
 10
1427.77
 20
483.581
 30
3.24999e-013
  70
    32
  0
VERTEX
  8
0
  5
4E20
 10
1427.78
 20
483.582
 30
3.24999e-013
  70
    32
  0
VERTEX
  8
0
  5
4E21
 10
1427.78
 20
483.582
 30
3.24999e-013
  70
    32
  0
VERTEX
  8
0
  5
4E22
 10
1427.78
 20
483.583
 30
3.24999e-013
  70
    32
  0
VERTEX
  8
0
  5
4E23
 10
1427.79
 20
483.583
 30
3.25000e-013
  70
    32
  0
VERTEX
  8
0
  5
4E24
 10
1427.79
 20
483.584
 30
3.25000e-013
  70
    32
  0
VERTEX
  8
0
  5
4E25
 10
1427.79
 20
483.585
 30
3.25000e-013
  70
    32
  0
VERTEX
  8
0
  5
4E26
 10
1427.80
 20
483.585
 30
3.25000e-013
  70
    32
  0
VERTEX
  8
0
  5
4E27
 10
1427.80
 20
483.586
 30
3.25000e-013
  70
    32
  0
VERTEX
  8
0
  5
4E28
 10
1427.80
 20
483.586
 30
3.25000e-013
  70
    32
  0
VERTEX
  8
0
  5
4E29
 10
1427.81
 20
483.587
 30
3.25000e-013
  70
    32
  0
VERTEX
  8
0
  5
4E2A
 10
1427.81
 20
483.587
 30
3.25000e-013
  70
    32
  0
VERTEX
  8
0
  5
4E2B
 10
1427.81
 20
483.588
 30
3.25000e-013
  70
    32
  0
VERTEX
  8
0
  5
4E2C
 10
1427.82
 20
483.589
 30
3.25000e-013
  70
    32
  0
VERTEX
  8
0
  5
4E2D
 10
1427.82
 20
483.589
 30
3.25000e-013
  70
    32
  0
VERTEX
  8
0
  5
4E2E
 10
1427.82
 20
483.590
 30
3.25000e-013
  70
    32
  0
VERTEX
  8
0
  5
4E2F
 10
1427.83
 20
483.590
 30
3.25000e-013
  70
    32
  0
VERTEX
  8
0
  5
4E30
 10
1427.83
 20
483.591
 30
3.25000e-013
  70
    32
  0
VERTEX
  8
0
  5
4E31
 10
1427.83
 20
483.591
 30
3.25000e-013
  70
    32
  0
VERTEX
  8
0
  5
4E32
 10
1427.84
 20
483.592
 30
3.25000e-013
  70
    32
  0
VERTEX
  8
0
  5
4E33
 10
1427.84
 20
483.592
 30
3.25000e-013
  70
    32
  0
VERTEX
  8
0
  5
4E34
 10
1427.84
 20
483.593
 30
3.25000e-013
  70
    32
  0
VERTEX
  8
0
  5
4E35
 10
1427.85
 20
483.593
 30
3.25000e-013
  70
    32
  0
VERTEX
  8
0
  5
4E36
 10
1427.85
 20
483.594
 30
3.25000e-013
  70
    32
  0
VERTEX
  8
0
  5
4E37
 10
1427.85
 20
483.594
 30
3.25000e-013
  70
    32
  0
VERTEX
  8
0
  5
4E38
 10
1427.86
 20
483.595
 30
3.25000e-013
  70
    32
  0
VERTEX
  8
0
  5
4E39
 10
1427.86
 20
483.595
 30
3.25000e-013
  70
    32
  0
VERTEX
  8
0
  5
4E3A
 10
1427.86
 20
483.596
 30
3.25000e-013
  70
    32
  0
VERTEX
  8
0
  5
4E3B
 10
1427.87
 20
483.596
 30
3.25001e-013
  70
    32
  0
VERTEX
  8
0
  5
4E3C
 10
1427.87
 20
483.597
 30
3.25001e-013
  70
    32
  0
VERTEX
  8
0
  5
4E3D
 10
1427.87
 20
483.597
 30
3.25001e-013
  70
    32
  0
VERTEX
  8
0
  5
4E3E
 10
1427.88
 20
483.598
 30
3.25001e-013
  70
    32
  0
VERTEX
  8
0
  5
4E3F
 10
1427.88
 20
483.598
 30
3.25002e-013
  70
    32
  0
VERTEX
  8
0
  5
4E40
 10
1427.88
 20
483.599
 30
3.25002e-013
  70
    32
  0
VERTEX
  8
0
  5
4E41
 10
1427.89
 20
483.599
 30
3.25002e-013
  70
    32
  0
VERTEX
  8
0
  5
4E42
 10
1427.89
 20
483.600
 30
3.25003e-013
  70
    32
  0
VERTEX
  8
0
  5
4E43
 10
1427.89
 20
483.600
 30
3.25003e-013
  70
    32
  0
VERTEX
  8
0
  5
4E44
 10
1427.90
 20
483.600
 30
3.25004e-013
  70
    32
  0
VERTEX
  8
0
  5
4E45
 10
1427.90
 20
483.601
 30
3.25005e-013
  70
    32
  0
VERTEX
  8
0
  5
4E46
 10
1427.90
 20
483.601
 30
3.25005e-013
  70
    32
  0
VERTEX
  8
0
  5
4E47
 10
1427.90
 20
483.602
 30
3.25006e-013
  70
    32
  0
VERTEX
  8
0
  5
4E48
 10
1427.91
 20
483.602
 30
3.25006e-013
  70
    32
  0
VERTEX
  8
0
  5
4E49
 10
1427.91
 20
483.603
 30
3.25007e-013
  70
    32
  0
VERTEX
  8
0
  5
4E4A
 10
1427.91
 20
483.603
 30
3.25008e-013
  70
    32
  0
VERTEX
  8
0
  5
4E4B
 10
1427.92
 20
483.604
 30
3.25009e-013
  70
    32
  0
VERTEX
  8
0
  5
4E4C
 10
1427.92
 20
483.604
 30
3.25009e-013
  70
    32
  0
VERTEX
  8
0
  5
4E4D
 10
1427.92
 20
483.604
 30
3.25010e-013
  70
    32
  0
VERTEX
  8
0
  5
4E4E
 10
1427.93
 20
483.605
 30
3.25011e-013
  70
    32
  0
VERTEX
  8
0
  5
4E4F
 10
1427.93
 20
483.605
 30
3.25012e-013
  70
    32
  0
VERTEX
  8
0
  5
4E50
 10
1427.93
 20
483.606
 30
3.25013e-013
  70
    32
  0
VERTEX
  8
0
  5
4E51
 10
1427.94
 20
483.606
 30
3.25014e-013
  70
    32
  0
VERTEX
  8
0
  5
4E52
 10
1427.94
 20
483.606
 30
3.25015e-013
  70
    32
  0
VERTEX
  8
0
  5
4E53
 10
1427.94
 20
483.607
 30
3.25016e-013
  70
    32
  0
VERTEX
  8
0
  5
4E54
 10
1427.95
 20
483.607
 30
3.25017e-013
  70
    32
  0
VERTEX
  8
0
  5
4E55
 10
1427.95
 20
483.608
 30
3.25018e-013
  70
    32
  0
VERTEX
  8
0
  5
4E56
 10
1427.95
 20
483.608
 30
3.25019e-013
  70
    32
  0
VERTEX
  8
0
  5
4E57
 10
1427.96
 20
483.608
 30
3.25020e-013
  70
    32
  0
VERTEX
  8
0
  5
4E58
 10
1427.96
 20
483.609
 30
3.25021e-013
  70
    32
  0
VERTEX
  8
0
  5
4E59
 10
1427.96
 20
483.609
 30
3.25022e-013
  70
    32
  0
VERTEX
  8
0
  5
4E5A
 10
1427.97
 20
483.610
 30
3.25023e-013
  70
    32
  0
VERTEX
  8
0
  5
4E5B
 10
1427.97
 20
483.610
 30
3.25024e-013
  70
    32
  0
VERTEX
  8
0
  5
4E5C
 10
1427.97
 20
483.610
 30
3.25025e-013
  70
    32
  0
VERTEX
  8
0
  5
4E5D
 10
1427.98
 20
483.611
 30
3.25026e-013
  70
    32
  0
VERTEX
  8
0
  5
4E5E
 10
1427.98
 20
483.611
 30
3.25028e-013
  70
    32
  0
VERTEX
  8
0
  5
4E5F
 10
1427.98
 20
483.611
 30
3.25029e-013
  70
    32
  0
VERTEX
  8
0
  5
4E60
 10
1427.99
 20
483.612
 30
3.25030e-013
  70
    32
  0
VERTEX
  8
0
  5
4E61
 10
1427.99
 20
483.612
 30
3.25031e-013
  70
    32
  0
VERTEX
  8
0
  5
4E62
 10
1427.99
 20
483.612
 30
3.25032e-013
  70
    32
  0
VERTEX
  8
0
  5
4E63
 10
1428.00
 20
483.613
 30
3.25034e-013
  70
    32
  0
VERTEX
  8
0
  5
4E64
 10
1428.00
 20
483.613
 30
3.25035e-013
  70
    32
  0
VERTEX
  8
0
  5
4E65
 10
1428.00
 20
483.613
 30
3.25036e-013
  70
    32
  0
VERTEX
  8
0
  5
4E66
 10
1428.01
 20
483.614
 30
3.25037e-013
  70
    32
  0
VERTEX
  8
0
  5
4E67
 10
1428.01
 20
483.614
 30
3.25039e-013
  70
    32
  0
VERTEX
  8
0
  5
4E68
 10
1428.01
 20
483.614
 30
3.25040e-013
  70
    32
  0
VERTEX
  8
0
  5
4E69
 10
1428.02
 20
483.615
 30
3.25041e-013
  70
    32
  0
VERTEX
  8
0
  5
4E6A
 10
1428.02
 20
483.615
 30
3.25043e-013
  70
    32
  0
VERTEX
  8
0
  5
4E6B
 10
1428.02
 20
483.615
 30
3.25044e-013
  70
    32
  0
VERTEX
  8
0
  5
4E6C
 10
1428.03
 20
483.616
 30
3.25045e-013
  70
    32
  0
VERTEX
  8
0
  5
4E6D
 10
1428.03
 20
483.616
 30
3.25046e-013
  70
    32
  0
VERTEX
  8
0
  5
4E6E
 10
1428.03
 20
483.616
 30
3.25048e-013
  70
    32
  0
VERTEX
  8
0
  5
4E6F
 10
1428.04
 20
483.617
 30
3.25049e-013
  70
    32
  0
VERTEX
  8
0
  5
4E70
 10
1428.04
 20
483.617
 30
3.25050e-013
  70
    32
  0
VERTEX
  8
0
  5
4E71
 10
1428.04
 20
483.617
 30
3.25052e-013
  70
    32
  0
VERTEX
  8
0
  5
4E72
 10
1428.05
 20
483.617
 30
3.25053e-013
  70
    32
  0
VERTEX
  8
0
  5
4E73
 10
1428.05
 20
483.618
 30
3.25054e-013
  70
    32
  0
VERTEX
  8
0
  5
4E74
 10
1428.05
 20
483.618
 30
3.25056e-013
  70
    32
  0
VERTEX
  8
0
  5
4E75
 10
1428.06
 20
483.618
 30
3.25057e-013
  70
    32
  0
VERTEX
  8
0
  5
4E76
 10
1428.06
 20
483.618
 30
3.25058e-013
  70
    32
  0
VERTEX
  8
0
  5
4E77
 10
1428.06
 20
483.619
 30
3.25059e-013
  70
    32
  0
VERTEX
  8
0
  5
4E78
 10
1428.07
 20
483.619
 30
3.25061e-013
  70
    32
  0
VERTEX
  8
0
  5
4E79
 10
1428.07
 20
483.619
 30
3.25062e-013
  70
    32
  0
VERTEX
  8
0
  5
4E7A
 10
1428.07
 20
483.620
 30
3.25063e-013
  70
    32
  0
VERTEX
  8
0
  5
4E7B
 10
1428.08
 20
483.620
 30
3.25064e-013
  70
    32
  0
VERTEX
  8
0
  5
4E7C
 10
1428.08
 20
483.620
 30
3.25066e-013
  70
    32
  0
VERTEX
  8
0
  5
4E7D
 10
1428.08
 20
483.620
 30
3.25067e-013
  70
    32
  0
VERTEX
  8
0
  5
4E7E
 10
1428.09
 20
483.621
 30
3.25068e-013
  70
    32
  0
VERTEX
  8
0
  5
4E7F
 10
1428.09
 20
483.621
 30
3.25069e-013
  70
    32
  0
VERTEX
  8
0
  5
4E80
 10
1428.09
 20
483.621
 30
3.25071e-013
  70
    32
  0
VERTEX
  8
0
  5
4E81
 10
1428.10
 20
483.621
 30
3.25072e-013
  70
    32
  0
VERTEX
  8
0
  5
4E82
 10
1428.10
 20
483.621
 30
3.25073e-013
  70
    32
  0
VERTEX
  8
0
  5
4E83
 10
1428.10
 20
483.622
 30
3.25074e-013
  70
    32
  0
VERTEX
  8
0
  5
4E84
 10
1428.11
 20
483.622
 30
3.25075e-013
  70
    32
  0
VERTEX
  8
0
  5
4E85
 10
1428.11
 20
483.622
 30
3.25076e-013
  70
    32
  0
VERTEX
  8
0
  5
4E86
 10
1428.11
 20
483.622
 30
3.25078e-013
  70
    32
  0
VERTEX
  8
0
  5
4E87
 10
1428.12
 20
483.623
 30
3.25079e-013
  70
    32
  0
VERTEX
  8
0
  5
4E88
 10
1428.12
 20
483.623
 30
3.25080e-013
  70
    32
  0
VERTEX
  8
0
  5
4E89
 10
1428.12
 20
483.623
 30
3.25081e-013
  70
    32
  0
VERTEX
  8
0
  5
4E8A
 10
1428.12
 20
483.623
 30
3.25082e-013
  70
    32
  0
VERTEX
  8
0
  5
4E8B
 10
1428.13
 20
483.623
 30
3.25083e-013
  70
    32
  0
VERTEX
  8
0
  5
4E8C
 10
1428.13
 20
483.624
 30
3.25084e-013
  70
    32
  0
VERTEX
  8
0
  5
4E8D
 10
1428.13
 20
483.624
 30
3.25085e-013
  70
    32
  0
VERTEX
  8
0
  5
4E8E
 10
1428.14
 20
483.624
 30
3.25086e-013
  70
    32
  0
VERTEX
  8
0
  5
4E8F
 10
1428.14
 20
483.624
 30
3.25087e-013
  70
    32
  0
VERTEX
  8
0
  5
4E90
 10
1428.14
 20
483.624
 30
3.25088e-013
  70
    32
  0
VERTEX
  8
0
  5
4E91
 10
1428.15
 20
483.624
 30
3.25089e-013
  70
    32
  0
VERTEX
  8
0
  5
4E92
 10
1428.15
 20
483.625
 30
3.25089e-013
  70
    32
  0
VERTEX
  8
0
  5
4E93
 10
1428.15
 20
483.625
 30
3.25090e-013
  70
    32
  0
VERTEX
  8
0
  5
4E94
 10
1428.16
 20
483.625
 30
3.25091e-013
  70
    32
  0
VERTEX
  8
0
  5
4E95
 10
1428.16
 20
483.625
 30
3.25092e-013
  70
    32
  0
VERTEX
  8
0
  5
4E96
 10
1428.16
 20
483.625
 30
3.25093e-013
  70
    32
  0
VERTEX
  8
0
  5
4E97
 10
1428.17
 20
483.625
 30
3.25093e-013
  70
    32
  0
VERTEX
  8
0
  5
4E98
 10
1428.17
 20
483.625
 30
3.25094e-013
  70
    32
  0
VERTEX
  8
0
  5
4E99
 10
1428.17
 20
483.626
 30
3.25095e-013
  70
    32
  0
VERTEX
  8
0
  5
4E9A
 10
1428.18
 20
483.626
 30
3.25095e-013
  70
    32
  0
VERTEX
  8
0
  5
4E9B
 10
1428.18
 20
483.626
 30
3.25096e-013
  70
    32
  0
VERTEX
  8
0
  5
4E9C
 10
1428.18
 20
483.626
 30
3.25096e-013
  70
    32
  0
VERTEX
  8
0
  5
4E9D
 10
1428.19
 20
483.626
 30
3.25097e-013
  70
    32
  0
VERTEX
  8
0
  5
4E9E
 10
1428.19
 20
483.626
 30
3.25097e-013
  70
    32
  0
VERTEX
  8
0
  5
4E9F
 10
1428.19
 20
483.626
 30
3.25098e-013
  70
    32
  0
VERTEX
  8
0
  5
4EA0
 10
1428.20
 20
483.627
 30
3.25098e-013
  70
    32
  0
VERTEX
  8
0
  5
4EA1
 10
1428.20
 20
483.627
 30
3.25099e-013
  70
    32
  0
VERTEX
  8
0
  5
4EA2
 10
1428.20
 20
483.627
 30
3.25099e-013
  70
    32
  0
VERTEX
  8
0
  5
4EA3
 10
1428.21
 20
483.627
 30
3.25099e-013
  70
    32
  0
VERTEX
  8
0
  5
4EA4
 10
1428.21
 20
483.627
 30
3.25099e-013
  70
    32
  0
VERTEX
  8
0
  5
4EA5
 10
1428.21
 20
483.627
 30
3.25100e-013
  70
    32
  0
VERTEX
  8
0
  5
4EA6
 10
1428.22
 20
483.627
 30
3.25100e-013
  70
    32
  0
VERTEX
  8
0
  5
4EA7
 10
1428.22
 20
483.627
 30
3.25100e-013
  70
    32
  0
VERTEX
  8
0
  5
4EA8
 10
1428.22
 20
483.627
 30
3.25100e-013
  70
    32
  0
VERTEX
  8
0
  5
4EA9
 10
1428.22
 20
483.627
 30
3.25100e-013
  70
    32
  0
VERTEX
  8
0
  5
4EAA
 10
1428.23
 20
483.628
 30
3.25100e-013
  70
    32
  0
VERTEX
  8
0
  5
4EAB
 10
1428.23
 20
483.628
 30
3.25100e-013
  70
    32
  0
VERTEX
  8
0
  5
4EAC
 10
1428.23
 20
483.628
 30
3.25100e-013
  70
    32
  0
VERTEX
  8
0
  5
4EAD
 10
1428.24
 20
483.628
 30
3.25100e-013
  70
    32
  0
VERTEX
  8
0
  5
4EAE
 10
1428.24
 20
483.628
 30
3.25100e-013
  70
    32
  0
VERTEX
  8
0
  5
4EAF
 10
1428.24
 20
483.628
 30
3.25100e-013
  70
    32
  0
VERTEX
  8
0
  5
4EB0
 10
1428.25
 20
483.628
 30
3.25100e-013
  70
    32
  0
VERTEX
  8
0
  5
4EB1
 10
1428.25
 20
483.628
 30
3.25100e-013
  70
    32
  0
VERTEX
  8
0
  5
4EB2
 10
1428.25
 20
483.628
 30
3.25100e-013
  70
    32
  0
VERTEX
  8
0
  5
4EB3
 10
1428.26
 20
483.628
 30
3.25100e-013
  70
    32
  0
VERTEX
  8
0
  5
4EB4
 10
1428.26
 20
483.628
 30
3.25100e-013
  70
    32
  0
VERTEX
  8
0
  5
4EB5
 10
1428.26
 20
483.628
 30
3.25100e-013
  70
    32
  0
VERTEX
  8
0
  5
4EB6
 10
1428.27
 20
483.628
 30
3.25100e-013
  70
    32
  0
VERTEX
  8
0
  5
4EB7
 10
1428.27
 20
483.628
 30
3.25100e-013
  70
    32
  0
VERTEX
  8
0
  5
4EB8
 10
1428.27
 20
483.628
 30
3.25100e-013
  70
    32
  0
VERTEX
  8
0
  5
4EB9
 10
1428.28
 20
483.628
 30
3.25100e-013
  70
    32
  0
VERTEX
  8
0
  5
4EBA
 10
1428.28
 20
483.628
 30
3.25100e-013
  70
    32
  0
VERTEX
  8
0
  5
4EBB
 10
1428.28
 20
483.628
 30
3.25100e-013
  70
    32
  0
VERTEX
  8
0
  5
4EBC
 10
1428.28
 20
483.628
 30
3.25100e-013
  70
    32
  0
VERTEX
  8
0
  5
4EBD
 10
1428.29
 20
483.628
 30
3.25100e-013
  70
    32
  0
VERTEX
  8
0
  5
4EBE
 10
1428.29
 20
483.628
 30
3.25100e-013
  70
    32
  0
VERTEX
  8
0
  5
4EBF
 10
1428.29
 20
483.628
 30
3.25100e-013
  70
    32
  0
VERTEX
  8
0
  5
4EC0
 10
1428.30
 20
483.628
 30
3.25100e-013
  70
    32
  0
VERTEX
  8
0
  5
4EC1
 10
1428.30
 20
483.628
 30
3.25100e-013
  70
    32
  0
VERTEX
  8
0
  5
4EC2
 10
1428.30
 20
483.628
 30
3.25100e-013
  70
    32
  0
SEQEND
  8
0
  5
4EC3
  0
ARC
  5
45A8
  8
0
  6
VERDECKT
 62
     1
 10
-1428.30385046176
 20
480.62848099074182
 30
0.0000000000000125
 40
2.9999999999997722
210
0.0000000000000002
220
0.0
230
-1.0
 50
359.99999999999778
 51
73.969896185159087
  0
LINE
  5
45A9
  8
0
  6
VERDECKT
 62
     1
 10
1530.30385046176
 20
483.62848099074262
 30
0.0000000000003411
 11
1530.30177818314
 21
483.62848099074262
 31
0.0000000000003411
  0
LINE
  5
45AA
  8
0
  6
VERDECKT
 62
     1
 10
1530.30177818314
 20
233.62848099074219
 30
0.0000000000003411
 11
1530.30385046176
 21
233.62848099074219
 31
0.0000000000003411
  0
LINE
  5
45AB
  8
0
  6
VERDECKT
 62
     1
 10
1530.30385046176
 20
555.12848099074188
 30
0.0000000000003411
 11
1528.30385046176
 21
553.12848099074165
 31
0.0000000000003406
  0
LINE
  5
45AC
  8
0
  6
VERDECKT
 62
     1
 10
1530.30385046176
 20
562.12848099074176
 30
0.0000000000003411
 11
1528.30385046176
 21
564.12848099074199
 31
0.0000000000003406
  0
LINE
  5
45AD
  8
0
  6
VERDECKT
 62
     1
 10
1530.30385046176
 20
155.12848099074179
 30
0.0000000000003411
 11
1528.30385046176
 21
153.12848099074159
 31
0.0000000000003406
  0
LINE
  5
45AE
  8
0
  6
VERDECKT
 62
     1
 10
1530.30385046176
 20
162.12848099074191
 30
0.0000000000003411
 11
1528.30385046176
 21
164.1284809907421
 31
0.0000000000003406
  0
POLYLINE
  8
0
  5
4EC4
  62
1
  66
     1
 10
0.000000
 20
0.000000
 30
0.000000
  70
     8
  0
VERTEX
  8
0
  5
4EC5
 10
1528.30
 20
372.167
 30
3.47900e-013
  70
    32
  0
VERTEX
  8
0
  5
4EC6
 10
1528.30
 20
372.170
 30
3.47900e-013
  70
    32
  0
VERTEX
  8
0
  5
4EC7
 10
1528.30
 20
372.172
 30
3.47900e-013
  70
    32
  0
VERTEX
  8
0
  5
4EC8
 10
1528.30
 20
372.175
 30
3.47900e-013
  70
    32
  0
VERTEX
  8
0
  5
4EC9
 10
1528.30
 20
372.177
 30
3.47900e-013
  70
    32
  0
VERTEX
  8
0
  5
4ECA
 10
1528.30
 20
372.180
 30
3.47900e-013
  70
    32
  0
VERTEX
  8
0
  5
4ECB
 10
1528.30
 20
372.182
 30
3.47900e-013
  70
    32
  0
VERTEX
  8
0
  5
4ECC
 10
1528.30
 20
372.185
 30
3.47900e-013
  70
    32
  0
VERTEX
  8
0
  5
4ECD
 10
1528.30
 20
372.187
 30
3.47900e-013
  70
    32
  0
VERTEX
  8
0
  5
4ECE
 10
1528.30
 20
372.190
 30
3.47900e-013
  70
    32
  0
VERTEX
  8
0
  5
4ECF
 10
1528.30
 20
372.192
 30
3.47900e-013
  70
    32
  0
VERTEX
  8
0
  5
4ED0
 10
1528.30
 20
372.195
 30
3.47900e-013
  70
    32
  0
VERTEX
  8
0
  5
4ED1
 10
1528.30
 20
372.197
 30
3.47900e-013
  70
    32
  0
VERTEX
  8
0
  5
4ED2
 10
1528.30
 20
372.200
 30
3.47900e-013
  70
    32
  0
VERTEX
  8
0
  5
4ED3
 10
1528.30
 20
372.202
 30
3.47900e-013
  70
    32
  0
VERTEX
  8
0
  5
4ED4
 10
1528.30
 20
372.205
 30
3.47900e-013
  70
    32
  0
VERTEX
  8
0
  5
4ED5
 10
1528.30
 20
372.207
 30
3.47900e-013
  70
    32
  0
VERTEX
  8
0
  5
4ED6
 10
1528.30
 20
372.210
 30
3.47900e-013
  70
    32
  0
VERTEX
  8
0
  5
4ED7
 10
1528.30
 20
372.212
 30
3.47900e-013
  70
    32
  0
VERTEX
  8
0
  5
4ED8
 10
1528.30
 20
372.215
 30
3.47900e-013
  70
    32
  0
VERTEX
  8
0
  5
4ED9
 10
1528.30
 20
372.218
 30
3.47900e-013
  70
    32
  0
VERTEX
  8
0
  5
4EDA
 10
1528.30
 20
372.220
 30
3.47900e-013
  70
    32
  0
VERTEX
  8
0
  5
4EDB
 10
1528.30
 20
372.223
 30
3.47900e-013
  70
    32
  0
VERTEX
  8
0
  5
4EDC
 10
1528.30
 20
372.225
 30
3.47900e-013
  70
    32
  0
VERTEX
  8
0
  5
4EDD
 10
1528.30
 20
372.228
 30
3.47900e-013
  70
    32
  0
VERTEX
  8
0
  5
4EDE
 10
1528.30
 20
372.230
 30
3.47900e-013
  70
    32
  0
VERTEX
  8
0
  5
4EDF
 10
1528.30
 20
372.233
 30
3.47900e-013
  70
    32
  0
VERTEX
  8
0
  5
4EE0
 10
1528.30
 20
372.235
 30
3.47900e-013
  70
    32
  0
VERTEX
  8
0
  5
4EE1
 10
1528.30
 20
372.238
 30
3.47900e-013
  70
    32
  0
VERTEX
  8
0
  5
4EE2
 10
1528.30
 20
372.240
 30
3.47900e-013
  70
    32
  0
VERTEX
  8
0
  5
4EE3
 10
1528.30
 20
372.243
 30
3.47900e-013
  70
    32
  0
VERTEX
  8
0
  5
4EE4
 10
1528.30
 20
372.245
 30
3.47900e-013
  70
    32
  0
VERTEX
  8
0
  5
4EE5
 10
1528.30
 20
372.248
 30
3.47900e-013
  70
    32
  0
VERTEX
  8
0
  5
4EE6
 10
1528.30
 20
372.250
 30
3.47900e-013
  70
    32
  0
VERTEX
  8
0
  5
4EE7
 10
1528.30
 20
372.253
 30
3.47900e-013
  70
    32
  0
VERTEX
  8
0
  5
4EE8
 10
1528.30
 20
372.255
 30
3.47900e-013
  70
    32
  0
VERTEX
  8
0
  5
4EE9
 10
1528.30
 20
372.258
 30
3.47900e-013
  70
    32
  0
VERTEX
  8
0
  5
4EEA
 10
1528.30
 20
372.260
 30
3.47900e-013
  70
    32
  0
VERTEX
  8
0
  5
4EEB
 10
1528.30
 20
372.263
 30
3.47900e-013
  70
    32
  0
VERTEX
  8
0
  5
4EEC
 10
1528.30
 20
372.265
 30
3.47900e-013
  70
    32
  0
VERTEX
  8
0
  5
4EED
 10
1528.30
 20
372.268
 30
3.47900e-013
  70
    32
  0
VERTEX
  8
0
  5
4EEE
 10
1528.30
 20
372.270
 30
3.47900e-013
  70
    32
  0
VERTEX
  8
0
  5
4EEF
 10
1528.30
 20
372.273
 30
3.47900e-013
  70
    32
  0
VERTEX
  8
0
  5
4EF0
 10
1528.30
 20
372.275
 30
3.47900e-013
  70
    32
  0
VERTEX
  8
0
  5
4EF1
 10
1528.30
 20
372.278
 30
3.47900e-013
  70
    32
  0
VERTEX
  8
0
  5
4EF2
 10
1528.30
 20
372.280
 30
3.47900e-013
  70
    32
  0
VERTEX
  8
0
  5
4EF3
 10
1528.30
 20
372.283
 30
3.47900e-013
  70
    32
  0
VERTEX
  8
0
  5
4EF4
 10
1528.30
 20
372.285
 30
3.47900e-013
  70
    32
  0
VERTEX
  8
0
  5
4EF5
 10
1528.30
 20
372.288
 30
3.47900e-013
  70
    32
  0
VERTEX
  8
0
  5
4EF6
 10
1528.30
 20
372.290
 30
3.47900e-013
  70
    32
  0
VERTEX
  8
0
  5
4EF7
 10
1528.30
 20
372.293
 30
3.47900e-013
  70
    32
  0
VERTEX
  8
0
  5
4EF8
 10
1528.30
 20
372.295
 30
3.47900e-013
  70
    32
  0
VERTEX
  8
0
  5
4EF9
 10
1528.30
 20
372.298
 30
3.47900e-013
  70
    32
  0
VERTEX
  8
0
  5
4EFA
 10
1528.30
 20
372.300
 30
3.47900e-013
  70
    32
  0
VERTEX
  8
0
  5
4EFB
 10
1528.30
 20
372.303
 30
3.47900e-013
  70
    32
  0
VERTEX
  8
0
  5
4EFC
 10
1528.30
 20
372.305
 30
3.47900e-013
  70
    32
  0
VERTEX
  8
0
  5
4EFD
 10
1528.30
 20
372.308
 30
3.47900e-013
  70
    32
  0
VERTEX
  8
0
  5
4EFE
 10
1528.30
 20
372.310
 30
3.47900e-013
  70
    32
  0
VERTEX
  8
0
  5
4EFF
 10
1528.30
 20
372.313
 30
3.47900e-013
  70
    32
  0
VERTEX
  8
0
  5
4F00
 10
1528.30
 20
372.315
 30
3.47900e-013
  70
    32
  0
VERTEX
  8
0
  5
4F01
 10
1528.30
 20
372.318
 30
3.47900e-013
  70
    32
  0
VERTEX
  8
0
  5
4F02
 10
1528.30
 20
372.320
 30
3.47900e-013
  70
    32
  0
VERTEX
  8
0
  5
4F03
 10
1528.30
 20
372.323
 30
3.47900e-013
  70
    32
  0
VERTEX
  8
0
  5
4F04
 10
1528.30
 20
372.325
 30
3.47900e-013
  70
    32
  0
VERTEX
  8
0
  5
4F05
 10
1528.30
 20
372.328
 30
3.47900e-013
  70
    32
  0
VERTEX
  8
0
  5
4F06
 10
1528.30
 20
372.330
 30
3.47900e-013
  70
    32
  0
VERTEX
  8
0
  5
4F07
 10
1528.30
 20
372.333
 30
3.47900e-013
  70
    32
  0
VERTEX
  8
0
  5
4F08
 10
1528.30
 20
372.335
 30
3.47900e-013
  70
    32
  0
VERTEX
  8
0
  5
4F09
 10
1528.30
 20
372.338
 30
3.47900e-013
  70
    32
  0
VERTEX
  8
0
  5
4F0A
 10
1528.30
 20
372.340
 30
3.47900e-013
  70
    32
  0
VERTEX
  8
0
  5
4F0B
 10
1528.30
 20
372.343
 30
3.47900e-013
  70
    32
  0
VERTEX
  8
0
  5
4F0C
 10
1528.30
 20
372.345
 30
3.47900e-013
  70
    32
  0
VERTEX
  8
0
  5
4F0D
 10
1528.30
 20
372.348
 30
3.47900e-013
  70
    32
  0
VERTEX
  8
0
  5
4F0E
 10
1528.30
 20
372.350
 30
3.47900e-013
  70
    32
  0
VERTEX
  8
0
  5
4F0F
 10
1528.30
 20
372.353
 30
3.47900e-013
  70
    32
  0
VERTEX
  8
0
  5
4F10
 10
1528.30
 20
372.355
 30
3.47900e-013
  70
    32
  0
VERTEX
  8
0
  5
4F11
 10
1528.30
 20
372.358
 30
3.47900e-013
  70
    32
  0
VERTEX
  8
0
  5
4F12
 10
1528.30
 20
372.360
 30
3.47900e-013
  70
    32
  0
VERTEX
  8
0
  5
4F13
 10
1528.30
 20
372.363
 30
3.47900e-013
  70
    32
  0
VERTEX
  8
0
  5
4F14
 10
1528.30
 20
372.365
 30
3.47900e-013
  70
    32
  0
VERTEX
  8
0
  5
4F15
 10
1528.30
 20
372.368
 30
3.47900e-013
  70
    32
  0
VERTEX
  8
0
  5
4F16
 10
1528.30
 20
372.370
 30
3.47900e-013
  70
    32
  0
VERTEX
  8
0
  5
4F17
 10
1528.30
 20
372.373
 30
3.47900e-013
  70
    32
  0
VERTEX
  8
0
  5
4F18
 10
1528.30
 20
372.375
 30
3.47900e-013
  70
    32
  0
VERTEX
  8
0
  5
4F19
 10
1528.30
 20
372.378
 30
3.47900e-013
  70
    32
  0
VERTEX
  8
0
  5
4F1A
 10
1528.30
 20
372.380
 30
3.47900e-013
  70
    32
  0
VERTEX
  8
0
  5
4F1B
 10
1528.30
 20
372.383
 30
3.47900e-013
  70
    32
  0
VERTEX
  8
0
  5
4F1C
 10
1528.30
 20
372.385
 30
3.47900e-013
  70
    32
  0
VERTEX
  8
0
  5
4F1D
 10
1528.30
 20
372.388
 30
3.47900e-013
  70
    32
  0
VERTEX
  8
0
  5
4F1E
 10
1528.30
 20
372.390
 30
3.47900e-013
  70
    32
  0
VERTEX
  8
0
  5
4F1F
 10
1528.30
 20
372.393
 30
3.47900e-013
  70
    32
  0
VERTEX
  8
0
  5
4F20
 10
1528.30
 20
372.395
 30
3.47900e-013
  70
    32
  0
VERTEX
  8
0
  5
4F21
 10
1528.30
 20
372.398
 30
3.47900e-013
  70
    32
  0
VERTEX
  8
0
  5
4F22
 10
1528.30
 20
372.400
 30
3.47900e-013
  70
    32
  0
VERTEX
  8
0
  5
4F23
 10
1528.30
 20
372.403
 30
3.47900e-013
  70
    32
  0
VERTEX
  8
0
  5
4F24
 10
1528.30
 20
372.405
 30
3.47900e-013
  70
    32
  0
VERTEX
  8
0
  5
4F25
 10
1528.30
 20
372.408
 30
3.47900e-013
  70
    32
  0
VERTEX
  8
0
  5
4F26
 10
1528.30
 20
372.410
 30
3.47900e-013
  70
    32
  0
VERTEX
  8
0
  5
4F27
 10
1528.30
 20
372.413
 30
3.47900e-013
  70
    32
  0
VERTEX
  8
0
  5
4F28
 10
1528.30
 20
372.415
 30
3.47900e-013
  70
    32
  0
VERTEX
  8
0
  5
4F29
 10
1528.30
 20
372.418
 30
3.47900e-013
  70
    32
  0
VERTEX
  8
0
  5
4F2A
 10
1528.30
 20
372.420
 30
3.47900e-013
  70
    32
  0
VERTEX
  8
0
  5
4F2B
 10
1528.30
 20
372.423
 30
3.47900e-013
  70
    32
  0
VERTEX
  8
0
  5
4F2C
 10
1528.30
 20
372.425
 30
3.47900e-013
  70
    32
  0
VERTEX
  8
0
  5
4F2D
 10
1528.30
 20
372.428
 30
3.47900e-013
  70
    32
  0
VERTEX
  8
0
  5
4F2E
 10
1528.30
 20
372.430
 30
3.47900e-013
  70
    32
  0
VERTEX
  8
0
  5
4F2F
 10
1528.30
 20
372.433
 30
3.47900e-013
  70
    32
  0
VERTEX
  8
0
  5
4F30
 10
1528.30
 20
372.435
 30
3.47900e-013
  70
    32
  0
VERTEX
  8
0
  5
4F31
 10
1528.30
 20
372.438
 30
3.47900e-013
  70
    32
  0
VERTEX
  8
0
  5
4F32
 10
1528.30
 20
372.440
 30
3.47900e-013
  70
    32
  0
VERTEX
  8
0
  5
4F33
 10
1528.30
 20
372.443
 30
3.47900e-013
  70
    32
  0
VERTEX
  8
0
  5
4F34
 10
1528.30
 20
372.445
 30
3.47900e-013
  70
    32
  0
VERTEX
  8
0
  5
4F35
 10
1528.30
 20
372.448
 30
3.47900e-013
  70
    32
  0
VERTEX
  8
0
  5
4F36
 10
1528.30
 20
372.450
 30
3.47900e-013
  70
    32
  0
VERTEX
  8
0
  5
4F37
 10
1528.30
 20
372.453
 30
3.47900e-013
  70
    32
  0
VERTEX
  8
0
  5
4F38
 10
1528.30
 20
372.455
 30
3.47900e-013
  70
    32
  0
VERTEX
  8
0
  5
4F39
 10
1528.30
 20
372.458
 30
3.47900e-013
  70
    32
  0
VERTEX
  8
0
  5
4F3A
 10
1528.30
 20
372.460
 30
3.47900e-013
  70
    32
  0
VERTEX
  8
0
  5
4F3B
 10
1528.30
 20
372.462
 30
3.47900e-013
  70
    32
  0
VERTEX
  8
0
  5
4F3C
 10
1528.30
 20
372.465
 30
3.47900e-013
  70
    32
  0
VERTEX
  8
0
  5
4F3D
 10
1528.30
 20
372.467
 30
3.47900e-013
  70
    32
  0
VERTEX
  8
0
  5
4F3E
 10
1528.30
 20
372.470
 30
3.47900e-013
  70
    32
  0
VERTEX
  8
0
  5
4F3F
 10
1528.30
 20
372.472
 30
3.47900e-013
  70
    32
  0
VERTEX
  8
0
  5
4F40
 10
1528.30
 20
372.475
 30
3.47900e-013
  70
    32
  0
VERTEX
  8
0
  5
4F41
 10
1528.30
 20
372.477
 30
3.47900e-013
  70
    32
  0
VERTEX
  8
0
  5
4F42
 10
1528.30
 20
372.480
 30
3.47900e-013
  70
    32
  0
VERTEX
  8
0
  5
4F43
 10
1528.30
 20
372.482
 30
3.47900e-013
  70
    32
  0
VERTEX
  8
0
  5
4F44
 10
1528.30
 20
372.485
 30
3.47900e-013
  70
    32
  0
SEQEND
  8
0
  5
4F45
  0
POLYLINE
  8
0
  5
4F46
  62
1
  66
     1
 10
0.000000
 20
0.000000
 30
0.000000
  70
     8
  0
VERTEX
  8
0
  5
4F47
 10
1528.30
 20
344.772
 30
3.47900e-013
  70
    32
  0
VERTEX
  8
0
  5
4F48
 10
1528.30
 20
344.775
 30
3.47900e-013
  70
    32
  0
VERTEX
  8
0
  5
4F49
 10
1528.30
 20
344.777
 30
3.47900e-013
  70
    32
  0
VERTEX
  8
0
  5
4F4A
 10
1528.30
 20
344.780
 30
3.47900e-013
  70
    32
  0
VERTEX
  8
0
  5
4F4B
 10
1528.30
 20
344.782
 30
3.47900e-013
  70
    32
  0
VERTEX
  8
0
  5
4F4C
 10
1528.30
 20
344.785
 30
3.47900e-013
  70
    32
  0
VERTEX
  8
0
  5
4F4D
 10
1528.30
 20
344.787
 30
3.47900e-013
  70
    32
  0
VERTEX
  8
0
  5
4F4E
 10
1528.30
 20
344.789
 30
3.47900e-013
  70
    32
  0
VERTEX
  8
0
  5
4F4F
 10
1528.30
 20
344.792
 30
3.47900e-013
  70
    32
  0
VERTEX
  8
0
  5
4F50
 10
1528.30
 20
344.794
 30
3.47900e-013
  70
    32
  0
VERTEX
  8
0
  5
4F51
 10
1528.30
 20
344.797
 30
3.47900e-013
  70
    32
  0
VERTEX
  8
0
  5
4F52
 10
1528.30
 20
344.799
 30
3.47900e-013
  70
    32
  0
VERTEX
  8
0
  5
4F53
 10
1528.30
 20
344.802
 30
3.47900e-013
  70
    32
  0
VERTEX
  8
0
  5
4F54
 10
1528.30
 20
344.804
 30
3.47900e-013
  70
    32
  0
VERTEX
  8
0
  5
4F55
 10
1528.30
 20
344.807
 30
3.47900e-013
  70
    32
  0
VERTEX
  8
0
  5
4F56
 10
1528.30
 20
344.809
 30
3.47900e-013
  70
    32
  0
VERTEX
  8
0
  5
4F57
 10
1528.30
 20
344.812
 30
3.47900e-013
  70
    32
  0
VERTEX
  8
0
  5
4F58
 10
1528.30
 20
344.814
 30
3.47900e-013
  70
    32
  0
VERTEX
  8
0
  5
4F59
 10
1528.30
 20
344.817
 30
3.47900e-013
  70
    32
  0
VERTEX
  8
0
  5
4F5A
 10
1528.30
 20
344.819
 30
3.47900e-013
  70
    32
  0
VERTEX
  8
0
  5
4F5B
 10
1528.30
 20
344.822
 30
3.47900e-013
  70
    32
  0
VERTEX
  8
0
  5
4F5C
 10
1528.30
 20
344.824
 30
3.47900e-013
  70
    32
  0
VERTEX
  8
0
  5
4F5D
 10
1528.30
 20
344.827
 30
3.47900e-013
  70
    32
  0
VERTEX
  8
0
  5
4F5E
 10
1528.30
 20
344.829
 30
3.47900e-013
  70
    32
  0
VERTEX
  8
0
  5
4F5F
 10
1528.30
 20
344.832
 30
3.47900e-013
  70
    32
  0
VERTEX
  8
0
  5
4F60
 10
1528.30
 20
344.834
 30
3.47900e-013
  70
    32
  0
VERTEX
  8
0
  5
4F61
 10
1528.30
 20
344.837
 30
3.47900e-013
  70
    32
  0
VERTEX
  8
0
  5
4F62
 10
1528.30
 20
344.839
 30
3.47900e-013
  70
    32
  0
VERTEX
  8
0
  5
4F63
 10
1528.30
 20
344.842
 30
3.47900e-013
  70
    32
  0
VERTEX
  8
0
  5
4F64
 10
1528.30
 20
344.844
 30
3.47900e-013
  70
    32
  0
VERTEX
  8
0
  5
4F65
 10
1528.30
 20
344.847
 30
3.47900e-013
  70
    32
  0
VERTEX
  8
0
  5
4F66
 10
1528.30
 20
344.849
 30
3.47900e-013
  70
    32
  0
VERTEX
  8
0
  5
4F67
 10
1528.30
 20
344.852
 30
3.47900e-013
  70
    32
  0
VERTEX
  8
0
  5
4F68
 10
1528.30
 20
344.854
 30
3.47900e-013
  70
    32
  0
VERTEX
  8
0
  5
4F69
 10
1528.30
 20
344.857
 30
3.47900e-013
  70
    32
  0
VERTEX
  8
0
  5
4F6A
 10
1528.30
 20
344.859
 30
3.47900e-013
  70
    32
  0
VERTEX
  8
0
  5
4F6B
 10
1528.30
 20
344.862
 30
3.47900e-013
  70
    32
  0
VERTEX
  8
0
  5
4F6C
 10
1528.30
 20
344.864
 30
3.47900e-013
  70
    32
  0
VERTEX
  8
0
  5
4F6D
 10
1528.30
 20
344.867
 30
3.47900e-013
  70
    32
  0
VERTEX
  8
0
  5
4F6E
 10
1528.30
 20
344.869
 30
3.47900e-013
  70
    32
  0
VERTEX
  8
0
  5
4F6F
 10
1528.30
 20
344.872
 30
3.47900e-013
  70
    32
  0
VERTEX
  8
0
  5
4F70
 10
1528.30
 20
344.874
 30
3.47900e-013
  70
    32
  0
VERTEX
  8
0
  5
4F71
 10
1528.30
 20
344.877
 30
3.47900e-013
  70
    32
  0
VERTEX
  8
0
  5
4F72
 10
1528.30
 20
344.879
 30
3.47900e-013
  70
    32
  0
VERTEX
  8
0
  5
4F73
 10
1528.30
 20
344.882
 30
3.47900e-013
  70
    32
  0
VERTEX
  8
0
  5
4F74
 10
1528.30
 20
344.884
 30
3.47900e-013
  70
    32
  0
VERTEX
  8
0
  5
4F75
 10
1528.30
 20
344.887
 30
3.47900e-013
  70
    32
  0
VERTEX
  8
0
  5
4F76
 10
1528.30
 20
344.889
 30
3.47900e-013
  70
    32
  0
VERTEX
  8
0
  5
4F77
 10
1528.30
 20
344.892
 30
3.47900e-013
  70
    32
  0
VERTEX
  8
0
  5
4F78
 10
1528.30
 20
344.894
 30
3.47900e-013
  70
    32
  0
VERTEX
  8
0
  5
4F79
 10
1528.30
 20
344.897
 30
3.47900e-013
  70
    32
  0
VERTEX
  8
0
  5
4F7A
 10
1528.30
 20
344.899
 30
3.47900e-013
  70
    32
  0
VERTEX
  8
0
  5
4F7B
 10
1528.30
 20
344.902
 30
3.47900e-013
  70
    32
  0
VERTEX
  8
0
  5
4F7C
 10
1528.30
 20
344.904
 30
3.47900e-013
  70
    32
  0
VERTEX
  8
0
  5
4F7D
 10
1528.30
 20
344.907
 30
3.47900e-013
  70
    32
  0
VERTEX
  8
0
  5
4F7E
 10
1528.30
 20
344.909
 30
3.47900e-013
  70
    32
  0
VERTEX
  8
0
  5
4F7F
 10
1528.30
 20
344.912
 30
3.47900e-013
  70
    32
  0
VERTEX
  8
0
  5
4F80
 10
1528.30
 20
344.914
 30
3.47900e-013
  70
    32
  0
VERTEX
  8
0
  5
4F81
 10
1528.30
 20
344.917
 30
3.47900e-013
  70
    32
  0
VERTEX
  8
0
  5
4F82
 10
1528.30
 20
344.919
 30
3.47900e-013
  70
    32
  0
VERTEX
  8
0
  5
4F83
 10
1528.30
 20
344.922
 30
3.47900e-013
  70
    32
  0
VERTEX
  8
0
  5
4F84
 10
1528.30
 20
344.924
 30
3.47900e-013
  70
    32
  0
VERTEX
  8
0
  5
4F85
 10
1528.30
 20
344.927
 30
3.47900e-013
  70
    32
  0
VERTEX
  8
0
  5
4F86
 10
1528.30
 20
344.929
 30
3.47900e-013
  70
    32
  0
VERTEX
  8
0
  5
4F87
 10
1528.30
 20
344.932
 30
3.47900e-013
  70
    32
  0
VERTEX
  8
0
  5
4F88
 10
1528.30
 20
344.934
 30
3.47900e-013
  70
    32
  0
VERTEX
  8
0
  5
4F89
 10
1528.30
 20
344.937
 30
3.47900e-013
  70
    32
  0
VERTEX
  8
0
  5
4F8A
 10
1528.30
 20
344.939
 30
3.47900e-013
  70
    32
  0
VERTEX
  8
0
  5
4F8B
 10
1528.30
 20
344.942
 30
3.47900e-013
  70
    32
  0
VERTEX
  8
0
  5
4F8C
 10
1528.30
 20
344.944
 30
3.47900e-013
  70
    32
  0
VERTEX
  8
0
  5
4F8D
 10
1528.30
 20
344.947
 30
3.47900e-013
  70
    32
  0
VERTEX
  8
0
  5
4F8E
 10
1528.30
 20
344.949
 30
3.47900e-013
  70
    32
  0
VERTEX
  8
0
  5
4F8F
 10
1528.30
 20
344.952
 30
3.47900e-013
  70
    32
  0
VERTEX
  8
0
  5
4F90
 10
1528.30
 20
344.954
 30
3.47900e-013
  70
    32
  0
VERTEX
  8
0
  5
4F91
 10
1528.30
 20
344.957
 30
3.47900e-013
  70
    32
  0
VERTEX
  8
0
  5
4F92
 10
1528.30
 20
344.959
 30
3.47900e-013
  70
    32
  0
VERTEX
  8
0
  5
4F93
 10
1528.30
 20
344.962
 30
3.47900e-013
  70
    32
  0
VERTEX
  8
0
  5
4F94
 10
1528.30
 20
344.964
 30
3.47900e-013
  70
    32
  0
VERTEX
  8
0
  5
4F95
 10
1528.30
 20
344.967
 30
3.47900e-013
  70
    32
  0
VERTEX
  8
0
  5
4F96
 10
1528.30
 20
344.969
 30
3.47900e-013
  70
    32
  0
VERTEX
  8
0
  5
4F97
 10
1528.30
 20
344.972
 30
3.47900e-013
  70
    32
  0
VERTEX
  8
0
  5
4F98
 10
1528.30
 20
344.974
 30
3.47900e-013
  70
    32
  0
VERTEX
  8
0
  5
4F99
 10
1528.30
 20
344.977
 30
3.47900e-013
  70
    32
  0
VERTEX
  8
0
  5
4F9A
 10
1528.30
 20
344.979
 30
3.47900e-013
  70
    32
  0
VERTEX
  8
0
  5
4F9B
 10
1528.30
 20
344.982
 30
3.47900e-013
  70
    32
  0
VERTEX
  8
0
  5
4F9C
 10
1528.30
 20
344.984
 30
3.47900e-013
  70
    32
  0
VERTEX
  8
0
  5
4F9D
 10
1528.30
 20
344.987
 30
3.47900e-013
  70
    32
  0
VERTEX
  8
0
  5
4F9E
 10
1528.30
 20
344.989
 30
3.47900e-013
  70
    32
  0
VERTEX
  8
0
  5
4F9F
 10
1528.30
 20
344.992
 30
3.47900e-013
  70
    32
  0
VERTEX
  8
0
  5
4FA0
 10
1528.30
 20
344.994
 30
3.47900e-013
  70
    32
  0
VERTEX
  8
0
  5
4FA1
 10
1528.30
 20
344.997
 30
3.47900e-013
  70
    32
  0
VERTEX
  8
0
  5
4FA2
 10
1528.30
 20
344.999
 30
3.47900e-013
  70
    32
  0
VERTEX
  8
0
  5
4FA3
 10
1528.30
 20
345.002
 30
3.47900e-013
  70
    32
  0
VERTEX
  8
0
  5
4FA4
 10
1528.30
 20
345.004
 30
3.47900e-013
  70
    32
  0
VERTEX
  8
0
  5
4FA5
 10
1528.30
 20
345.007
 30
3.47900e-013
  70
    32
  0
VERTEX
  8
0
  5
4FA6
 10
1528.30
 20
345.009
 30
3.47900e-013
  70
    32
  0
VERTEX
  8
0
  5
4FA7
 10
1528.30
 20
345.012
 30
3.47900e-013
  70
    32
  0
VERTEX
  8
0
  5
4FA8
 10
1528.30
 20
345.014
 30
3.47900e-013
  70
    32
  0
VERTEX
  8
0
  5
4FA9
 10
1528.30
 20
345.017
 30
3.47900e-013
  70
    32
  0
VERTEX
  8
0
  5
4FAA
 10
1528.30
 20
345.019
 30
3.47900e-013
  70
    32
  0
VERTEX
  8
0
  5
4FAB
 10
1528.30
 20
345.022
 30
3.47900e-013
  70
    32
  0
VERTEX
  8
0
  5
4FAC
 10
1528.30
 20
345.024
 30
3.47900e-013
  70
    32
  0
VERTEX
  8
0
  5
4FAD
 10
1528.30
 20
345.027
 30
3.47900e-013
  70
    32
  0
VERTEX
  8
0
  5
4FAE
 10
1528.30
 20
345.029
 30
3.47900e-013
  70
    32
  0
VERTEX
  8
0
  5
4FAF
 10
1528.30
 20
345.032
 30
3.47900e-013
  70
    32
  0
VERTEX
  8
0
  5
4FB0
 10
1528.30
 20
345.034
 30
3.47900e-013
  70
    32
  0
VERTEX
  8
0
  5
4FB1
 10
1528.30
 20
345.037
 30
3.47900e-013
  70
    32
  0
VERTEX
  8
0
  5
4FB2
 10
1528.30
 20
345.039
 30
3.47900e-013
  70
    32
  0
VERTEX
  8
0
  5
4FB3
 10
1528.30
 20
345.042
 30
3.47900e-013
  70
    32
  0
VERTEX
  8
0
  5
4FB4
 10
1528.30
 20
345.044
 30
3.47900e-013
  70
    32
  0
VERTEX
  8
0
  5
4FB5
 10
1528.30
 20
345.047
 30
3.47900e-013
  70
    32
  0
VERTEX
  8
0
  5
4FB6
 10
1528.30
 20
345.049
 30
3.47900e-013
  70
    32
  0
VERTEX
  8
0
  5
4FB7
 10
1528.30
 20
345.052
 30
3.47900e-013
  70
    32
  0
VERTEX
  8
0
  5
4FB8
 10
1528.30
 20
345.055
 30
3.47900e-013
  70
    32
  0
VERTEX
  8
0
  5
4FB9
 10
1528.30
 20
345.057
 30
3.47900e-013
  70
    32
  0
VERTEX
  8
0
  5
4FBA
 10
1528.30
 20
345.060
 30
3.47900e-013
  70
    32
  0
VERTEX
  8
0
  5
4FBB
 10
1528.30
 20
345.062
 30
3.47900e-013
  70
    32
  0
VERTEX
  8
0
  5
4FBC
 10
1528.30
 20
345.065
 30
3.47900e-013
  70
    32
  0
VERTEX
  8
0
  5
4FBD
 10
1528.30
 20
345.067
 30
3.47900e-013
  70
    32
  0
VERTEX
  8
0
  5
4FBE
 10
1528.30
 20
345.070
 30
3.47900e-013
  70
    32
  0
VERTEX
  8
0
  5
4FBF
 10
1528.30
 20
345.072
 30
3.47900e-013
  70
    32
  0
VERTEX
  8
0
  5
4FC0
 10
1528.30
 20
345.075
 30
3.47900e-013
  70
    32
  0
VERTEX
  8
0
  5
4FC1
 10
1528.30
 20
345.077
 30
3.47900e-013
  70
    32
  0
VERTEX
  8
0
  5
4FC2
 10
1528.30
 20
345.080
 30
3.47900e-013
  70
    32
  0
VERTEX
  8
0
  5
4FC3
 10
1528.30
 20
345.082
 30
3.47900e-013
  70
    32
  0
VERTEX
  8
0
  5
4FC4
 10
1528.30
 20
345.085
 30
3.47900e-013
  70
    32
  0
VERTEX
  8
0
  5
4FC5
 10
1528.30
 20
345.087
 30
3.47900e-013
  70
    32
  0
VERTEX
  8
0
  5
4FC6
 10
1528.30
 20
345.090
 30
3.47900e-013
  70
    32
  0
SEQEND
  8
0
  5
4FC7
  0
POLYLINE
  8
0
  5
4FC8
  62
1
  66
     1
 10
0.000000
 20
0.000000
 30
0.000000
  70
     8
  0
VERTEX
  8
0
  5
4FC9
 10
1530.30
 20
372.485
 30
3.48300e-013
  70
    32
  0
VERTEX
  8
0
  5
4FCA
 10
1530.30
 20
372.447
 30
3.48300e-013
  70
    32
  0
VERTEX
  8
0
  5
4FCB
 10
1530.30
 20
372.410
 30
3.48300e-013
  70
    32
  0
VERTEX
  8
0
  5
4FCC
 10
1530.30
 20
372.372
 30
3.48300e-013
  70
    32
  0
VERTEX
  8
0
  5
4FCD
 10
1530.30
 20
372.334
 30
3.48300e-013
  70
    32
  0
VERTEX
  8
0
  5
4FCE
 10
1530.30
 20
372.297
 30
3.48300e-013
  70
    32
  0
VERTEX
  8
0
  5
4FCF
 10
1530.30
 20
372.259
 30
3.48300e-013
  70
    32
  0
VERTEX
  8
0
  5
4FD0
 10
1530.30
 20
372.221
 30
3.48300e-013
  70
    32
  0
VERTEX
  8
0
  5
4FD1
 10
1530.30
 20
372.183
 30
3.48300e-013
  70
    32
  0
VERTEX
  8
0
  5
4FD2
 10
1530.30
 20
372.146
 30
3.48300e-013
  70
    32
  0
VERTEX
  8
0
  5
4FD3
 10
1530.30
 20
372.108
 30
3.48300e-013
  70
    32
  0
VERTEX
  8
0
  5
4FD4
 10
1530.30
 20
372.070
 30
3.48300e-013
  70
    32
  0
VERTEX
  8
0
  5
4FD5
 10
1530.30
 20
372.032
 30
3.48300e-013
  70
    32
  0
VERTEX
  8
0
  5
4FD6
 10
1530.30
 20
371.994
 30
3.48300e-013
  70
    32
  0
VERTEX
  8
0
  5
4FD7
 10
1530.30
 20
371.956
 30
3.48300e-013
  70
    32
  0
VERTEX
  8
0
  5
4FD8
 10
1530.30
 20
371.918
 30
3.48300e-013
  70
    32
  0
VERTEX
  8
0
  5
4FD9
 10
1530.30
 20
371.880
 30
3.48300e-013
  70
    32
  0
VERTEX
  8
0
  5
4FDA
 10
1530.30
 20
371.842
 30
3.48300e-013
  70
    32
  0
VERTEX
  8
0
  5
4FDB
 10
1530.30
 20
371.804
 30
3.48300e-013
  70
    32
  0
VERTEX
  8
0
  5
4FDC
 10
1530.30
 20
371.766
 30
3.48300e-013
  70
    32
  0
VERTEX
  8
0
  5
4FDD
 10
1530.30
 20
371.728
 30
3.48300e-013
  70
    32
  0
VERTEX
  8
0
  5
4FDE
 10
1530.30
 20
371.690
 30
3.48300e-013
  70
    32
  0
VERTEX
  8
0
  5
4FDF
 10
1530.29
 20
371.651
 30
3.48300e-013
  70
    32
  0
VERTEX
  8
0
  5
4FE0
 10
1530.29
 20
371.613
 30
3.48300e-013
  70
    32
  0
VERTEX
  8
0
  5
4FE1
 10
1530.29
 20
371.575
 30
3.48300e-013
  70
    32
  0
VERTEX
  8
0
  5
4FE2
 10
1530.29
 20
371.537
 30
3.48300e-013
  70
    32
  0
VERTEX
  8
0
  5
4FE3
 10
1530.29
 20
371.498
 30
3.48300e-013
  70
    32
  0
VERTEX
  8
0
  5
4FE4
 10
1530.29
 20
371.460
 30
3.48300e-013
  70
    32
  0
VERTEX
  8
0
  5
4FE5
 10
1530.29
 20
371.422
 30
3.48300e-013
  70
    32
  0
VERTEX
  8
0
  5
4FE6
 10
1530.29
 20
371.383
 30
3.48300e-013
  70
    32
  0
VERTEX
  8
0
  5
4FE7
 10
1530.29
 20
371.345
 30
3.48300e-013
  70
    32
  0
VERTEX
  8
0
  5
4FE8
 10
1530.29
 20
371.306
 30
3.48300e-013
  70
    32
  0
VERTEX
  8
0
  5
4FE9
 10
1530.29
 20
371.268
 30
3.48300e-013
  70
    32
  0
VERTEX
  8
0
  5
4FEA
 10
1530.29
 20
371.230
 30
3.48300e-013
  70
    32
  0
VERTEX
  8
0
  5
4FEB
 10
1530.29
 20
371.191
 30
3.48300e-013
  70
    32
  0
VERTEX
  8
0
  5
4FEC
 10
1530.28
 20
371.153
 30
3.48300e-013
  70
    32
  0
VERTEX
  8
0
  5
4FED
 10
1530.28
 20
371.114
 30
3.48300e-013
  70
    32
  0
VERTEX
  8
0
  5
4FEE
 10
1530.28
 20
371.075
 30
3.48300e-013
  70
    32
  0
VERTEX
  8
0
  5
4FEF
 10
1530.28
 20
371.037
 30
3.48300e-013
  70
    32
  0
VERTEX
  8
0
  5
4FF0
 10
1530.28
 20
370.998
 30
3.48300e-013
  70
    32
  0
VERTEX
  8
0
  5
4FF1
 10
1530.28
 20
370.960
 30
3.48300e-013
  70
    32
  0
VERTEX
  8
0
  5
4FF2
 10
1530.28
 20
370.921
 30
3.48300e-013
  70
    32
  0
VERTEX
  8
0
  5
4FF3
 10
1530.28
 20
370.882
 30
3.48300e-013
  70
    32
  0
VERTEX
  8
0
  5
4FF4
 10
1530.28
 20
370.843
 30
3.48300e-013
  70
    32
  0
VERTEX
  8
0
  5
4FF5
 10
1530.27
 20
370.805
 30
3.48300e-013
  70
    32
  0
VERTEX
  8
0
  5
4FF6
 10
1530.27
 20
370.766
 30
3.48300e-013
  70
    32
  0
VERTEX
  8
0
  5
4FF7
 10
1530.27
 20
370.727
 30
3.48300e-013
  70
    32
  0
VERTEX
  8
0
  5
4FF8
 10
1530.27
 20
370.688
 30
3.48300e-013
  70
    32
  0
VERTEX
  8
0
  5
4FF9
 10
1530.27
 20
370.649
 30
3.48300e-013
  70
    32
  0
VERTEX
  8
0
  5
4FFA
 10
1530.27
 20
370.611
 30
3.48300e-013
  70
    32
  0
VERTEX
  8
0
  5
4FFB
 10
1530.27
 20
370.572
 30
3.48300e-013
  70
    32
  0
VERTEX
  8
0
  5
4FFC
 10
1530.27
 20
370.533
 30
3.48300e-013
  70
    32
  0
VERTEX
  8
0
  5
4FFD
 10
1530.26
 20
370.494
 30
3.48300e-013
  70
    32
  0
VERTEX
  8
0
  5
4FFE
 10
1530.26
 20
370.455
 30
3.48300e-013
  70
    32
  0
VERTEX
  8
0
  5
4FFF
 10
1530.26
 20
370.416
 30
3.48300e-013
  70
    32
  0
VERTEX
  8
0
  5
5000
 10
1530.26
 20
370.377
 30
3.48300e-013
  70
    32
  0
VERTEX
  8
0
  5
5001
 10
1530.26
 20
370.338
 30
3.48300e-013
  70
    32
  0
VERTEX
  8
0
  5
5002
 10
1530.26
 20
370.299
 30
3.48300e-013
  70
    32
  0
VERTEX
  8
0
  5
5003
 10
1530.26
 20
370.260
 30
3.48300e-013
  70
    32
  0
VERTEX
  8
0
  5
5004
 10
1530.26
 20
370.221
 30
3.48300e-013
  70
    32
  0
VERTEX
  8
0
  5
5005
 10
1530.25
 20
370.182
 30
3.48300e-013
  70
    32
  0
VERTEX
  8
0
  5
5006
 10
1530.25
 20
370.143
 30
3.48300e-013
  70
    32
  0
VERTEX
  8
0
  5
5007
 10
1530.25
 20
370.103
 30
3.48300e-013
  70
    32
  0
VERTEX
  8
0
  5
5008
 10
1530.25
 20
370.064
 30
3.48300e-013
  70
    32
  0
VERTEX
  8
0
  5
5009
 10
1530.25
 20
370.025
 30
3.48300e-013
  70
    32
  0
VERTEX
  8
0
  5
500A
 10
1530.25
 20
369.986
 30
3.48300e-013
  70
    32
  0
VERTEX
  8
0
  5
500B
 10
1530.24
 20
369.947
 30
3.48300e-013
  70
    32
  0
VERTEX
  8
0
  5
500C
 10
1530.24
 20
369.907
 30
3.48300e-013
  70
    32
  0
VERTEX
  8
0
  5
500D
 10
1530.24
 20
369.868
 30
3.48300e-013
  70
    32
  0
VERTEX
  8
0
  5
500E
 10
1530.24
 20
369.829
 30
3.48300e-013
  70
    32
  0
VERTEX
  8
0
  5
500F
 10
1530.24
 20
369.790
 30
3.48300e-013
  70
    32
  0
VERTEX
  8
0
  5
5010
 10
1530.24
 20
369.750
 30
3.48300e-013
  70
    32
  0
VERTEX
  8
0
  5
5011
 10
1530.23
 20
369.711
 30
3.48300e-013
  70
    32
  0
VERTEX
  8
0
  5
5012
 10
1530.23
 20
369.672
 30
3.48300e-013
  70
    32
  0
VERTEX
  8
0
  5
5013
 10
1530.23
 20
369.632
 30
3.48300e-013
  70
    32
  0
VERTEX
  8
0
  5
5014
 10
1530.23
 20
369.593
 30
3.48300e-013
  70
    32
  0
VERTEX
  8
0
  5
5015
 10
1530.23
 20
369.553
 30
3.48300e-013
  70
    32
  0
VERTEX
  8
0
  5
5016
 10
1530.23
 20
369.514
 30
3.48300e-013
  70
    32
  0
VERTEX
  8
0
  5
5017
 10
1530.22
 20
369.474
 30
3.48300e-013
  70
    32
  0
VERTEX
  8
0
  5
5018
 10
1530.22
 20
369.435
 30
3.48300e-013
  70
    32
  0
VERTEX
  8
0
  5
5019
 10
1530.22
 20
369.396
 30
3.48300e-013
  70
    32
  0
VERTEX
  8
0
  5
501A
 10
1530.22
 20
369.356
 30
3.48300e-013
  70
    32
  0
VERTEX
  8
0
  5
501B
 10
1530.22
 20
369.317
 30
3.48300e-013
  70
    32
  0
VERTEX
  8
0
  5
501C
 10
1530.21
 20
369.277
 30
3.48300e-013
  70
    32
  0
VERTEX
  8
0
  5
501D
 10
1530.21
 20
369.237
 30
3.48300e-013
  70
    32
  0
VERTEX
  8
0
  5
501E
 10
1530.21
 20
369.198
 30
3.48300e-013
  70
    32
  0
VERTEX
  8
0
  5
501F
 10
1530.21
 20
369.158
 30
3.48300e-013
  70
    32
  0
VERTEX
  8
0
  5
5020
 10
1530.21
 20
369.119
 30
3.48300e-013
  70
    32
  0
VERTEX
  8
0
  5
5021
 10
1530.21
 20
369.079
 30
3.48300e-013
  70
    32
  0
VERTEX
  8
0
  5
5022
 10
1530.20
 20
369.039
 30
3.48300e-013
  70
    32
  0
VERTEX
  8
0
  5
5023
 10
1530.20
 20
369.000
 30
3.48300e-013
  70
    32
  0
VERTEX
  8
0
  5
5024
 10
1530.20
 20
368.960
 30
3.48300e-013
  70
    32
  0
VERTEX
  8
0
  5
5025
 10
1530.20
 20
368.920
 30
3.48300e-013
  70
    32
  0
VERTEX
  8
0
  5
5026
 10
1530.20
 20
368.881
 30
3.48300e-013
  70
    32
  0
VERTEX
  8
0
  5
5027
 10
1530.19
 20
368.841
 30
3.48300e-013
  70
    32
  0
VERTEX
  8
0
  5
5028
 10
1530.19
 20
368.801
 30
3.48300e-013
  70
    32
  0
VERTEX
  8
0
  5
5029
 10
1530.19
 20
368.762
 30
3.48300e-013
  70
    32
  0
VERTEX
  8
0
  5
502A
 10
1530.19
 20
368.722
 30
3.48300e-013
  70
    32
  0
VERTEX
  8
0
  5
502B
 10
1530.19
 20
368.682
 30
3.48300e-013
  70
    32
  0
VERTEX
  8
0
  5
502C
 10
1530.18
 20
368.642
 30
3.48300e-013
  70
    32
  0
VERTEX
  8
0
  5
502D
 10
1530.18
 20
368.602
 30
3.48300e-013
  70
    32
  0
VERTEX
  8
0
  5
502E
 10
1530.18
 20
368.563
 30
3.48300e-013
  70
    32
  0
VERTEX
  8
0
  5
502F
 10
1530.18
 20
368.523
 30
3.48300e-013
  70
    32
  0
VERTEX
  8
0
  5
5030
 10
1530.18
 20
368.483
 30
3.48300e-013
  70
    32
  0
VERTEX
  8
0
  5
5031
 10
1530.17
 20
368.443
 30
3.48300e-013
  70
    32
  0
VERTEX
  8
0
  5
5032
 10
1530.17
 20
368.403
 30
3.48300e-013
  70
    32
  0
VERTEX
  8
0
  5
5033
 10
1530.17
 20
368.363
 30
3.48300e-013
  70
    32
  0
VERTEX
  8
0
  5
5034
 10
1530.17
 20
368.323
 30
3.48300e-013
  70
    32
  0
VERTEX
  8
0
  5
5035
 10
1530.16
 20
368.284
 30
3.48300e-013
  70
    32
  0
VERTEX
  8
0
  5
5036
 10
1530.16
 20
368.244
 30
3.48300e-013
  70
    32
  0
VERTEX
  8
0
  5
5037
 10
1530.16
 20
368.204
 30
3.48300e-013
  70
    32
  0
VERTEX
  8
0
  5
5038
 10
1530.16
 20
368.164
 30
3.48300e-013
  70
    32
  0
VERTEX
  8
0
  5
5039
 10
1530.16
 20
368.124
 30
3.48300e-013
  70
    32
  0
VERTEX
  8
0
  5
503A
 10
1530.15
 20
368.084
 30
3.48300e-013
  70
    32
  0
VERTEX
  8
0
  5
503B
 10
1530.15
 20
368.044
 30
3.48300e-013
  70
    32
  0
VERTEX
  8
0
  5
503C
 10
1530.15
 20
368.004
 30
3.48300e-013
  70
    32
  0
VERTEX
  8
0
  5
503D
 10
1530.15
 20
367.964
 30
3.48300e-013
  70
    32
  0
VERTEX
  8
0
  5
503E
 10
1530.14
 20
367.924
 30
3.48300e-013
  70
    32
  0
VERTEX
  8
0
  5
503F
 10
1530.14
 20
367.884
 30
3.48300e-013
  70
    32
  0
VERTEX
  8
0
  5
5040
 10
1530.14
 20
367.844
 30
3.48300e-013
  70
    32
  0
VERTEX
  8
0
  5
5041
 10
1530.14
 20
367.804
 30
3.48300e-013
  70
    32
  0
VERTEX
  8
0
  5
5042
 10
1530.14
 20
367.764
 30
3.48300e-013
  70
    32
  0
VERTEX
  8
0
  5
5043
 10
1530.13
 20
367.724
 30
3.48300e-013
  70
    32
  0
VERTEX
  8
0
  5
5044
 10
1530.13
 20
367.684
 30
3.48300e-013
  70
    32
  0
VERTEX
  8
0
  5
5045
 10
1530.13
 20
367.644
 30
3.48300e-013
  70
    32
  0
VERTEX
  8
0
  5
5046
 10
1530.13
 20
367.603
 30
3.48300e-013
  70
    32
  0
VERTEX
  8
0
  5
5047
 10
1530.12
 20
367.563
 30
3.48300e-013
  70
    32
  0
VERTEX
  8
0
  5
5048
 10
1530.12
 20
367.523
 30
3.48300e-013
  70
    32
  0
VERTEX
  8
0
  5
5049
 10
1530.12
 20
367.483
 30
3.48300e-013
  70
    32
  0
VERTEX
  8
0
  5
504A
 10
1530.12
 20
367.443
 30
3.48300e-013
  70
    32
  0
VERTEX
  8
0
  5
504B
 10
1530.11
 20
367.403
 30
3.48300e-013
  70
    32
  0
VERTEX
  8
0
  5
504C
 10
1530.11
 20
367.363
 30
3.48300e-013
  70
    32
  0
VERTEX
  8
0
  5
504D
 10
1530.11
 20
367.323
 30
3.48300e-013
  70
    32
  0
VERTEX
  8
0
  5
504E
 10
1530.11
 20
367.282
 30
3.48300e-013
  70
    32
  0
VERTEX
  8
0
  5
504F
 10
1530.11
 20
367.242
 30
3.48300e-013
  70
    32
  0
VERTEX
  8
0
  5
5050
 10
1530.10
 20
367.202
 30
3.48300e-013
  70
    32
  0
VERTEX
  8
0
  5
5051
 10
1530.10
 20
367.162
 30
3.48300e-013
  70
    32
  0
VERTEX
  8
0
  5
5052
 10
1530.10
 20
367.122
 30
3.48300e-013
  70
    32
  0
VERTEX
  8
0
  5
5053
 10
1530.10
 20
367.081
 30
3.48300e-013
  70
    32
  0
VERTEX
  8
0
  5
5054
 10
1530.09
 20
367.041
 30
3.48300e-013
  70
    32
  0
VERTEX
  8
0
  5
5055
 10
1530.09
 20
367.001
 30
3.48300e-013
  70
    32
  0
VERTEX
  8
0
  5
5056
 10
1530.09
 20
366.961
 30
3.48300e-013
  70
    32
  0
VERTEX
  8
0
  5
5057
 10
1530.09
 20
366.921
 30
3.48300e-013
  70
    32
  0
VERTEX
  8
0
  5
5058
 10
1530.08
 20
366.880
 30
3.48300e-013
  70
    32
  0
VERTEX
  8
0
  5
5059
 10
1530.08
 20
366.840
 30
3.48300e-013
  70
    32
  0
VERTEX
  8
0
  5
505A
 10
1530.08
 20
366.800
 30
3.48300e-013
  70
    32
  0
VERTEX
  8
0
  5
505B
 10
1530.08
 20
366.760
 30
3.48300e-013
  70
    32
  0
VERTEX
  8
0
  5
505C
 10
1530.08
 20
366.719
 30
3.48300e-013
  70
    32
  0
VERTEX
  8
0
  5
505D
 10
1530.07
 20
366.679
 30
3.48300e-013
  70
    32
  0
VERTEX
  8
0
  5
505E
 10
1530.07
 20
366.639
 30
3.48300e-013
  70
    32
  0
VERTEX
  8
0
  5
505F
 10
1530.07
 20
366.599
 30
3.48300e-013
  70
    32
  0
VERTEX
  8
0
  5
5060
 10
1530.07
 20
366.558
 30
3.48300e-013
  70
    32
  0
VERTEX
  8
0
  5
5061
 10
1530.06
 20
366.518
 30
3.48300e-013
  70
    32
  0
VERTEX
  8
0
  5
5062
 10
1530.06
 20
366.478
 30
3.48300e-013
  70
    32
  0
VERTEX
  8
0
  5
5063
 10
1530.06
 20
366.437
 30
3.48300e-013
  70
    32
  0
VERTEX
  8
0
  5
5064
 10
1530.06
 20
366.397
 30
3.48300e-013
  70
    32
  0
VERTEX
  8
0
  5
5065
 10
1530.05
 20
366.357
 30
3.48300e-013
  70
    32
  0
VERTEX
  8
0
  5
5066
 10
1530.05
 20
366.316
 30
3.48300e-013
  70
    32
  0
VERTEX
  8
0
  5
5067
 10
1530.05
 20
366.276
 30
3.48300e-013
  70
    32
  0
VERTEX
  8
0
  5
5068
 10
1530.05
 20
366.236
 30
3.48300e-013
  70
    32
  0
VERTEX
  8
0
  5
5069
 10
1530.04
 20
366.195
 30
3.48300e-013
  70
    32
  0
VERTEX
  8
0
  5
506A
 10
1530.04
 20
366.155
 30
3.48300e-013
  70
    32
  0
VERTEX
  8
0
  5
506B
 10
1530.04
 20
366.115
 30
3.48300e-013
  70
    32
  0
VERTEX
  8
0
  5
506C
 10
1530.04
 20
366.075
 30
3.48300e-013
  70
    32
  0
VERTEX
  8
0
  5
506D
 10
1530.03
 20
366.034
 30
3.48300e-013
  70
    32
  0
VERTEX
  8
0
  5
506E
 10
1530.03
 20
365.994
 30
3.48300e-013
  70
    32
  0
VERTEX
  8
0
  5
506F
 10
1530.03
 20
365.953
 30
3.48299e-013
  70
    32
  0
VERTEX
  8
0
  5
5070
 10
1530.03
 20
365.913
 30
3.48299e-013
  70
    32
  0
VERTEX
  8
0
  5
5071
 10
1530.03
 20
365.873
 30
3.48299e-013
  70
    32
  0
VERTEX
  8
0
  5
5072
 10
1530.02
 20
365.832
 30
3.48299e-013
  70
    32
  0
VERTEX
  8
0
  5
5073
 10
1530.02
 20
365.792
 30
3.48299e-013
  70
    32
  0
VERTEX
  8
0
  5
5074
 10
1530.02
 20
365.752
 30
3.48299e-013
  70
    32
  0
VERTEX
  8
0
  5
5075
 10
1530.02
 20
365.711
 30
3.48299e-013
  70
    32
  0
VERTEX
  8
0
  5
5076
 10
1530.01
 20
365.671
 30
3.48299e-013
  70
    32
  0
VERTEX
  8
0
  5
5077
 10
1530.01
 20
365.631
 30
3.48299e-013
  70
    32
  0
VERTEX
  8
0
  5
5078
 10
1530.01
 20
365.590
 30
3.48298e-013
  70
    32
  0
VERTEX
  8
0
  5
5079
 10
1530.01
 20
365.550
 30
3.48298e-013
  70
    32
  0
VERTEX
  8
0
  5
507A
 10
1530.00
 20
365.510
 30
3.48298e-013
  70
    32
  0
VERTEX
  8
0
  5
507B
 10
1530.00
 20
365.469
 30
3.48298e-013
  70
    32
  0
VERTEX
  8
0
  5
507C
 10
1530.00
 20
365.429
 30
3.48298e-013
  70
    32
  0
VERTEX
  8
0
  5
507D
 10
1530.00
 20
365.389
 30
3.48297e-013
  70
    32
  0
VERTEX
  8
0
  5
507E
 10
1529.99
 20
365.348
 30
3.48297e-013
  70
    32
  0
VERTEX
  8
0
  5
507F
 10
1529.99
 20
365.308
 30
3.48297e-013
  70
    32
  0
VERTEX
  8
0
  5
5080
 10
1529.99
 20
365.267
 30
3.48297e-013
  70
    32
  0
VERTEX
  8
0
  5
5081
 10
1529.99
 20
365.227
 30
3.48296e-013
  70
    32
  0
VERTEX
  8
0
  5
5082
 10
1529.99
 20
365.187
 30
3.48296e-013
  70
    32
  0
VERTEX
  8
0
  5
5083
 10
1529.98
 20
365.146
 30
3.48296e-013
  70
    32
  0
VERTEX
  8
0
  5
5084
 10
1529.98
 20
365.106
 30
3.48296e-013
  70
    32
  0
VERTEX
  8
0
  5
5085
 10
1529.98
 20
365.066
 30
3.48295e-013
  70
    32
  0
VERTEX
  8
0
  5
5086
 10
1529.98
 20
365.025
 30
3.48295e-013
  70
    32
  0
VERTEX
  8
0
  5
5087
 10
1529.97
 20
364.985
 30
3.48295e-013
  70
    32
  0
VERTEX
  8
0
  5
5088
 10
1529.97
 20
364.945
 30
3.48294e-013
  70
    32
  0
VERTEX
  8
0
  5
5089
 10
1529.97
 20
364.904
 30
3.48294e-013
  70
    32
  0
VERTEX
  8
0
  5
508A
 10
1529.97
 20
364.864
 30
3.48293e-013
  70
    32
  0
VERTEX
  8
0
  5
508B
 10
1529.97
 20
364.824
 30
3.48293e-013
  70
    32
  0
VERTEX
  8
0
  5
508C
 10
1529.96
 20
364.783
 30
3.48293e-013
  70
    32
  0
VERTEX
  8
0
  5
508D
 10
1529.96
 20
364.743
 30
3.48292e-013
  70
    32
  0
VERTEX
  8
0
  5
508E
 10
1529.96
 20
364.703
 30
3.48292e-013
  70
    32
  0
VERTEX
  8
0
  5
508F
 10
1529.96
 20
364.662
 30
3.48291e-013
  70
    32
  0
VERTEX
  8
0
  5
5090
 10
1529.95
 20
364.622
 30
3.48291e-013
  70
    32
  0
VERTEX
  8
0
  5
5091
 10
1529.95
 20
364.582
 30
3.48290e-013
  70
    32
  0
VERTEX
  8
0
  5
5092
 10
1529.95
 20
364.541
 30
3.48289e-013
  70
    32
  0
VERTEX
  8
0
  5
5093
 10
1529.95
 20
364.501
 30
3.48289e-013
  70
    32
  0
VERTEX
  8
0
  5
5094
 10
1529.95
 20
364.461
 30
3.48288e-013
  70
    32
  0
VERTEX
  8
0
  5
5095
 10
1529.94
 20
364.420
 30
3.48288e-013
  70
    32
  0
VERTEX
  8
0
  5
5096
 10
1529.94
 20
364.380
 30
3.48287e-013
  70
    32
  0
VERTEX
  8
0
  5
5097
 10
1529.94
 20
364.340
 30
3.48286e-013
  70
    32
  0
VERTEX
  8
0
  5
5098
 10
1529.94
 20
364.300
 30
3.48286e-013
  70
    32
  0
VERTEX
  8
0
  5
5099
 10
1529.93
 20
364.259
 30
3.48285e-013
  70
    32
  0
VERTEX
  8
0
  5
509A
 10
1529.93
 20
364.219
 30
3.48284e-013
  70
    32
  0
VERTEX
  8
0
  5
509B
 10
1529.93
 20
364.179
 30
3.48283e-013
  70
    32
  0
VERTEX
  8
0
  5
509C
 10
1529.93
 20
364.138
 30
3.48283e-013
  70
    32
  0
VERTEX
  8
0
  5
509D
 10
1529.93
 20
364.098
 30
3.48282e-013
  70
    32
  0
VERTEX
  8
0
  5
509E
 10
1529.92
 20
364.058
 30
3.48281e-013
  70
    32
  0
VERTEX
  8
0
  5
509F
 10
1529.92
 20
364.018
 30
3.48280e-013
  70
    32
  0
VERTEX
  8
0
  5
50A0
 10
1529.92
 20
363.977
 30
3.48279e-013
  70
    32
  0
VERTEX
  8
0
  5
50A1
 10
1529.92
 20
363.937
 30
3.48278e-013
  70
    32
  0
VERTEX
  8
0
  5
50A2
 10
1529.92
 20
363.897
 30
3.48278e-013
  70
    32
  0
VERTEX
  8
0
  5
50A3
 10
1529.91
 20
363.857
 30
3.48277e-013
  70
    32
  0
VERTEX
  8
0
  5
50A4
 10
1529.91
 20
363.817
 30
3.48276e-013
  70
    32
  0
VERTEX
  8
0
  5
50A5
 10
1529.91
 20
363.776
 30
3.48275e-013
  70
    32
  0
VERTEX
  8
0
  5
50A6
 10
1529.91
 20
363.736
 30
3.48274e-013
  70
    32
  0
VERTEX
  8
0
  5
50A7
 10
1529.90
 20
363.696
 30
3.48272e-013
  70
    32
  0
VERTEX
  8
0
  5
50A8
 10
1529.90
 20
363.656
 30
3.48271e-013
  70
    32
  0
VERTEX
  8
0
  5
50A9
 10
1529.90
 20
363.616
 30
3.48270e-013
  70
    32
  0
VERTEX
  8
0
  5
50AA
 10
1529.90
 20
363.575
 30
3.48269e-013
  70
    32
  0
VERTEX
  8
0
  5
50AB
 10
1529.90
 20
363.535
 30
3.48268e-013
  70
    32
  0
VERTEX
  8
0
  5
50AC
 10
1529.89
 20
363.495
 30
3.48267e-013
  70
    32
  0
VERTEX
  8
0
  5
50AD
 10
1529.89
 20
363.455
 30
3.48266e-013
  70
    32
  0
VERTEX
  8
0
  5
50AE
 10
1529.89
 20
363.415
 30
3.48264e-013
  70
    32
  0
VERTEX
  8
0
  5
50AF
 10
1529.89
 20
363.375
 30
3.48263e-013
  70
    32
  0
VERTEX
  8
0
  5
50B0
 10
1529.89
 20
363.335
 30
3.48262e-013
  70
    32
  0
VERTEX
  8
0
  5
50B1
 10
1529.89
 20
363.295
 30
3.48260e-013
  70
    32
  0
VERTEX
  8
0
  5
50B2
 10
1529.88
 20
363.254
 30
3.48259e-013
  70
    32
  0
VERTEX
  8
0
  5
50B3
 10
1529.88
 20
363.214
 30
3.48257e-013
  70
    32
  0
VERTEX
  8
0
  5
50B4
 10
1529.88
 20
363.174
 30
3.48256e-013
  70
    32
  0
VERTEX
  8
0
  5
50B5
 10
1529.88
 20
363.134
 30
3.48255e-013
  70
    32
  0
VERTEX
  8
0
  5
50B6
 10
1529.88
 20
363.094
 30
3.48253e-013
  70
    32
  0
VERTEX
  8
0
  5
50B7
 10
1529.87
 20
363.054
 30
3.48251e-013
  70
    32
  0
VERTEX
  8
0
  5
50B8
 10
1529.87
 20
363.014
 30
3.48250e-013
  70
    32
  0
VERTEX
  8
0
  5
50B9
 10
1529.87
 20
362.974
 30
3.48248e-013
  70
    32
  0
VERTEX
  8
0
  5
50BA
 10
1529.87
 20
362.934
 30
3.48247e-013
  70
    32
  0
VERTEX
  8
0
  5
50BB
 10
1529.87
 20
362.894
 30
3.48245e-013
  70
    32
  0
VERTEX
  8
0
  5
50BC
 10
1529.86
 20
362.854
 30
3.48243e-013
  70
    32
  0
VERTEX
  8
0
  5
50BD
 10
1529.86
 20
362.814
 30
3.48241e-013
  70
    32
  0
VERTEX
  8
0
  5
50BE
 10
1529.86
 20
362.774
 30
3.48240e-013
  70
    32
  0
VERTEX
  8
0
  5
50BF
 10
1529.86
 20
362.734
 30
3.48238e-013
  70
    32
  0
VERTEX
  8
0
  5
50C0
 10
1529.86
 20
362.694
 30
3.48236e-013
  70
    32
  0
VERTEX
  8
0
  5
50C1
 10
1529.86
 20
362.654
 30
3.48234e-013
  70
    32
  0
VERTEX
  8
0
  5
50C2
 10
1529.85
 20
362.615
 30
3.48232e-013
  70
    32
  0
VERTEX
  8
0
  5
50C3
 10
1529.85
 20
362.575
 30
3.48230e-013
  70
    32
  0
VERTEX
  8
0
  5
50C4
 10
1529.85
 20
362.535
 30
3.48228e-013
  70
    32
  0
VERTEX
  8
0
  5
50C5
 10
1529.85
 20
362.495
 30
3.48227e-013
  70
    32
  0
VERTEX
  8
0
  5
50C6
 10
1529.85
 20
362.455
 30
3.48225e-013
  70
    32
  0
VERTEX
  8
0
  5
50C7
 10
1529.85
 20
362.415
 30
3.48224e-013
  70
    32
  0
VERTEX
  8
0
  5
50C8
 10
1529.84
 20
362.375
 30
3.48222e-013
  70
    32
  0
VERTEX
  8
0
  5
50C9
 10
1529.84
 20
362.336
 30
3.48221e-013
  70
    32
  0
VERTEX
  8
0
  5
50CA
 10
1529.84
 20
362.296
 30
3.48219e-013
  70
    32
  0
VERTEX
  8
0
  5
50CB
 10
1529.84
 20
362.256
 30
3.48218e-013
  70
    32
  0
VERTEX
  8
0
  5
50CC
 10
1529.84
 20
362.216
 30
3.48217e-013
  70
    32
  0
VERTEX
  8
0
  5
50CD
 10
1529.84
 20
362.176
 30
3.48215e-013
  70
    32
  0
VERTEX
  8
0
  5
50CE
 10
1529.84
 20
362.137
 30
3.48214e-013
  70
    32
  0
VERTEX
  8
0
  5
50CF
 10
1529.83
 20
362.097
 30
3.48213e-013
  70
    32
  0
VERTEX
  8
0
  5
50D0
 10
1529.83
 20
362.057
 30
3.48212e-013
  70
    32
  0
VERTEX
  8
0
  5
50D1
 10
1529.83
 20
362.018
 30
3.48211e-013
  70
    32
  0
VERTEX
  8
0
  5
50D2
 10
1529.83
 20
361.978
 30
3.48210e-013
  70
    32
  0
VERTEX
  8
0
  5
50D3
 10
1529.83
 20
361.938
 30
3.48209e-013
  70
    32
  0
VERTEX
  8
0
  5
50D4
 10
1529.83
 20
361.899
 30
3.48209e-013
  70
    32
  0
VERTEX
  8
0
  5
50D5
 10
1529.83
 20
361.859
 30
3.48208e-013
  70
    32
  0
VERTEX
  8
0
  5
50D6
 10
1529.82
 20
361.819
 30
3.48207e-013
  70
    32
  0
VERTEX
  8
0
  5
50D7
 10
1529.82
 20
361.780
 30
3.48207e-013
  70
    32
  0
VERTEX
  8
0
  5
50D8
 10
1529.82
 20
361.740
 30
3.48206e-013
  70
    32
  0
VERTEX
  8
0
  5
50D9
 10
1529.82
 20
361.701
 30
3.48205e-013
  70
    32
  0
VERTEX
  8
0
  5
50DA
 10
1529.82
 20
361.661
 30
3.48205e-013
  70
    32
  0
VERTEX
  8
0
  5
50DB
 10
1529.82
 20
361.622
 30
3.48204e-013
  70
    32
  0
VERTEX
  8
0
  5
50DC
 10
1529.82
 20
361.582
 30
3.48204e-013
  70
    32
  0
VERTEX
  8
0
  5
50DD
 10
1529.81
 20
361.543
 30
3.48203e-013
  70
    32
  0
VERTEX
  8
0
  5
50DE
 10
1529.81
 20
361.503
 30
3.48203e-013
  70
    32
  0
VERTEX
  8
0
  5
50DF
 10
1529.81
 20
361.464
 30
3.48203e-013
  70
    32
  0
VERTEX
  8
0
  5
50E0
 10
1529.81
 20
361.424
 30
3.48202e-013
  70
    32
  0
VERTEX
  8
0
  5
50E1
 10
1529.81
 20
361.385
 30
3.48202e-013
  70
    32
  0
VERTEX
  8
0
  5
50E2
 10
1529.81
 20
361.345
 30
3.48202e-013
  70
    32
  0
VERTEX
  8
0
  5
50E3
 10
1529.81
 20
361.306
 30
3.48201e-013
  70
    32
  0
VERTEX
  8
0
  5
50E4
 10
1529.81
 20
361.267
 30
3.48201e-013
  70
    32
  0
VERTEX
  8
0
  5
50E5
 10
1529.80
 20
361.227
 30
3.48201e-013
  70
    32
  0
VERTEX
  8
0
  5
50E6
 10
1529.80
 20
361.188
 30
3.48201e-013
  70
    32
  0
VERTEX
  8
0
  5
50E7
 10
1529.80
 20
361.149
 30
3.48201e-013
  70
    32
  0
VERTEX
  8
0
  5
50E8
 10
1529.80
 20
361.110
 30
3.48201e-013
  70
    32
  0
VERTEX
  8
0
  5
50E9
 10
1529.80
 20
361.070
 30
3.48200e-013
  70
    32
  0
VERTEX
  8
0
  5
50EA
 10
1529.80
 20
361.031
 30
3.48200e-013
  70
    32
  0
VERTEX
  8
0
  5
50EB
 10
1529.80
 20
360.992
 30
3.48200e-013
  70
    32
  0
VERTEX
  8
0
  5
50EC
 10
1529.80
 20
360.953
 30
3.48200e-013
  70
    32
  0
VERTEX
  8
0
  5
50ED
 10
1529.80
 20
360.913
 30
3.48200e-013
  70
    32
  0
VERTEX
  8
0
  5
50EE
 10
1529.80
 20
360.874
 30
3.48200e-013
  70
    32
  0
VERTEX
  8
0
  5
50EF
 10
1529.79
 20
360.835
 30
3.48200e-013
  70
    32
  0
VERTEX
  8
0
  5
50F0
 10
1529.79
 20
360.796
 30
3.48200e-013
  70
    32
  0
VERTEX
  8
0
  5
50F1
 10
1529.79
 20
360.757
 30
3.48200e-013
  70
    32
  0
VERTEX
  8
0
  5
50F2
 10
1529.79
 20
360.718
 30
3.48200e-013
  70
    32
  0
VERTEX
  8
0
  5
50F3
 10
1529.79
 20
360.679
 30
3.48200e-013
  70
    32
  0
VERTEX
  8
0
  5
50F4
 10
1529.79
 20
360.640
 30
3.48200e-013
  70
    32
  0
VERTEX
  8
0
  5
50F5
 10
1529.79
 20
360.601
 30
3.48200e-013
  70
    32
  0
VERTEX
  8
0
  5
50F6
 10
1529.79
 20
360.562
 30
3.48200e-013
  70
    32
  0
VERTEX
  8
0
  5
50F7
 10
1529.79
 20
360.523
 30
3.48200e-013
  70
    32
  0
VERTEX
  8
0
  5
50F8
 10
1529.79
 20
360.484
 30
3.48200e-013
  70
    32
  0
VERTEX
  8
0
  5
50F9
 10
1529.79
 20
360.445
 30
3.48200e-013
  70
    32
  0
VERTEX
  8
0
  5
50FA
 10
1529.78
 20
360.406
 30
3.48200e-013
  70
    32
  0
VERTEX
  8
0
  5
50FB
 10
1529.78
 20
360.367
 30
3.48200e-013
  70
    32
  0
VERTEX
  8
0
  5
50FC
 10
1529.78
 20
360.329
 30
3.48200e-013
  70
    32
  0
VERTEX
  8
0
  5
50FD
 10
1529.78
 20
360.290
 30
3.48200e-013
  70
    32
  0
VERTEX
  8
0
  5
50FE
 10
1529.78
 20
360.251
 30
3.48200e-013
  70
    32
  0
VERTEX
  8
0
  5
50FF
 10
1529.78
 20
360.212
 30
3.48200e-013
  70
    32
  0
VERTEX
  8
0
  5
5100
 10
1529.78
 20
360.174
 30
3.48200e-013
  70
    32
  0
VERTEX
  8
0
  5
5101
 10
1529.78
 20
360.135
 30
3.48200e-013
  70
    32
  0
VERTEX
  8
0
  5
5102
 10
1529.78
 20
360.096
 30
3.48200e-013
  70
    32
  0
VERTEX
  8
0
  5
5103
 10
1529.78
 20
360.058
 30
3.48200e-013
  70
    32
  0
VERTEX
  8
0
  5
5104
 10
1529.78
 20
360.019
 30
3.48200e-013
  70
    32
  0
VERTEX
  8
0
  5
5105
 10
1529.78
 20
359.980
 30
3.48200e-013
  70
    32
  0
VERTEX
  8
0
  5
5106
 10
1529.78
 20
359.942
 30
3.48200e-013
  70
    32
  0
VERTEX
  8
0
  5
5107
 10
1529.78
 20
359.903
 30
3.48200e-013
  70
    32
  0
VERTEX
  8
0
  5
5108
 10
1529.77
 20
359.865
 30
3.48200e-013
  70
    32
  0
VERTEX
  8
0
  5
5109
 10
1529.77
 20
359.826
 30
3.48200e-013
  70
    32
  0
VERTEX
  8
0
  5
510A
 10
1529.77
 20
359.788
 30
3.48200e-013
  70
    32
  0
VERTEX
  8
0
  5
510B
 10
1529.77
 20
359.749
 30
3.48200e-013
  70
    32
  0
VERTEX
  8
0
  5
510C
 10
1529.77
 20
359.711
 30
3.48200e-013
  70
    32
  0
VERTEX
  8
0
  5
510D
 10
1529.77
 20
359.672
 30
3.48200e-013
  70
    32
  0
VERTEX
  8
0
  5
510E
 10
1529.77
 20
359.634
 30
3.48200e-013
  70
    32
  0
VERTEX
  8
0
  5
510F
 10
1529.77
 20
359.596
 30
3.48200e-013
  70
    32
  0
VERTEX
  8
0
  5
5110
 10
1529.77
 20
359.557
 30
3.48200e-013
  70
    32
  0
VERTEX
  8
0
  5
5111
 10
1529.77
 20
359.519
 30
3.48200e-013
  70
    32
  0
VERTEX
  8
0
  5
5112
 10
1529.77
 20
359.481
 30
3.48200e-013
  70
    32
  0
VERTEX
  8
0
  5
5113
 10
1529.77
 20
359.443
 30
3.48200e-013
  70
    32
  0
VERTEX
  8
0
  5
5114
 10
1529.77
 20
359.405
 30
3.48200e-013
  70
    32
  0
VERTEX
  8
0
  5
5115
 10
1529.77
 20
359.366
 30
3.48200e-013
  70
    32
  0
VERTEX
  8
0
  5
5116
 10
1529.77
 20
359.328
 30
3.48200e-013
  70
    32
  0
VERTEX
  8
0
  5
5117
 10
1529.77
 20
359.290
 30
3.48200e-013
  70
    32
  0
VERTEX
  8
0
  5
5118
 10
1529.77
 20
359.252
 30
3.48200e-013
  70
    32
  0
VERTEX
  8
0
  5
5119
 10
1529.77
 20
359.214
 30
3.48200e-013
  70
    32
  0
VERTEX
  8
0
  5
511A
 10
1529.77
 20
359.176
 30
3.48200e-013
  70
    32
  0
VERTEX
  8
0
  5
511B
 10
1529.77
 20
359.138
 30
3.48200e-013
  70
    32
  0
VERTEX
  8
0
  5
511C
 10
1529.77
 20
359.100
 30
3.48200e-013
  70
    32
  0
VERTEX
  8
0
  5
511D
 10
1529.77
 20
359.062
 30
3.48200e-013
  70
    32
  0
VERTEX
  8
0
  5
511E
 10
1529.77
 20
359.024
 30
3.48200e-013
  70
    32
  0
VERTEX
  8
0
  5
511F
 10
1529.77
 20
358.987
 30
3.48200e-013
  70
    32
  0
VERTEX
  8
0
  5
5120
 10
1529.77
 20
358.949
 30
3.48200e-013
  70
    32
  0
VERTEX
  8
0
  5
5121
 10
1529.77
 20
358.911
 30
3.48200e-013
  70
    32
  0
VERTEX
  8
0
  5
5122
 10
1529.77
 20
358.873
 30
3.48200e-013
  70
    32
  0
VERTEX
  8
0
  5
5123
 10
1529.77
 20
358.835
 30
3.48200e-013
  70
    32
  0
VERTEX
  8
0
  5
5124
 10
1529.77
 20
358.798
 30
3.48200e-013
  70
    32
  0
VERTEX
  8
0
  5
5125
 10
1529.77
 20
358.760
 30
3.48200e-013
  70
    32
  0
VERTEX
  8
0
  5
5126
 10
1529.77
 20
358.722
 30
3.48200e-013
  70
    32
  0
VERTEX
  8
0
  5
5127
 10
1529.77
 20
358.685
 30
3.48200e-013
  70
    32
  0
VERTEX
  8
0
  5
5128
 10
1529.77
 20
358.647
 30
3.48200e-013
  70
    32
  0
VERTEX
  8
0
  5
5129
 10
1529.77
 20
358.610
 30
3.48200e-013
  70
    32
  0
VERTEX
  8
0
  5
512A
 10
1529.77
 20
358.572
 30
3.48200e-013
  70
    32
  0
VERTEX
  8
0
  5
512B
 10
1529.77
 20
358.535
 30
3.48200e-013
  70
    32
  0
VERTEX
  8
0
  5
512C
 10
1529.77
 20
358.497
 30
3.48200e-013
  70
    32
  0
VERTEX
  8
0
  5
512D
 10
1529.77
 20
358.459
 30
3.48200e-013
  70
    32
  0
VERTEX
  8
0
  5
512E
 10
1529.77
 20
358.422
 30
3.48200e-013
  70
    32
  0
VERTEX
  8
0
  5
512F
 10
1529.77
 20
358.384
 30
3.48200e-013
  70
    32
  0
VERTEX
  8
0
  5
5130
 10
1529.77
 20
358.346
 30
3.48200e-013
  70
    32
  0
VERTEX
  8
0
  5
5131
 10
1529.77
 20
358.308
 30
3.48200e-013
  70
    32
  0
VERTEX
  8
0
  5
5132
 10
1529.77
 20
358.270
 30
3.48200e-013
  70
    32
  0
VERTEX
  8
0
  5
5133
 10
1529.77
 20
358.233
 30
3.48200e-013
  70
    32
  0
VERTEX
  8
0
  5
5134
 10
1529.77
 20
358.195
 30
3.48200e-013
  70
    32
  0
VERTEX
  8
0
  5
5135
 10
1529.77
 20
358.157
 30
3.48200e-013
  70
    32
  0
VERTEX
  8
0
  5
5136
 10
1529.77
 20
358.119
 30
3.48200e-013
  70
    32
  0
VERTEX
  8
0
  5
5137
 10
1529.77
 20
358.081
 30
3.48200e-013
  70
    32
  0
VERTEX
  8
0
  5
5138
 10
1529.77
 20
358.043
 30
3.48200e-013
  70
    32
  0
VERTEX
  8
0
  5
5139
 10
1529.77
 20
358.005
 30
3.48200e-013
  70
    32
  0
VERTEX
  8
0
  5
513A
 10
1529.77
 20
357.967
 30
3.48200e-013
  70
    32
  0
VERTEX
  8
0
  5
513B
 10
1529.77
 20
357.929
 30
3.48200e-013
  70
    32
  0
VERTEX
  8
0
  5
513C
 10
1529.77
 20
357.891
 30
3.48200e-013
  70
    32
  0
VERTEX
  8
0
  5
513D
 10
1529.77
 20
357.852
 30
3.48200e-013
  70
    32
  0
VERTEX
  8
0
  5
513E
 10
1529.77
 20
357.814
 30
3.48200e-013
  70
    32
  0
VERTEX
  8
0
  5
513F
 10
1529.77
 20
357.776
 30
3.48200e-013
  70
    32
  0
VERTEX
  8
0
  5
5140
 10
1529.77
 20
357.738
 30
3.48200e-013
  70
    32
  0
VERTEX
  8
0
  5
5141
 10
1529.77
 20
357.699
 30
3.48200e-013
  70
    32
  0
VERTEX
  8
0
  5
5142
 10
1529.77
 20
357.661
 30
3.48200e-013
  70
    32
  0
VERTEX
  8
0
  5
5143
 10
1529.77
 20
357.623
 30
3.48200e-013
  70
    32
  0
VERTEX
  8
0
  5
5144
 10
1529.77
 20
357.584
 30
3.48200e-013
  70
    32
  0
VERTEX
  8
0
  5
5145
 10
1529.77
 20
357.546
 30
3.48200e-013
  70
    32
  0
VERTEX
  8
0
  5
5146
 10
1529.77
 20
357.508
 30
3.48200e-013
  70
    32
  0
VERTEX
  8
0
  5
5147
 10
1529.77
 20
357.469
 30
3.48200e-013
  70
    32
  0
VERTEX
  8
0
  5
5148
 10
1529.77
 20
357.431
 30
3.48200e-013
  70
    32
  0
VERTEX
  8
0
  5
5149
 10
1529.77
 20
357.392
 30
3.48200e-013
  70
    32
  0
VERTEX
  8
0
  5
514A
 10
1529.78
 20
357.354
 30
3.48200e-013
  70
    32
  0
VERTEX
  8
0
  5
514B
 10
1529.78
 20
357.315
 30
3.48200e-013
  70
    32
  0
VERTEX
  8
0
  5
514C
 10
1529.78
 20
357.277
 30
3.48200e-013
  70
    32
  0
VERTEX
  8
0
  5
514D
 10
1529.78
 20
357.238
 30
3.48200e-013
  70
    32
  0
VERTEX
  8
0
  5
514E
 10
1529.78
 20
357.199
 30
3.48200e-013
  70
    32
  0
VERTEX
  8
0
  5
514F
 10
1529.78
 20
357.161
 30
3.48200e-013
  70
    32
  0
VERTEX
  8
0
  5
5150
 10
1529.78
 20
357.122
 30
3.48200e-013
  70
    32
  0
VERTEX
  8
0
  5
5151
 10
1529.78
 20
357.083
 30
3.48200e-013
  70
    32
  0
VERTEX
  8
0
  5
5152
 10
1529.78
 20
357.045
 30
3.48200e-013
  70
    32
  0
VERTEX
  8
0
  5
5153
 10
1529.78
 20
357.006
 30
3.48200e-013
  70
    32
  0
VERTEX
  8
0
  5
5154
 10
1529.78
 20
356.967
 30
3.48200e-013
  70
    32
  0
VERTEX
  8
0
  5
5155
 10
1529.78
 20
356.928
 30
3.48200e-013
  70
    32
  0
VERTEX
  8
0
  5
5156
 10
1529.78
 20
356.890
 30
3.48200e-013
  70
    32
  0
VERTEX
  8
0
  5
5157
 10
1529.78
 20
356.851
 30
3.48200e-013
  70
    32
  0
VERTEX
  8
0
  5
5158
 10
1529.79
 20
356.812
 30
3.48200e-013
  70
    32
  0
VERTEX
  8
0
  5
5159
 10
1529.79
 20
356.773
 30
3.48200e-013
  70
    32
  0
VERTEX
  8
0
  5
515A
 10
1529.79
 20
356.734
 30
3.48200e-013
  70
    32
  0
VERTEX
  8
0
  5
515B
 10
1529.79
 20
356.695
 30
3.48200e-013
  70
    32
  0
VERTEX
  8
0
  5
515C
 10
1529.79
 20
356.656
 30
3.48200e-013
  70
    32
  0
VERTEX
  8
0
  5
515D
 10
1529.79
 20
356.617
 30
3.48200e-013
  70
    32
  0
VERTEX
  8
0
  5
515E
 10
1529.79
 20
356.578
 30
3.48200e-013
  70
    32
  0
VERTEX
  8
0
  5
515F
 10
1529.79
 20
356.539
 30
3.48200e-013
  70
    32
  0
VERTEX
  8
0
  5
5160
 10
1529.79
 20
356.500
 30
3.48200e-013
  70
    32
  0
VERTEX
  8
0
  5
5161
 10
1529.79
 20
356.461
 30
3.48200e-013
  70
    32
  0
VERTEX
  8
0
  5
5162
 10
1529.79
 20
356.422
 30
3.48200e-013
  70
    32
  0
VERTEX
  8
0
  5
5163
 10
1529.80
 20
356.383
 30
3.48200e-013
  70
    32
  0
VERTEX
  8
0
  5
5164
 10
1529.80
 20
356.343
 30
3.48200e-013
  70
    32
  0
VERTEX
  8
0
  5
5165
 10
1529.80
 20
356.304
 30
3.48200e-013
  70
    32
  0
VERTEX
  8
0
  5
5166
 10
1529.80
 20
356.265
 30
3.48200e-013
  70
    32
  0
VERTEX
  8
0
  5
5167
 10
1529.80
 20
356.226
 30
3.48200e-013
  70
    32
  0
VERTEX
  8
0
  5
5168
 10
1529.80
 20
356.187
 30
3.48200e-013
  70
    32
  0
VERTEX
  8
0
  5
5169
 10
1529.80
 20
356.147
 30
3.48201e-013
  70
    32
  0
VERTEX
  8
0
  5
516A
 10
1529.80
 20
356.108
 30
3.48201e-013
  70
    32
  0
VERTEX
  8
0
  5
516B
 10
1529.80
 20
356.069
 30
3.48201e-013
  70
    32
  0
VERTEX
  8
0
  5
516C
 10
1529.80
 20
356.030
 30
3.48201e-013
  70
    32
  0
VERTEX
  8
0
  5
516D
 10
1529.81
 20
355.990
 30
3.48201e-013
  70
    32
  0
VERTEX
  8
0
  5
516E
 10
1529.81
 20
355.951
 30
3.48201e-013
  70
    32
  0
VERTEX
  8
0
  5
516F
 10
1529.81
 20
355.912
 30
3.48202e-013
  70
    32
  0
VERTEX
  8
0
  5
5170
 10
1529.81
 20
355.872
 30
3.48202e-013
  70
    32
  0
VERTEX
  8
0
  5
5171
 10
1529.81
 20
355.833
 30
3.48202e-013
  70
    32
  0
VERTEX
  8
0
  5
5172
 10
1529.81
 20
355.793
 30
3.48203e-013
  70
    32
  0
VERTEX
  8
0
  5
5173
 10
1529.81
 20
355.754
 30
3.48203e-013
  70
    32
  0
VERTEX
  8
0
  5
5174
 10
1529.81
 20
355.714
 30
3.48203e-013
  70
    32
  0
VERTEX
  8
0
  5
5175
 10
1529.82
 20
355.675
 30
3.48204e-013
  70
    32
  0
VERTEX
  8
0
  5
5176
 10
1529.82
 20
355.635
 30
3.48204e-013
  70
    32
  0
VERTEX
  8
0
  5
5177
 10
1529.82
 20
355.596
 30
3.48205e-013
  70
    32
  0
VERTEX
  8
0
  5
5178
 10
1529.82
 20
355.556
 30
3.48205e-013
  70
    32
  0
VERTEX
  8
0
  5
5179
 10
1529.82
 20
355.517
 30
3.48206e-013
  70
    32
  0
VERTEX
  8
0
  5
517A
 10
1529.82
 20
355.477
 30
3.48207e-013
  70
    32
  0
VERTEX
  8
0
  5
517B
 10
1529.82
 20
355.438
 30
3.48207e-013
  70
    32
  0
VERTEX
  8
0
  5
517C
 10
1529.83
 20
355.398
 30
3.48208e-013
  70
    32
  0
VERTEX
  8
0
  5
517D
 10
1529.83
 20
355.358
 30
3.48209e-013
  70
    32
  0
VERTEX
  8
0
  5
517E
 10
1529.83
 20
355.319
 30
3.48209e-013
  70
    32
  0
VERTEX
  8
0
  5
517F
 10
1529.83
 20
355.279
 30
3.48210e-013
  70
    32
  0
VERTEX
  8
0
  5
5180
 10
1529.83
 20
355.239
 30
3.48211e-013
  70
    32
  0
VERTEX
  8
0
  5
5181
 10
1529.83
 20
355.200
 30
3.48212e-013
  70
    32
  0
VERTEX
  8
0
  5
5182
 10
1529.83
 20
355.160
 30
3.48213e-013
  70
    32
  0
VERTEX
  8
0
  5
5183
 10
1529.84
 20
355.120
 30
3.48214e-013
  70
    32
  0
VERTEX
  8
0
  5
5184
 10
1529.84
 20
355.081
 30
3.48215e-013
  70
    32
  0
VERTEX
  8
0
  5
5185
 10
1529.84
 20
355.041
 30
3.48217e-013
  70
    32
  0
VERTEX
  8
0
  5
5186
 10
1529.84
 20
355.001
 30
3.48218e-013
  70
    32
  0
VERTEX
  8
0
  5
5187
 10
1529.84
 20
354.961
 30
3.48219e-013
  70
    32
  0
VERTEX
  8
0
  5
5188
 10
1529.84
 20
354.921
 30
3.48221e-013
  70
    32
  0
VERTEX
  8
0
  5
5189
 10
1529.84
 20
354.882
 30
3.48222e-013
  70
    32
  0
VERTEX
  8
0
  5
518A
 10
1529.85
 20
354.842
 30
3.48224e-013
  70
    32
  0
VERTEX
  8
0
  5
518B
 10
1529.85
 20
354.802
 30
3.48225e-013
  70
    32
  0
VERTEX
  8
0
  5
518C
 10
1529.85
 20
354.762
 30
3.48227e-013
  70
    32
  0
VERTEX
  8
0
  5
518D
 10
1529.85
 20
354.722
 30
3.48228e-013
  70
    32
  0
VERTEX
  8
0
  5
518E
 10
1529.85
 20
354.682
 30
3.48230e-013
  70
    32
  0
VERTEX
  8
0
  5
518F
 10
1529.85
 20
354.642
 30
3.48232e-013
  70
    32
  0
VERTEX
  8
0
  5
5190
 10
1529.86
 20
354.603
 30
3.48234e-013
  70
    32
  0
VERTEX
  8
0
  5
5191
 10
1529.86
 20
354.563
 30
3.48236e-013
  70
    32
  0
VERTEX
  8
0
  5
5192
 10
1529.86
 20
354.523
 30
3.48238e-013
  70
    32
  0
VERTEX
  8
0
  5
5193
 10
1529.86
 20
354.483
 30
3.48240e-013
  70
    32
  0
VERTEX
  8
0
  5
5194
 10
1529.86
 20
354.443
 30
3.48241e-013
  70
    32
  0
VERTEX
  8
0
  5
5195
 10
1529.86
 20
354.403
 30
3.48243e-013
  70
    32
  0
VERTEX
  8
0
  5
5196
 10
1529.87
 20
354.363
 30
3.48245e-013
  70
    32
  0
VERTEX
  8
0
  5
5197
 10
1529.87
 20
354.323
 30
3.48247e-013
  70
    32
  0
VERTEX
  8
0
  5
5198
 10
1529.87
 20
354.283
 30
3.48248e-013
  70
    32
  0
VERTEX
  8
0
  5
5199
 10
1529.87
 20
354.243
 30
3.48250e-013
  70
    32
  0
VERTEX
  8
0
  5
519A
 10
1529.87
 20
354.203
 30
3.48251e-013
  70
    32
  0
VERTEX
  8
0
  5
519B
 10
1529.88
 20
354.163
 30
3.48253e-013
  70
    32
  0
VERTEX
  8
0
  5
519C
 10
1529.88
 20
354.123
 30
3.48255e-013
  70
    32
  0
VERTEX
  8
0
  5
519D
 10
1529.88
 20
354.083
 30
3.48256e-013
  70
    32
  0
VERTEX
  8
0
  5
519E
 10
1529.88
 20
354.043
 30
3.48257e-013
  70
    32
  0
VERTEX
  8
0
  5
519F
 10
1529.88
 20
354.002
 30
3.48259e-013
  70
    32
  0
VERTEX
  8
0
  5
51A0
 10
1529.89
 20
353.962
 30
3.48260e-013
  70
    32
  0
VERTEX
  8
0
  5
51A1
 10
1529.89
 20
353.922
 30
3.48262e-013
  70
    32
  0
VERTEX
  8
0
  5
51A2
 10
1529.89
 20
353.882
 30
3.48263e-013
  70
    32
  0
VERTEX
  8
0
  5
51A3
 10
1529.89
 20
353.842
 30
3.48264e-013
  70
    32
  0
VERTEX
  8
0
  5
51A4
 10
1529.89
 20
353.802
 30
3.48266e-013
  70
    32
  0
VERTEX
  8
0
  5
51A5
 10
1529.89
 20
353.762
 30
3.48267e-013
  70
    32
  0
VERTEX
  8
0
  5
51A6
 10
1529.90
 20
353.722
 30
3.48268e-013
  70
    32
  0
VERTEX
  8
0
  5
51A7
 10
1529.90
 20
353.682
 30
3.48269e-013
  70
    32
  0
VERTEX
  8
0
  5
51A8
 10
1529.90
 20
353.641
 30
3.48270e-013
  70
    32
  0
VERTEX
  8
0
  5
51A9
 10
1529.90
 20
353.601
 30
3.48271e-013
  70
    32
  0
VERTEX
  8
0
  5
51AA
 10
1529.90
 20
353.561
 30
3.48272e-013
  70
    32
  0
VERTEX
  8
0
  5
51AB
 10
1529.91
 20
353.521
 30
3.48274e-013
  70
    32
  0
VERTEX
  8
0
  5
51AC
 10
1529.91
 20
353.481
 30
3.48275e-013
  70
    32
  0
VERTEX
  8
0
  5
51AD
 10
1529.91
 20
353.440
 30
3.48276e-013
  70
    32
  0
VERTEX
  8
0
  5
51AE
 10
1529.91
 20
353.400
 30
3.48277e-013
  70
    32
  0
VERTEX
  8
0
  5
51AF
 10
1529.92
 20
353.360
 30
3.48278e-013
  70
    32
  0
VERTEX
  8
0
  5
51B0
 10
1529.92
 20
353.320
 30
3.48278e-013
  70
    32
  0
VERTEX
  8
0
  5
51B1
 10
1529.92
 20
353.280
 30
3.48279e-013
  70
    32
  0
VERTEX
  8
0
  5
51B2
 10
1529.92
 20
353.239
 30
3.48280e-013
  70
    32
  0
VERTEX
  8
0
  5
51B3
 10
1529.92
 20
353.199
 30
3.48281e-013
  70
    32
  0
VERTEX
  8
0
  5
51B4
 10
1529.93
 20
353.159
 30
3.48282e-013
  70
    32
  0
VERTEX
  8
0
  5
51B5
 10
1529.93
 20
353.119
 30
3.48283e-013
  70
    32
  0
VERTEX
  8
0
  5
51B6
 10
1529.93
 20
353.078
 30
3.48283e-013
  70
    32
  0
VERTEX
  8
0
  5
51B7
 10
1529.93
 20
353.038
 30
3.48284e-013
  70
    32
  0
VERTEX
  8
0
  5
51B8
 10
1529.93
 20
352.998
 30
3.48285e-013
  70
    32
  0
VERTEX
  8
0
  5
51B9
 10
1529.94
 20
352.957
 30
3.48286e-013
  70
    32
  0
VERTEX
  8
0
  5
51BA
 10
1529.94
 20
352.917
 30
3.48286e-013
  70
    32
  0
VERTEX
  8
0
  5
51BB
 10
1529.94
 20
352.877
 30
3.48287e-013
  70
    32
  0
VERTEX
  8
0
  5
51BC
 10
1529.94
 20
352.837
 30
3.48288e-013
  70
    32
  0
VERTEX
  8
0
  5
51BD
 10
1529.95
 20
352.796
 30
3.48288e-013
  70
    32
  0
VERTEX
  8
0
  5
51BE
 10
1529.95
 20
352.756
 30
3.48289e-013
  70
    32
  0
VERTEX
  8
0
  5
51BF
 10
1529.95
 20
352.716
 30
3.48289e-013
  70
    32
  0
VERTEX
  8
0
  5
51C0
 10
1529.95
 20
352.675
 30
3.48290e-013
  70
    32
  0
VERTEX
  8
0
  5
51C1
 10
1529.95
 20
352.635
 30
3.48291e-013
  70
    32
  0
VERTEX
  8
0
  5
51C2
 10
1529.96
 20
352.595
 30
3.48291e-013
  70
    32
  0
VERTEX
  8
0
  5
51C3
 10
1529.96
 20
352.554
 30
3.48292e-013
  70
    32
  0
VERTEX
  8
0
  5
51C4
 10
1529.96
 20
352.514
 30
3.48292e-013
  70
    32
  0
VERTEX
  8
0
  5
51C5
 10
1529.96
 20
352.474
 30
3.48293e-013
  70
    32
  0
VERTEX
  8
0
  5
51C6
 10
1529.97
 20
352.433
 30
3.48293e-013
  70
    32
  0
VERTEX
  8
0
  5
51C7
 10
1529.97
 20
352.393
 30
3.48293e-013
  70
    32
  0
VERTEX
  8
0
  5
51C8
 10
1529.97
 20
352.353
 30
3.48294e-013
  70
    32
  0
VERTEX
  8
0
  5
51C9
 10
1529.97
 20
352.312
 30
3.48294e-013
  70
    32
  0
VERTEX
  8
0
  5
51CA
 10
1529.97
 20
352.272
 30
3.48295e-013
  70
    32
  0
VERTEX
  8
0
  5
51CB
 10
1529.98
 20
352.232
 30
3.48295e-013
  70
    32
  0
VERTEX
  8
0
  5
51CC
 10
1529.98
 20
352.191
 30
3.48295e-013
  70
    32
  0
VERTEX
  8
0
  5
51CD
 10
1529.98
 20
352.151
 30
3.48296e-013
  70
    32
  0
VERTEX
  8
0
  5
51CE
 10
1529.98
 20
352.111
 30
3.48296e-013
  70
    32
  0
VERTEX
  8
0
  5
51CF
 10
1529.99
 20
352.070
 30
3.48296e-013
  70
    32
  0
VERTEX
  8
0
  5
51D0
 10
1529.99
 20
352.030
 30
3.48296e-013
  70
    32
  0
VERTEX
  8
0
  5
51D1
 10
1529.99
 20
351.989
 30
3.48297e-013
  70
    32
  0
VERTEX
  8
0
  5
51D2
 10
1529.99
 20
351.949
 30
3.48297e-013
  70
    32
  0
VERTEX
  8
0
  5
51D3
 10
1529.99
 20
351.909
 30
3.48297e-013
  70
    32
  0
VERTEX
  8
0
  5
51D4
 10
1530.00
 20
351.868
 30
3.48297e-013
  70
    32
  0
VERTEX
  8
0
  5
51D5
 10
1530.00
 20
351.828
 30
3.48298e-013
  70
    32
  0
VERTEX
  8
0
  5
51D6
 10
1530.00
 20
351.788
 30
3.48298e-013
  70
    32
  0
VERTEX
  8
0
  5
51D7
 10
1530.00
 20
351.747
 30
3.48298e-013
  70
    32
  0
VERTEX
  8
0
  5
51D8
 10
1530.01
 20
351.707
 30
3.48298e-013
  70
    32
  0
VERTEX
  8
0
  5
51D9
 10
1530.01
 20
351.667
 30
3.48298e-013
  70
    32
  0
VERTEX
  8
0
  5
51DA
 10
1530.01
 20
351.626
 30
3.48299e-013
  70
    32
  0
VERTEX
  8
0
  5
51DB
 10
1530.01
 20
351.586
 30
3.48299e-013
  70
    32
  0
VERTEX
  8
0
  5
51DC
 10
1530.02
 20
351.546
 30
3.48299e-013
  70
    32
  0
VERTEX
  8
0
  5
51DD
 10
1530.02
 20
351.505
 30
3.48299e-013
  70
    32
  0
VERTEX
  8
0
  5
51DE
 10
1530.02
 20
351.465
 30
3.48299e-013
  70
    32
  0
VERTEX
  8
0
  5
51DF
 10
1530.02
 20
351.425
 30
3.48299e-013
  70
    32
  0
VERTEX
  8
0
  5
51E0
 10
1530.03
 20
351.384
 30
3.48299e-013
  70
    32
  0
VERTEX
  8
0
  5
51E1
 10
1530.03
 20
351.344
 30
3.48299e-013
  70
    32
  0
VERTEX
  8
0
  5
51E2
 10
1530.03
 20
351.303
 30
3.48299e-013
  70
    32
  0
VERTEX
  8
0
  5
51E3
 10
1530.03
 20
351.263
 30
3.48300e-013
  70
    32
  0
VERTEX
  8
0
  5
51E4
 10
1530.03
 20
351.223
 30
3.48300e-013
  70
    32
  0
VERTEX
  8
0
  5
51E5
 10
1530.04
 20
351.182
 30
3.48300e-013
  70
    32
  0
VERTEX
  8
0
  5
51E6
 10
1530.04
 20
351.142
 30
3.48300e-013
  70
    32
  0
VERTEX
  8
0
  5
51E7
 10
1530.04
 20
351.102
 30
3.48300e-013
  70
    32
  0
VERTEX
  8
0
  5
51E8
 10
1530.04
 20
351.061
 30
3.48300e-013
  70
    32
  0
VERTEX
  8
0
  5
51E9
 10
1530.05
 20
351.021
 30
3.48300e-013
  70
    32
  0
VERTEX
  8
0
  5
51EA
 10
1530.05
 20
350.981
 30
3.48300e-013
  70
    32
  0
VERTEX
  8
0
  5
51EB
 10
1530.05
 20
350.941
 30
3.48300e-013
  70
    32
  0
VERTEX
  8
0
  5
51EC
 10
1530.05
 20
350.900
 30
3.48300e-013
  70
    32
  0
VERTEX
  8
0
  5
51ED
 10
1530.06
 20
350.860
 30
3.48300e-013
  70
    32
  0
VERTEX
  8
0
  5
51EE
 10
1530.06
 20
350.820
 30
3.48300e-013
  70
    32
  0
VERTEX
  8
0
  5
51EF
 10
1530.06
 20
350.779
 30
3.48300e-013
  70
    32
  0
VERTEX
  8
0
  5
51F0
 10
1530.06
 20
350.739
 30
3.48300e-013
  70
    32
  0
VERTEX
  8
0
  5
51F1
 10
1530.07
 20
350.699
 30
3.48300e-013
  70
    32
  0
VERTEX
  8
0
  5
51F2
 10
1530.07
 20
350.658
 30
3.48300e-013
  70
    32
  0
VERTEX
  8
0
  5
51F3
 10
1530.07
 20
350.618
 30
3.48300e-013
  70
    32
  0
VERTEX
  8
0
  5
51F4
 10
1530.07
 20
350.578
 30
3.48300e-013
  70
    32
  0
VERTEX
  8
0
  5
51F5
 10
1530.08
 20
350.538
 30
3.48300e-013
  70
    32
  0
VERTEX
  8
0
  5
51F6
 10
1530.08
 20
350.497
 30
3.48300e-013
  70
    32
  0
VERTEX
  8
0
  5
51F7
 10
1530.08
 20
350.457
 30
3.48300e-013
  70
    32
  0
VERTEX
  8
0
  5
51F8
 10
1530.08
 20
350.417
 30
3.48300e-013
  70
    32
  0
VERTEX
  8
0
  5
51F9
 10
1530.08
 20
350.377
 30
3.48300e-013
  70
    32
  0
VERTEX
  8
0
  5
51FA
 10
1530.09
 20
350.336
 30
3.48300e-013
  70
    32
  0
VERTEX
  8
0
  5
51FB
 10
1530.09
 20
350.296
 30
3.48300e-013
  70
    32
  0
VERTEX
  8
0
  5
51FC
 10
1530.09
 20
350.256
 30
3.48300e-013
  70
    32
  0
VERTEX
  8
0
  5
51FD
 10
1530.09
 20
350.216
 30
3.48300e-013
  70
    32
  0
VERTEX
  8
0
  5
51FE
 10
1530.10
 20
350.175
 30
3.48300e-013
  70
    32
  0
VERTEX
  8
0
  5
51FF
 10
1530.10
 20
350.135
 30
3.48300e-013
  70
    32
  0
VERTEX
  8
0
  5
5200
 10
1530.10
 20
350.095
 30
3.48300e-013
  70
    32
  0
VERTEX
  8
0
  5
5201
 10
1530.10
 20
350.055
 30
3.48300e-013
  70
    32
  0
VERTEX
  8
0
  5
5202
 10
1530.11
 20
350.015
 30
3.48300e-013
  70
    32
  0
VERTEX
  8
0
  5
5203
 10
1530.11
 20
349.975
 30
3.48300e-013
  70
    32
  0
VERTEX
  8
0
  5
5204
 10
1530.11
 20
349.934
 30
3.48300e-013
  70
    32
  0
VERTEX
  8
0
  5
5205
 10
1530.11
 20
349.894
 30
3.48300e-013
  70
    32
  0
VERTEX
  8
0
  5
5206
 10
1530.11
 20
349.854
 30
3.48300e-013
  70
    32
  0
VERTEX
  8
0
  5
5207
 10
1530.12
 20
349.814
 30
3.48300e-013
  70
    32
  0
VERTEX
  8
0
  5
5208
 10
1530.12
 20
349.774
 30
3.48300e-013
  70
    32
  0
VERTEX
  8
0
  5
5209
 10
1530.12
 20
349.734
 30
3.48300e-013
  70
    32
  0
VERTEX
  8
0
  5
520A
 10
1530.12
 20
349.694
 30
3.48300e-013
  70
    32
  0
VERTEX
  8
0
  5
520B
 10
1530.13
 20
349.654
 30
3.48300e-013
  70
    32
  0
VERTEX
  8
0
  5
520C
 10
1530.13
 20
349.613
 30
3.48300e-013
  70
    32
  0
VERTEX
  8
0
  5
520D
 10
1530.13
 20
349.573
 30
3.48300e-013
  70
    32
  0
VERTEX
  8
0
  5
520E
 10
1530.13
 20
349.533
 30
3.48300e-013
  70
    32
  0
VERTEX
  8
0
  5
520F
 10
1530.14
 20
349.493
 30
3.48300e-013
  70
    32
  0
VERTEX
  8
0
  5
5210
 10
1530.14
 20
349.453
 30
3.48300e-013
  70
    32
  0
VERTEX
  8
0
  5
5211
 10
1530.14
 20
349.413
 30
3.48300e-013
  70
    32
  0
VERTEX
  8
0
  5
5212
 10
1530.14
 20
349.373
 30
3.48300e-013
  70
    32
  0
VERTEX
  8
0
  5
5213
 10
1530.14
 20
349.333
 30
3.48300e-013
  70
    32
  0
VERTEX
  8
0
  5
5214
 10
1530.15
 20
349.293
 30
3.48300e-013
  70
    32
  0
VERTEX
  8
0
  5
5215
 10
1530.15
 20
349.253
 30
3.48300e-013
  70
    32
  0
VERTEX
  8
0
  5
5216
 10
1530.15
 20
349.213
 30
3.48300e-013
  70
    32
  0
VERTEX
  8
0
  5
5217
 10
1530.15
 20
349.173
 30
3.48300e-013
  70
    32
  0
VERTEX
  8
0
  5
5218
 10
1530.16
 20
349.133
 30
3.48300e-013
  70
    32
  0
VERTEX
  8
0
  5
5219
 10
1530.16
 20
349.093
 30
3.48300e-013
  70
    32
  0
VERTEX
  8
0
  5
521A
 10
1530.16
 20
349.053
 30
3.48300e-013
  70
    32
  0
VERTEX
  8
0
  5
521B
 10
1530.16
 20
349.013
 30
3.48300e-013
  70
    32
  0
VERTEX
  8
0
  5
521C
 10
1530.16
 20
348.973
 30
3.48300e-013
  70
    32
  0
VERTEX
  8
0
  5
521D
 10
1530.17
 20
348.933
 30
3.48300e-013
  70
    32
  0
VERTEX
  8
0
  5
521E
 10
1530.17
 20
348.894
 30
3.48300e-013
  70
    32
  0
VERTEX
  8
0
  5
521F
 10
1530.17
 20
348.854
 30
3.48300e-013
  70
    32
  0
VERTEX
  8
0
  5
5220
 10
1530.17
 20
348.814
 30
3.48300e-013
  70
    32
  0
VERTEX
  8
0
  5
5221
 10
1530.18
 20
348.774
 30
3.48300e-013
  70
    32
  0
VERTEX
  8
0
  5
5222
 10
1530.18
 20
348.734
 30
3.48300e-013
  70
    32
  0
VERTEX
  8
0
  5
5223
 10
1530.18
 20
348.694
 30
3.48300e-013
  70
    32
  0
VERTEX
  8
0
  5
5224
 10
1530.18
 20
348.655
 30
3.48300e-013
  70
    32
  0
VERTEX
  8
0
  5
5225
 10
1530.18
 20
348.615
 30
3.48300e-013
  70
    32
  0
VERTEX
  8
0
  5
5226
 10
1530.19
 20
348.575
 30
3.48300e-013
  70
    32
  0
VERTEX
  8
0
  5
5227
 10
1530.19
 20
348.535
 30
3.48300e-013
  70
    32
  0
VERTEX
  8
0
  5
5228
 10
1530.19
 20
348.495
 30
3.48300e-013
  70
    32
  0
VERTEX
  8
0
  5
5229
 10
1530.19
 20
348.456
 30
3.48300e-013
  70
    32
  0
VERTEX
  8
0
  5
522A
 10
1530.19
 20
348.416
 30
3.48300e-013
  70
    32
  0
VERTEX
  8
0
  5
522B
 10
1530.20
 20
348.376
 30
3.48300e-013
  70
    32
  0
VERTEX
  8
0
  5
522C
 10
1530.20
 20
348.337
 30
3.48300e-013
  70
    32
  0
VERTEX
  8
0
  5
522D
 10
1530.20
 20
348.297
 30
3.48300e-013
  70
    32
  0
VERTEX
  8
0
  5
522E
 10
1530.20
 20
348.257
 30
3.48300e-013
  70
    32
  0
VERTEX
  8
0
  5
522F
 10
1530.20
 20
348.218
 30
3.48300e-013
  70
    32
  0
VERTEX
  8
0
  5
5230
 10
1530.21
 20
348.178
 30
3.48300e-013
  70
    32
  0
VERTEX
  8
0
  5
5231
 10
1530.21
 20
348.138
 30
3.48300e-013
  70
    32
  0
VERTEX
  8
0
  5
5232
 10
1530.21
 20
348.099
 30
3.48300e-013
  70
    32
  0
VERTEX
  8
0
  5
5233
 10
1530.21
 20
348.059
 30
3.48300e-013
  70
    32
  0
VERTEX
  8
0
  5
5234
 10
1530.21
 20
348.020
 30
3.48300e-013
  70
    32
  0
VERTEX
  8
0
  5
5235
 10
1530.21
 20
347.980
 30
3.48300e-013
  70
    32
  0
VERTEX
  8
0
  5
5236
 10
1530.22
 20
347.940
 30
3.48300e-013
  70
    32
  0
VERTEX
  8
0
  5
5237
 10
1530.22
 20
347.901
 30
3.48300e-013
  70
    32
  0
VERTEX
  8
0
  5
5238
 10
1530.22
 20
347.861
 30
3.48300e-013
  70
    32
  0
VERTEX
  8
0
  5
5239
 10
1530.22
 20
347.822
 30
3.48300e-013
  70
    32
  0
VERTEX
  8
0
  5
523A
 10
1530.22
 20
347.782
 30
3.48300e-013
  70
    32
  0
VERTEX
  8
0
  5
523B
 10
1530.23
 20
347.743
 30
3.48300e-013
  70
    32
  0
VERTEX
  8
0
  5
523C
 10
1530.23
 20
347.704
 30
3.48300e-013
  70
    32
  0
VERTEX
  8
0
  5
523D
 10
1530.23
 20
347.664
 30
3.48300e-013
  70
    32
  0
VERTEX
  8
0
  5
523E
 10
1530.23
 20
347.625
 30
3.48300e-013
  70
    32
  0
VERTEX
  8
0
  5
523F
 10
1530.23
 20
347.585
 30
3.48300e-013
  70
    32
  0
VERTEX
  8
0
  5
5240
 10
1530.23
 20
347.546
 30
3.48300e-013
  70
    32
  0
VERTEX
  8
0
  5
5241
 10
1530.24
 20
347.507
 30
3.48300e-013
  70
    32
  0
VERTEX
  8
0
  5
5242
 10
1530.24
 20
347.467
 30
3.48300e-013
  70
    32
  0
VERTEX
  8
0
  5
5243
 10
1530.24
 20
347.428
 30
3.48300e-013
  70
    32
  0
VERTEX
  8
0
  5
5244
 10
1530.24
 20
347.389
 30
3.48300e-013
  70
    32
  0
VERTEX
  8
0
  5
5245
 10
1530.24
 20
347.350
 30
3.48300e-013
  70
    32
  0
VERTEX
  8
0
  5
5246
 10
1530.24
 20
347.310
 30
3.48300e-013
  70
    32
  0
VERTEX
  8
0
  5
5247
 10
1530.25
 20
347.271
 30
3.48300e-013
  70
    32
  0
VERTEX
  8
0
  5
5248
 10
1530.25
 20
347.232
 30
3.48300e-013
  70
    32
  0
VERTEX
  8
0
  5
5249
 10
1530.25
 20
347.193
 30
3.48300e-013
  70
    32
  0
VERTEX
  8
0
  5
524A
 10
1530.25
 20
347.154
 30
3.48300e-013
  70
    32
  0
VERTEX
  8
0
  5
524B
 10
1530.25
 20
347.114
 30
3.48300e-013
  70
    32
  0
VERTEX
  8
0
  5
524C
 10
1530.25
 20
347.075
 30
3.48300e-013
  70
    32
  0
VERTEX
  8
0
  5
524D
 10
1530.26
 20
347.036
 30
3.48300e-013
  70
    32
  0
VERTEX
  8
0
  5
524E
 10
1530.26
 20
346.997
 30
3.48300e-013
  70
    32
  0
VERTEX
  8
0
  5
524F
 10
1530.26
 20
346.958
 30
3.48300e-013
  70
    32
  0
VERTEX
  8
0
  5
5250
 10
1530.26
 20
346.919
 30
3.48300e-013
  70
    32
  0
VERTEX
  8
0
  5
5251
 10
1530.26
 20
346.880
 30
3.48300e-013
  70
    32
  0
VERTEX
  8
0
  5
5252
 10
1530.26
 20
346.841
 30
3.48300e-013
  70
    32
  0
VERTEX
  8
0
  5
5253
 10
1530.26
 20
346.802
 30
3.48300e-013
  70
    32
  0
VERTEX
  8
0
  5
5254
 10
1530.26
 20
346.763
 30
3.48300e-013
  70
    32
  0
VERTEX
  8
0
  5
5255
 10
1530.27
 20
346.724
 30
3.48300e-013
  70
    32
  0
VERTEX
  8
0
  5
5256
 10
1530.27
 20
346.685
 30
3.48300e-013
  70
    32
  0
VERTEX
  8
0
  5
5257
 10
1530.27
 20
346.646
 30
3.48300e-013
  70
    32
  0
VERTEX
  8
0
  5
5258
 10
1530.27
 20
346.607
 30
3.48300e-013
  70
    32
  0
VERTEX
  8
0
  5
5259
 10
1530.27
 20
346.569
 30
3.48300e-013
  70
    32
  0
VERTEX
  8
0
  5
525A
 10
1530.27
 20
346.530
 30
3.48300e-013
  70
    32
  0
VERTEX
  8
0
  5
525B
 10
1530.27
 20
346.491
 30
3.48300e-013
  70
    32
  0
VERTEX
  8
0
  5
525C
 10
1530.27
 20
346.452
 30
3.48300e-013
  70
    32
  0
VERTEX
  8
0
  5
525D
 10
1530.28
 20
346.414
 30
3.48300e-013
  70
    32
  0
VERTEX
  8
0
  5
525E
 10
1530.28
 20
346.375
 30
3.48300e-013
  70
    32
  0
VERTEX
  8
0
  5
525F
 10
1530.28
 20
346.336
 30
3.48300e-013
  70
    32
  0
VERTEX
  8
0
  5
5260
 10
1530.28
 20
346.297
 30
3.48300e-013
  70
    32
  0
VERTEX
  8
0
  5
5261
 10
1530.28
 20
346.259
 30
3.48300e-013
  70
    32
  0
VERTEX
  8
0
  5
5262
 10
1530.28
 20
346.220
 30
3.48300e-013
  70
    32
  0
VERTEX
  8
0
  5
5263
 10
1530.28
 20
346.182
 30
3.48300e-013
  70
    32
  0
VERTEX
  8
0
  5
5264
 10
1530.28
 20
346.143
 30
3.48300e-013
  70
    32
  0
VERTEX
  8
0
  5
5265
 10
1530.28
 20
346.104
 30
3.48300e-013
  70
    32
  0
VERTEX
  8
0
  5
5266
 10
1530.29
 20
346.066
 30
3.48300e-013
  70
    32
  0
VERTEX
  8
0
  5
5267
 10
1530.29
 20
346.027
 30
3.48300e-013
  70
    32
  0
VERTEX
  8
0
  5
5268
 10
1530.29
 20
345.989
 30
3.48300e-013
  70
    32
  0
VERTEX
  8
0
  5
5269
 10
1530.29
 20
345.950
 30
3.48300e-013
  70
    32
  0
VERTEX
  8
0
  5
526A
 10
1530.29
 20
345.912
 30
3.48300e-013
  70
    32
  0
VERTEX
  8
0
  5
526B
 10
1530.29
 20
345.874
 30
3.48300e-013
  70
    32
  0
VERTEX
  8
0
  5
526C
 10
1530.29
 20
345.835
 30
3.48300e-013
  70
    32
  0
VERTEX
  8
0
  5
526D
 10
1530.29
 20
345.797
 30
3.48300e-013
  70
    32
  0
VERTEX
  8
0
  5
526E
 10
1530.29
 20
345.759
 30
3.48300e-013
  70
    32
  0
VERTEX
  8
0
  5
526F
 10
1530.29
 20
345.720
 30
3.48300e-013
  70
    32
  0
VERTEX
  8
0
  5
5270
 10
1530.29
 20
345.682
 30
3.48300e-013
  70
    32
  0
VERTEX
  8
0
  5
5271
 10
1530.29
 20
345.644
 30
3.48300e-013
  70
    32
  0
VERTEX
  8
0
  5
5272
 10
1530.29
 20
345.606
 30
3.48300e-013
  70
    32
  0
VERTEX
  8
0
  5
5273
 10
1530.30
 20
345.567
 30
3.48300e-013
  70
    32
  0
VERTEX
  8
0
  5
5274
 10
1530.30
 20
345.529
 30
3.48300e-013
  70
    32
  0
VERTEX
  8
0
  5
5275
 10
1530.30
 20
345.491
 30
3.48300e-013
  70
    32
  0
VERTEX
  8
0
  5
5276
 10
1530.30
 20
345.453
 30
3.48300e-013
  70
    32
  0
VERTEX
  8
0
  5
5277
 10
1530.30
 20
345.415
 30
3.48300e-013
  70
    32
  0
VERTEX
  8
0
  5
5278
 10
1530.30
 20
345.377
 30
3.48300e-013
  70
    32
  0
VERTEX
  8
0
  5
5279
 10
1530.30
 20
345.339
 30
3.48300e-013
  70
    32
  0
VERTEX
  8
0
  5
527A
 10
1530.30
 20
345.301
 30
3.48300e-013
  70
    32
  0
VERTEX
  8
0
  5
527B
 10
1530.30
 20
345.263
 30
3.48300e-013
  70
    32
  0
VERTEX
  8
0
  5
527C
 10
1530.30
 20
345.225
 30
3.48300e-013
  70
    32
  0
VERTEX
  8
0
  5
527D
 10
1530.30
 20
345.187
 30
3.48300e-013
  70
    32
  0
VERTEX
  8
0
  5
527E
 10
1530.30
 20
345.149
 30
3.48300e-013
  70
    32
  0
VERTEX
  8
0
  5
527F
 10
1530.30
 20
345.111
 30
3.48300e-013
  70
    32
  0
VERTEX
  8
0
  5
5280
 10
1530.30
 20
345.074
 30
3.48300e-013
  70
    32
  0
VERTEX
  8
0
  5
5281
 10
1530.30
 20
345.036
 30
3.48300e-013
  70
    32
  0
VERTEX
  8
0
  5
5282
 10
1530.30
 20
344.998
 30
3.48300e-013
  70
    32
  0
VERTEX
  8
0
  5
5283
 10
1530.30
 20
344.960
 30
3.48300e-013
  70
    32
  0
VERTEX
  8
0
  5
5284
 10
1530.30
 20
344.923
 30
3.48300e-013
  70
    32
  0
VERTEX
  8
0
  5
5285
 10
1530.30
 20
344.885
 30
3.48300e-013
  70
    32
  0
VERTEX
  8
0
  5
5286
 10
1530.30
 20
344.847
 30
3.48300e-013
  70
    32
  0
VERTEX
  8
0
  5
5287
 10
1530.30
 20
344.810
 30
3.48300e-013
  70
    32
  0
VERTEX
  8
0
  5
5288
 10
1530.30
 20
344.772
 30
3.48300e-013
  70
    32
  0
SEQEND
  8
0
  5
5289
  0
LINE
  5
45B2
  8
0
  6
VERDECKT
 62
     1
 10
1530.3017150103969
 20
485.62848099074222
 30
0.0000000000003411
 11
1530.3017150103969
 21
231.62848099074219
 31
0.0000000000003411
  0
LINE
  5
45B3
  8
0
  6
VERDECKT
 62
     1
 10
1528.2995761315949
 20
233.63061986954401
 30
0.0000000000003411
 11
1528.3017150103969
 21
233.62848099074219
 31
0.0000000000003411
  0
LINE
  5
45B4
  8
0
  6
VERDECKT
 62
     1
 10
1530.3017150103969
 20
485.6284809907421
 30
0.0000000000003411
 11
1528.3017150103969
 21
483.62848099074228
 31
0.0000000000003411
  0
LINE
  5
45B5
  8
0
  6
VERDECKT
 62
     1
 10
1328.3017150103969
 20
483.62848099074188
 30
0.0000000000003126
 11
1326.3017150103969
 21
485.6284809907421
 31
0.0000000000003126
  0
LINE
  5
45B6
  8
0
  6
VERDECKT
 62
     1
 10
1528.3017150103969
 20
233.62848099074191
 30
0.0000000000003411
 11
1530.3017150103969
 21
231.62848099074219
 31
0.0000000000003411
  0
LINE
  5
45B7
  8
0
  6
VERDECKT
 62
     1
 10
1528.3017150103969
 20
483.62848099074222
 30
0.0000000000003411
 11
1528.2995761315949
 21
483.62634211194029
 31
0.0000000000003411
  0
LINE
  5
45B8
  8
0
  6
VERDECKT
 62
     1
 10
1330.3017150103969
 20
481.6284809907421
 30
0.0000000000003126
 11
1328.3017150103969
 21
483.62848099074222
 31
0.0000000000003126
  0
LINE
  5
45B9
  8
0
  6
VERDECKT
 62
     1
 10
1326.3017150103969
 20
231.62848099074219
 30
0.0000000000003126
 11
1328.3017150103969
 21
233.62848099074239
 31
0.0000000000003126
  0
LINE
  5
45BA
  8
0
  6
VERDECKT
 62
     1
 10
1328.3017150103969
 20
233.62848099074219
 30
0.0000000000003126
 11
1330.3017150103969
 21
235.62848099074219
 31
0.0000000000003126
  0
LINE
  5
45BB
  8
0
  6
VERDECKT
 62
     1
 10
1328.3017150103969
 20
233.62848099074219
 30
0.0000000000003126
 11
1328.3017150103969
 21
483.62848099074222
 31
0.0000000000003126
  0
LINE
  5
45BC
  8
0
  6
VERDECKT
 62
     1
 10
1427.4732878856501
 20
233.62848099074219
 30
0.0000000000003126
 11
1404.30385046176
 21
233.62848099074219
 31
0.0000000000003074
  0
LINE
  5
45BD
  8
0
  6
VERDECKT
 62
     1
 10
1343.3038504617609
 20
233.62848099074219
 30
0.0000000000003126
 11
1328.3017150103969
 21
233.62848099074219
 31
0.0000000000003092
  0
LINE
  5
45BE
  8
0
  6
VERDECKT
 62
     1
 10
1428.3038504617609
 20
233.62848099074219
 30
0.0000000000003126
 11
1427.4732878856501
 21
233.62848099074219
 31
0.0000000000003126
  0
LINE
  5
45BF
  8
0
  6
VERDECKT
 62
     1
 10
1427.4732878856501
 20
483.62848099074222
 30
0.0000000000003126
 11
1428.3038504617609
 21
483.62848099074222
 31
0.0000000000003126
  0
LINE
  5
45C0
  8
0
  6
VERDECKT
 62
     1
 10
1328.3017150103969
 20
483.62848099074222
 30
0.0000000000003126
 11
1343.3038504617609
 21
483.62848099074222
 31
0.0000000000003161
  0
LINE
  5
45C1
  8
0
  6
VERDECKT
 62
     1
 10
1404.30385046176
 20
483.62848099074222
 30
0.0000000000003126
 11
1427.4732878856501
 21
483.62848099074222
 31
0.0000000000003179
  0
LINE
  5
45C2
  8
0
  6
VERDECKT
 62
     1
 10
1430.301715010396
 20
231.62848099074219
 30
0.0000000000003126
 11
1530.3017150103969
 21
231.62848099074219
 31
0.0000000000003411
  0
LINE
  5
45C3
  8
0
  6
VERDECKT
 62
     1
 10
1530.3017150103969
 20
485.62848099074222
 30
0.0000000000003411
 11
1430.301715010396
 21
485.62848099074222
 31
0.0000000000003126
  0
LINE
  5
45C4
  8
0
  6
VERDECKT
 62
     1
 10
1427.4732878856501
 20
231.62848099074219
 30
0.0000000000003126
 11
1430.301715010396
 21
231.62848099074219
 31
0.0000000000003126
  0
LINE
  5
45C5
  8
0
  6
VERDECKT
 62
     1
 10
1326.3017150103969
 20
485.62848099074222
 30
0.0000000000003126
 11
1326.3017150103969
 21
231.62848099074219
 31
0.0000000000003126
  0
LINE
  5
45C6
  8
0
  6
VERDECKT
 62
     1
 10
1427.4732878856501
 20
485.62848099074222
 30
0.0000000000003126
 11
1326.3017150103969
 21
485.62848099074222
 31
0.0000000000002896
  0
LINE
  5
45C7
  8
0
  6
VERDECKT
 62
     1
 10
1326.3017150103969
 20
231.62848099074219
 30
0.0000000000003126
 11
1427.4732878856501
 21
231.62848099074219
 31
0.0000000000003357
  0
LINE
  5
45C8
  8
0
  6
VERDECKT
 62
     1
 10
1430.301715010396
 20
485.62848099074222
 30
0.0000000000003126
 11
1427.4732878856501
 21
485.62848099074222
 31
0.0000000000003126
  0
LINE
  5
45C9
  8
0
  6
VERDECKT
 62
     1
 10
1530.3017150103969
 20
309.62848099074222
 30
0.0000000000003411
 11
1528.301715010396
 21
309.62848099074222
 31
0.0000000000003406
  0
LINE
  5
45CA
  8
0
  6
VERDECKT
 62
     1
 10
1530.3017150103969
 20
407.62848099074222
 30
0.0000000000003411
 11
1528.301715010396
 21
407.62848099074222
 31
0.0000000000003406
  0
ENDBLK
  5
45CC
  8
0
  0
ENDSEC
  0
SECTION
  2
ENTITIES
  0
INSERT
  5
44EA
  8
VOLL
  2
A$C588C64FF
 10
1042.593176263744
 20
384.4165720222677
 30
-0.0000000000000568
  0
INSERT
  5
45CD
  8
VOLL
  2
A$C5C3565A8
 10
1042.593176263744
 20
-172.90519716928699
 30
-0.0000000000003411
  0
VIEWPORT
  5
3914
 67
     1
  8
0
 10
4.9230828927047394
 20
4.5908654529516726
 30
0.0
 40
14.951601234955589
 41
7.083357422393088
 68
     1
 69
     1
1001
ACAD
1000
MVIEW
1002
{
1070
    16
1010
0.0
1020
0.0
1030
0.0
1010
0.0
1020
0.0
1030
1.0
1040
0.0
1040
7.083357422393088
1040
4.9230828927047394
1040
4.5908654529516726
1040
50.0
1040
0.0
1040
0.0
1070
     0
1070
   500
1070
     1
1070
     1
1070
     0
1070
     0
1070
     0
1070
     0
1040
0.0
1040
0.0
1040
0.0
1040
10.0
1040
10.0
1040
10.0
1040
10.0
1070
     0
1002
{
1002
}
1002
}
  0
VIEWPORT
  5
3918
 67
     1
  8
RAHMEN
 10
2.9442720110460741
 20
4.2380817131959647
 30
0.0
 40
3.7885441174595789
 41
2.7487628792866832
 68
     2
 69
     2
1001
ACAD
1000
MVIEW
1002
{
1070
    16
1010
862.77666399680345
1020
873.04209125590398
1030
951.09254728061001
1010
0.0
1020
0.0
1030
1.0
1040
0.0
1040
636.27936192451295
1040
-431.82134352889852
1040
-575.68275784175796
1040
50.0
1040
0.0
1040
0.0
1070
     0
1070
   500
1070
     1
1070
     0
1070
     0
1070
     0
1070
     0
1070
     0
1040
0.0
1040
0.0
1040
0.0
1040
2.5
1040
2.5
1040
20.0
1040
20.0
1070
     0
1002
{
1002
}
1002
}
  0
ENDSEC
  0
EOF
