  0
SECTION
  2
HEADER
  9
$ACADVER
  1
AC1009
  9
$INSBASE
 10
0.0
 20
0.0
 30
0.0
  9
$EXTMIN
 10
-650.0
 20
-400.0000000000001137
 30
-0.0000000000000355
  9
$EXTMAX
 10
255.0
 20
160.0000000000001137
 30
0.0
  9
$LIMMIN
 10
0.0
 20
0.0
  9
$LIMMAX
 10
594.0
 20
840.0
  9
$ORTHOMODE
 70
     1
  9
$REGENMODE
 70
     1
  9
$FILLMODE
 70
     1
  9
$QTEXTMODE
 70
     0
  9
$MIRRTEXT
 70
     1
  9
$DRAGMODE
 70
     2
  9
$LTSCALE
 40
10.0
  9
$OSMODE
 70
   511
  9
$ATTMODE
 70
     1
  9
$TEXTSIZE
 40
3.5
  9
$TRACEWID
 40
1.0
  9
$TEXTSTYLE
  7
STANDARD
  9
$CLAYER
  8
STEMPEL
  9
$CELTYPE
  6
BYLAYER
  9
$CECOLOR
 62
   256
  9
$DIMSCALE
 40
1.0
  9
$DIMASZ
 40
3.5
  9
$DIMEXO
 40
1.0
  9
$DIMDLI
 40
0.38
  9
$DIMRND
 40
0.0
  9
$DIMDLE
 40
0.0
  9
$DIMEXE
 40
1.0
  9
$DIMTP
 40
0.0
  9
$DIMTM
 40
0.000000001
  9
$DIMTXT
 40
3.5
  9
$DIMCEN
 40
0.09
  9
$DIMTSZ
 40
0.0
  9
$DIMTOL
 70
     0
  9
$DIMLIM
 70
     0
  9
$DIMTIH
 70
     0
  9
$DIMTOH
 70
     0
  9
$DIMSE1
 70
     0
  9
$DIMSE2
 70
     0
  9
$DIMTAD
 70
     1
  9
$DIMZIN
 70
     8
  9
$DIMBLK
  1

  9
$DIMASO
 70
     1
  9
$DIMSHO
 70
     0
  9
$DIMPOST
  1

  9
$DIMAPOST
  1

  9
$DIMALT
 70
     0
  9
$DIMALTD
 70
     2
  9
$DIMALTF
 40
25.3999999999999986
  9
$DIMLFAC
 40
2.0
  9
$DIMTOFL
 70
     1
  9
$DIMTVP
 40
0.0
  9
$DIMTIX
 70
     0
  9
$DIMSOXD
 70
     0
  9
$DIMSAH
 70
     0
  9
$DIMBLK1
  1

  9
$DIMBLK2
  1

  9
$DIMSTYLE
  2
LORO
  9
$DIMCLRD
 70
     0
  9
$DIMCLRE
 70
     0
  9
$DIMCLRT
 70
     1
  9
$DIMTFAC
 40
0.5
  9
$DIMGAP
 40
1.5
  9
$LUNITS
 70
     2
  9
$LUPREC
 70
     2
  9
$SKETCHINC
 40
1.0
  9
$FILLETRAD
 40
3.0
  9
$AUNITS
 70
     0
  9
$AUPREC
 70
     0
  9
$MENU
  1
ACAD
  9
$ELEVATION
 40
0.0
  9
$PELEVATION
 40
0.0
  9
$THICKNESS
 40
0.0
  9
$LIMCHECK
 70
     0
  9
$BLIPMODE
 70
     0
  9
$CHAMFERA
 40
0.0
  9
$CHAMFERB
 40
0.0
  9
$SKPOLY
 70
     0
  9
$TDCREATE
 40
2455397.867048610933125
  9
$TDUPDATE
 40
2460728.5760879628360271
  9
$TDINDWG
 40
2.8440224769000002
  9
$TDUSRTIMER
 40
2.8440224769000002
  9
$USRTIMER
 70
     1
  9
$ANGBASE
 50
0.0
  9
$ANGDIR
 70
     0
  9
$PDMODE
 70
     0
  9
$PDSIZE
 40
0.0
  9
$PLINEWID
 40
0.0
  9
$COORDS
 70
     1
  9
$SPLFRAME
 70
     0
  9
$SPLINETYPE
 70
     6
  9
$SPLINESEGS
 70
     8
  9
$ATTDIA
 70
     1
  9
$ATTREQ
 70
     1
  9
$HANDLING
 70
     1
  9
$HANDSEED
  5
25682
  9
$SURFTAB1
 70
     6
  9
$SURFTAB2
 70
     6
  9
$SURFTYPE
 70
     6
  9
$SURFU
 70
     6
  9
$SURFV
 70
     6
  9
$UCSNAME
  2

  9
$UCSORG
 10
0.0
 20
0.0
 30
0.0
  9
$UCSXDIR
 10
1.0
 20
0.0
 30
0.0
  9
$UCSYDIR
 10
0.0
 20
1.0
 30
0.0
  9
$PUCSNAME
  2

  9
$PUCSORG
 10
0.0
 20
0.0
 30
0.0
  9
$PUCSXDIR
 10
1.0
 20
0.0
 30
0.0
  9
$PUCSYDIR
 10
0.0
 20
1.0
 30
0.0
  9
$USERI1
 70
     0
  9
$USERI2
 70
     0
  9
$USERI3
 70
     0
  9
$USERI4
 70
     0
  9
$USERI5
 70
     0
  9
$USERR1
 40
0.0
  9
$USERR2
 40
0.0
  9
$USERR3
 40
0.0
  9
$USERR4
 40
0.0
  9
$USERR5
 40
0.0
  9
$WORLDVIEW
 70
     1
  9
$SHADEDGE
 70
     3
  9
$SHADEDIF
 70
    70
  9
$TILEMODE
 70
     1
  9
$MAXACTVP
 70
    16
  9
$PLIMCHECK
 70
     0
  9
$PEXTMIN
 10
1.0000000000000000E+20
 20
1.0000000000000000E+20
 30
1.0000000000000000E+20
  9
$PEXTMAX
 10
-1.0000000000000000E+20
 20
-1.0000000000000000E+20
 30
-1.0000000000000000E+20
  9
$PLIMMIN
 10
-0.2349439406766578
 20
-0.2452808668446664
  9
$PLIMMAX
 10
593.7650560593233422
 20
419.7547191331552767
  9
$UNITMODE
 70
     0
  9
$VISRETAIN
 70
     0
  9
$PLINEGEN
 70
     0
  9
$PSLTSCALE
 70
     0
  0
ENDSEC
  0
SECTION
  2
TABLES
  0
TABLE
  2
VPORT
 70
     1
  0
VPORT
  2
*ACTIVE
 70
     0
 10
0.0
 20
0.0
 11
1.0
 21
1.0
 12
-237.5
 22
-287.5
 13
0.0
 23
0.0
 14
1.0
 24
1.0
 15
10.0
 25
10.0
 16
0.0000000000004121
 26
0.0
 36
1852.0948372765979002
 17
40.0
 27
167.4999999999998863
 37
-0.0000000000000178
 40
562.8865979381446323
 41
1.8847807394668961
 42
50.0
 43
0.0
 44
0.0
 50
0.0
 51
0.0
 71
     0
 72
  1500
 73
     1
 74
     0
 75
     0
 76
     0
 77
     0
 78
     0
  0
ENDTAB
  0
TABLE
  2
LTYPE
 70
     3
  0
LTYPE
  2
CONTINUOUS
 70
     0
  3
Solid line
 72
    65
 73
     0
 40
0.0
  0
LTYPE
  2
STRICHPUNKT
 70
     0
  3
__ . __ . __ . __ . __ . __ . __ . __ . __ . __
 72
    65
 73
     4
 40
1.0
 49
0.5
 49
-0.25
 49
0.0
 49
-0.25
  0
LTYPE
  2
VERDECKT
 70
     0
  3
Verdeckt __ __ __ __ __ __ __ __ __ __ __ __ __
 72
    65
 73
     2
 40
0.375
 49
0.25
 49
-0.125
  0
ENDTAB
  0
TABLE
  2
LAYER
 70
     5
  0
LAYER
  2
0
 70
     0
 62
     7
  6
CONTINUOUS
  0
LAYER
  2
STEMPEL
 70
     0
 62
     3
  6
CONTINUOUS
  0
LAYER
  2
ADSK_ASSOC_ENTITY_BACKUPS
 70
     1
 62
    -7
  6
CONTINUOUS
  0
ENDTAB
  0
TABLE
  2
STYLE
 70
     2
  0
STYLE
  2
STANDARD
 70
     0
 40
0.0
 41
0.8
 50
0.0
 71
     0
 42
3.5
  3
simplex.shx
  4

  0
ENDTAB
  0
TABLE
  2
VIEW
 70
     0
  0
ENDTAB
  0
TABLE
  2
UCS
 70
     0
  0
ENDTAB
  0
TABLE
  2
APPID
 70
    31
  0
APPID
  2
ACAD
 70
     0
  0
APPID
  2
ACAECLAYERSTANDARD
 70
     0
  0
APPID
  2
ACCMTRANSPARENCY
 70
     0
  0
APPID
  2
ACAD_NAV_VCDISPLAY
 70
     0
  0
APPID
  2
ACAD_PSEXT
 70
     0
  0
APPID
  2
ACAD_STEPID
 70
     0
  0
APPID
  2
ACAD_EXEMPT_FROM_CAD_STANDARDS
 70
     0
  0
APPID
  2
ACSYNERGY
 70
     0
  0
APPID
  2
SYNERGY_BODY_TBR_ID
 70
     0
  0
APPID
  2
ACAD_VIEW_EDGE_ID
 70
     0
  0
APPID
  2
GRADIENTCOLOR1ACI
 70
     0
  0
APPID
  2
GRADIENTCOLOR2ACI
 70
     0
  0
APPID
  2
ACAD_DSTYLE_DIMRADIAL_EXTENSION
 70
     0
  0
APPID
  2
ACADANNOMONITORALERTICONDI
 70
     0
  0
APPID
  2
ACAD_MLEADERVER
 70
     0
  0
APPID
  2
ACSYNERGYSKETCH
 70
     0
  0
APPID
  2
ACAD_MODELDOC_XFORM
 70
     0
  0
APPID
  2
ACDBDYNAMICBLOCKGUID
 70
     0
  0
APPID
  2
ACAD_DSTYLE_DIMJAG
 70
     0
  0
APPID
  2
ACAD_DSTYLE_DIMBREAK
 70
     0
  0
APPID
  2
ACAD_DSTYLE_DIMTALN
 70
     0
  0
APPID
  2
ACADANNOPO
 70
     0
  0
APPID
  2
PLOTTRANSPARENCY
 70
     0
  0
APPID
  2
ACADANNOTATIVE
 70
     0
  0
APPID
  2
ACAD_DIMASSOC_CALC_DIMLFAC
 70
     0
  0
APPID
  2
ACAD_DIMASSOC_DIMLFAC
 70
     0
  0
APPID
  2
ACAD_DIMASSOC_OVERRIDDEN_D
 70
     0
  0
APPID
  2
ACADANNOAV
 70
     0
  0
APPID
  2
ACAUTHENVIRON
 70
     0
  0
APPID
  2
ACDBDYNAMICBLOCKTRUENAME
 70
     0
  0
APPID
  2
SYNERGY_EXCLUDED_FROM_SNAPSHOT
 70
     0
  0
ENDTAB
  0
TABLE
  2
DIMSTYLE
 70
     1
  0
DIMSTYLE
  2
LORO
 70
     0
  3

  4

  5

  6

  7

 40
1.0
 41
3.5
 42
1.0
 43
0.38
 44
1.0
 45
0.0
 46
0.0
 47
0.0
 48
0.000000001
140
3.5
141
0.09
142
0.0
143
25.3999999999999986
144
2.0
145
0.0
146
0.5
147
1.5
 71
     0
 72
     0
 73
     0
 74
     0
 75
     0
 76
     0
 77
     1
 78
     8
170
     0
171
     2
172
     1
173
     0
174
     0
175
     0
176
     0
177
     0
178
     1
  0
ENDTAB
  0
ENDSEC
  0
SECTION
  2
BLOCKS
  0
BLOCK
  8
0
  2
$MODEL_SPACE
 70
     0
 10
0.0
 20
0.0
 30
0.0
  3
$MODEL_SPACE
  1

  0
ENDBLK
  5
38
  8
0
  0
BLOCK
 67
     1
  8
0
  2
$PAPER_SPACE
 70
     0
 10
0.0
 20
0.0
 30
0.0
  3
$PAPER_SPACE
  1

  0
ENDBLK
  5
36
 67
     1
  8
0
  0
BLOCK
  8
0
  2
*S0
 70
     1
 10
0.0
 20
0.0
 30
0.0
  3
*S0
  1

  0
ENDBLK
  5
7128
  8
0
  0
BLOCK
  8
0
  2
A$CCA3FC516
 70
     0
 10
0.0
 20
0.0
 30
0.0
  3
A$CCA3FC516
  1

  0
LINE
  5
255AC
  8
0
  6
CONTINUOUS
 62
     3
 10
-243.0
 20
160.0
 30
-0.0000000000000355
 11
-241.0
 21
158.0
 31
-0.0000000000000351
210
0.0
220
1.0
230
-0.0000000000000002
  0
LINE
  5
255AD
  8
0
  6
CONTINUOUS
 62
     3
 10
-241.0
 20
158.0
 30
-0.0000000000000351
 11
-239.0
 21
158.0
 31
-0.0000000000000351
210
0.0
220
1.0
230
-0.0000000000000002
  0
LINE
  5
255AE
  8
0
  6
CONTINUOUS
 62
     3
 10
-239.0
 20
160.0
 30
-0.0000000000000355
 11
-243.0
 21
160.0
 31
-0.0000000000000355
210
0.0
220
1.0
230
-0.0000000000000002
  0
LINE
  5
255AF
  8
0
  6
CONTINUOUS
 62
     3
 10
239.0
 20
160.0
 30
-0.0000000000000355
 11
-239.0
 21
160.0
 31
-0.0000000000000355
210
0.0
220
1.0
230
-0.0000000000000002
  0
LINE
  5
255B0
  8
0
  6
CONTINUOUS
 62
     3
 10
-239.0
 20
158.0
 30
-0.0000000000000351
 11
239.0
 21
158.0
 31
-0.0000000000000351
210
0.0
220
1.0
230
-0.0000000000000002
  0
LINE
  5
255B1
  8
0
  6
CONTINUOUS
 62
     3
 10
239.0
 20
158.0
 30
-0.0000000000000351
 11
241.0
 21
158.0
 31
-0.0000000000000351
210
0.0
220
1.0
230
-0.0000000000000002
  0
LINE
  5
255B2
  8
0
  6
CONTINUOUS
 62
     3
 10
243.0
 20
160.0
 30
-0.0000000000000355
 11
239.0
 21
160.0
 31
-0.0000000000000355
210
0.0
220
1.0
230
-0.0000000000000002
  0
LINE
  5
255B3
  8
0
  6
CONTINUOUS
 62
     3
 10
241.0
 20
158.0
 30
-0.0000000000000351
 11
243.0
 21
160.0000000000001137
 31
-0.0000000000000355
210
0.0
220
1.0
230
-0.0000000000000002
  0
LINE
  5
255B4
  8
0
  6
CONTINUOUS
 62
     3
 10
-241.0
 20
150.0
 30
-0.0000000000000333
 11
-241.0
 21
158.0
 31
-0.0000000000000351
210
0.0
220
1.0
230
-0.0000000000000002
  0
LINE
  5
255B5
  8
0
  6
CONTINUOUS
 62
     3
 10
243.0
 20
160.0
 30
-0.0000000000000355
 11
255.0
 21
160.0
 31
-0.0000000000000355
210
0.0
220
1.0
230
-0.0000000000000002
  0
LINE
  5
255B6
  8
0
  6
CONTINUOUS
 62
     3
 10
-255.0
 20
160.0
 30
-0.0000000000000355
 11
-243.0
 21
160.0
 31
-0.0000000000000355
210
0.0
220
1.0
230
-0.0000000000000002
  0
LINE
  5
255B7
  8
0
  6
CONTINUOUS
 62
     3
 10
241.0
 20
158.0
 30
-0.0000000000000351
 11
241.0
 21
150.0
 31
-0.0000000000000333
210
0.0
220
1.0
230
-0.0000000000000002
  0
LINE
  5
255B8
  8
0
  6
CONTINUOUS
 62
     3
 10
241.0
 20
150.0
 30
-0.0000000000000333
 11
133.0
 21
150.0
 31
-0.0000000000000333
210
0.0
220
1.0
230
-0.0000000000000002
  0
LINE
  5
255B9
  8
0
  6
CONTINUOUS
 62
     3
 10
128.0
 20
145.0
 30
-0.0000000000000322
 11
133.0
 21
150.0
 31
-0.0000000000000333
210
0.0
220
1.0
230
-0.0000000000000002
  0
LINE
  5
255BA
  8
0
  6
CONTINUOUS
 62
     3
 10
128.0
 20
145.0
 30
-0.0000000000000322
 11
128.0
 21
104.0
 31
-0.0000000000000231
210
0.0
220
1.0
230
-0.0000000000000002
  0
ARC
  5
255BB
  8
0
  6
CONTINUOUS
 62
     3
 10
124.0
 20
104.0
 30
-0.0000000000000231
 40
4.0000000000000142
 50
270.0
 51
359.9999999999996021
  0
LINE
  5
255BC
  8
0
  6
CONTINUOUS
 62
     3
 10
124.0
 20
100.0
 30
-0.0000000000000222
 11
-124.0
 21
100.0
 31
-0.0000000000000222
210
0.0
220
1.0
230
-0.0000000000000002
  0
ARC
  5
255BD
  8
0
  6
CONTINUOUS
 62
     3
 10
-124.0
 20
104.0
 30
-0.0000000000000231
 40
4.0000000000000142
 50
180.0000000000001137
 51
269.9999999999997726
  0
LINE
  5
255BE
  8
0
  6
CONTINUOUS
 62
     3
 10
-128.0
 20
104.0
 30
-0.0000000000000231
 11
-128.0
 21
145.0
 31
-0.0000000000000322
210
0.0
220
1.0
230
-0.0000000000000002
  0
LINE
  5
255BF
  8
0
  6
CONTINUOUS
 62
     3
 10
-133.0
 20
150.0
 30
-0.0000000000000333
 11
-128.0
 21
145.0
 31
-0.0000000000000322
210
0.0
220
1.0
230
-0.0000000000000002
  0
LINE
  5
255C0
  8
0
  6
CONTINUOUS
 62
     3
 10
-133.0
 20
150.0
 30
-0.0000000000000333
 11
-241.0
 21
150.0
 31
-0.0000000000000333
210
0.0
220
1.0
230
-0.0000000000000002
  0
LINE
  5
255C1
  8
0
  6
CONTINUOUS
 62
     3
 10
-255.0
 20
0.0
 30
0.0
 11
-255.0
 21
160.0
 31
-0.0000000000000355
210
0.0
220
1.0
230
-0.0000000000000002
  0
LINE
  5
255C2
  8
0
  6
CONTINUOUS
 62
     3
 10
-255.0
 20
0.0
 30
0.0
 11
255.0
 21
0.0
 31
0.0
210
0.0
220
1.0
230
-0.0000000000000002
  0
LINE
  5
255C3
  8
0
  6
CONTINUOUS
 62
     3
 10
255.0
 20
0.0
 30
0.0
 11
255.0
 21
160.0
 31
-0.0000000000000355
210
0.0
220
1.0
230
-0.0000000000000002
  0
LINE
  5
255C4
  8
0
  6
CONTINUOUS
 62
     3
 10
-124.0
 20
150.0
 30
-0.0000000000000333
 11
-133.0
 21
150.0
 31
-0.0000000000000333
210
0.0
220
1.0
230
-0.0000000000000002
  0
LINE
  5
255C5
  8
0
  6
CONTINUOUS
 62
     3
 10
123.9999999999999005
 20
150.0
 30
-0.0000000000000333
 11
-124.0
 21
150.0
 31
-0.0000000000000333
210
0.0
220
1.0
230
-0.0000000000000002
  0
LINE
  5
255C6
  8
0
  6
CONTINUOUS
 62
     3
 10
133.0
 20
150.0
 30
-0.0000000000000333
 11
123.9999999999999005
 21
150.0
 31
-0.0000000000000333
210
0.0
220
1.0
230
-0.0000000000000002
  0
LINE
  5
255C7
  8
0
  6
CONTINUOUS
 62
     3
 10
128.0000000000001137
 20
144.9999999999998863
 30
-0.0000000000000322
 11
123.0000000000000995
 21
140.0
 31
-0.0000000000000311
210
0.0
220
1.0
230
-0.0000000000000002
  0
LINE
  5
255C8
  8
0
  6
CONTINUOUS
 62
     3
 10
123.0
 20
140.0
 30
-0.0000000000000311
 11
123.0
 21
100.0
 31
-0.0000000000000222
210
0.0
220
1.0
230
-0.0000000000000002
  0
LINE
  5
255C9
  8
0
  6
CONTINUOUS
 62
     3
 10
-123.0
 20
140.0000000000001137
 30
-0.0000000000000311
 11
-127.9999999999999005
 21
145.0
 31
-0.0000000000000322
210
0.0
220
1.0
230
-0.0000000000000002
  0
LINE
  5
255CA
  8
0
  6
CONTINUOUS
 62
     3
 10
-128.0
 20
145.0
 30
-0.0000000000000322
 11
-124.0
 21
145.0
 31
-0.0000000000000322
210
0.0
220
1.0
230
-0.0000000000000002
  0
LINE
  5
255CB
  8
0
  6
CONTINUOUS
 62
     3
 10
-124.0
 20
145.0
 30
-0.0000000000000322
 11
123.9999999999999005
 21
145.0
 31
-0.0000000000000322
210
0.0
220
1.0
230
-0.0000000000000002
  0
LINE
  5
255CC
  8
0
  6
CONTINUOUS
 62
     3
 10
124.0
 20
145.0
 30
-0.0000000000000322
 11
128.0
 21
145.0
 31
-0.0000000000000322
210
0.0
220
1.0
230
-0.0000000000000002
  0
LINE
  5
255CD
  8
0
  6
CONTINUOUS
 62
     3
 10
-123.0
 20
140.0000000000001137
 30
-0.0000000000000311
 11
-123.0
 21
100.0
 31
-0.0000000000000222
210
0.0
220
1.0
230
-0.0000000000000002
  0
ENDBLK
  5
255CF
  8
0
  0
BLOCK
  8
0
  2
A$CE12C8E40
 70
     0
 10
0.0
 20
0.0
 30
0.0
  3
A$CE12C8E40
  1

  0
LINE
  5
255D3
  8
0
  6
CONTINUOUS
 62
     3
 10
0.0000000000000071
 20
160.0
 30
-0.0000000000000355
 11
335.0
 21
159.9999999999998863
 31
-0.0000000000000355
210
0.0000000000000002
220
1.0
230
-0.0000000000000002
  0
LINE
  5
255D4
  8
0
  6
CONTINUOUS
 62
     3
 10
-0.0000000000000284
 20
0.0
 30
0.0
 11
0.0000000000000169
 21
160.0
 31
-0.0000000000000355
210
0.0000000000000002
220
1.0
230
-0.0000000000000002
  0
LINE
  5
255D5
  8
0
  6
CONTINUOUS
 62
     3
 10
335.0
 20
-0.0000000000000949
 30
0.0
 11
335.0
 21
159.9999999999998863
 31
-0.0000000000000355
210
0.0000000000000002
220
1.0
230
-0.0000000000000002
  0
LINE
  5
255D6
  8
0
  6
CONTINUOUS
 62
     3
 10
-0.0000000000000284
 20
0.0
 30
0.0
 11
335.0
 21
-0.0000000000000949
 31
0.0
210
0.0000000000000002
220
1.0
230
-0.0000000000000002
  0
LINE
  5
255D7
  8
0
  6
VERDECKT
 62
     1
 10
320.0000000000001137
 20
157.9999999999998863
 30
-0.0000000000000351
 11
322.0000000000001137
 21
159.9999999999998863
 31
-0.0000000000000355
210
0.0000000000000002
220
1.0
230
-0.0000000000000002
  0
LINE
  5
255D8
  8
0
  6
VERDECKT
 62
     1
 10
318.0
 20
158.0
 30
-0.0000000000000351
 11
320.0000000000001137
 21
157.9999999999998863
 31
-0.0000000000000351
210
0.0000000000000002
220
1.0
230
-0.0000000000000002
  0
LINE
  5
255D9
  8
0
  6
VERDECKT
 62
     1
 10
318.0000000000001137
 20
158.0
 30
-0.0000000000000351
 11
0.0000000000000351
 21
158.0
 31
-0.0000000000000351
210
0.0000000000000002
220
1.0
230
-0.0000000000000002
  0
LINE
  5
255DA
  8
0
  6
VERDECKT
 62
     1
 10
320.0000000000001137
 20
157.9999999999998863
 30
-0.0000000000000351
 11
320.0000000000001137
 21
149.9999999999998863
 31
-0.0000000000000333
210
0.0000000000000002
220
1.0
230
-0.0000000000000002
  0
LINE
  5
255DB
  8
0
  6
VERDECKT
 62
     1
 10
320.0
 20
150.0
 30
-0.0000000000000333
 11
318.0000000000001137
 21
150.0
 31
-0.0000000000000333
210
0.0000000000000002
220
1.0
230
-0.0000000000000002
  0
LINE
  5
255DC
  8
0
  6
VERDECKT
 62
     1
 10
318.0000000000001137
 20
150.0
 30
-0.0000000000000333
 11
0.0000000000000333
 21
150.0
 31
-0.0000000000000333
210
0.0000000000000002
220
1.0
230
-0.0000000000000002
  0
LINE
  5
255DD
  8
0
  6
VERDECKT
 62
     1
 10
50.0000000000000284
 20
104.0
 30
-0.0000000000000231
 11
50.0000000000000924
 21
100.0
 31
-0.0000000000000222
210
0.0000000000000002
220
1.0
230
-0.0000000000000002
  0
LINE
  5
255DE
  8
0
  6
VERDECKT
 62
     1
 10
50.0000000000000213
 20
145.0
 30
-0.0000000000000322
 11
50.0
 21
104.0
 31
-0.0000000000000231
210
0.0000000000000002
220
1.0
230
-0.0000000000000002
  0
LINE
  5
255DF
  8
0
  6
VERDECKT
 62
     1
 10
50.0000000000000782
 20
139.9999999999998863
 30
-0.0000000000000311
 11
62.0000000000000711
 21
139.9999999999998863
 31
-0.0000000000000311
210
0.0000000000000002
220
1.0
230
-0.0000000000000002
  0
LINE
  5
255E0
  8
0
  6
VERDECKT
 62
     1
 10
62.0000000000000497
 20
100.0
 30
-0.0000000000000222
 11
50.0000000000000711
 21
100.0
 31
-0.0000000000000222
210
0.0000000000000002
220
1.0
230
-0.0000000000000002
  0
LINE
  5
255E1
  8
0
  6
VERDECKT
 62
     1
 10
62.0000000000000284
 20
145.0
 30
-0.0000000000000322
 11
62.0000000000000213
 21
104.0
 31
-0.0000000000000231
210
0.0000000000000002
220
1.0
230
-0.0000000000000002
  0
LINE
  5
255E2
  8
0
  6
VERDECKT
 62
     1
 10
62.0000000000000284
 20
100.0
 30
-0.0000000000000222
 11
61.9999999999999787
 21
104.0
 31
-0.0000000000000231
210
0.0000000000000002
220
1.0
230
-0.0000000000000002
  0
LINE
  5
255E3
  8
0
  6
VERDECKT
 62
     1
 10
145.0000000000001137
 20
139.9999999999998863
 30
-0.0000000000000311
 11
157.0000000000005969
 21
139.9999999999998863
 31
-0.0000000000000311
210
0.0000000000000002
220
1.0
230
-0.0000000000000002
  0
LINE
  5
255E4
  8
0
  6
VERDECKT
 62
     1
 10
157.0000000000001137
 20
100.0
 30
-0.0000000000000222
 11
145.0000000000001137
 21
100.0
 31
-0.0000000000000222
210
0.0000000000000002
220
1.0
230
-0.0000000000000002
  0
LINE
  5
255E5
  8
0
  6
VERDECKT
 62
     1
 10
157.0000000000001137
 20
145.0
 30
-0.0000000000000322
 11
157.0000000000001137
 21
104.0
 31
-0.0000000000000231
210
0.0000000000000002
220
1.0
230
-0.0000000000000002
  0
LINE
  5
255E6
  8
0
  6
VERDECKT
 62
     1
 10
157.0000000000001137
 20
100.0
 30
-0.0000000000000222
 11
157.0000000000001137
 21
104.0
 31
-0.0000000000000231
210
0.0000000000000002
220
1.0
230
-0.0000000000000002
  0
LINE
  5
255E7
  8
0
  6
VERDECKT
 62
     1
 10
203.0
 20
145.0
 30
-0.0000000000000322
 11
157.0000000000001137
 21
145.0
 31
-0.0000000000000322
210
0.0000000000000002
220
1.0
230
-0.0000000000000002
  0
LINE
  5
255E8
  8
0
  6
VERDECKT
 62
     1
 10
145.0000000000001137
 20
145.0
 30
-0.0000000000000322
 11
62.0000000000000284
 21
145.0
 31
-0.0000000000000322
210
0.0000000000000002
220
1.0
230
-0.0000000000000002
  0
LINE
  5
255E9
  8
0
  6
VERDECKT
 62
     1
 10
50.0000000000000213
 20
145.0
 30
-0.0000000000000322
 11
0.000000000000018
 21
145.0
 31
-0.0000000000000322
210
0.0000000000000002
220
1.0
230
-0.0000000000000002
  0
LINE
  5
255EA
  8
0
  6
VERDECKT
 62
     1
 10
145.0000000000001137
 20
145.0
 30
-0.0000000000000322
 11
145.0000000000001137
 21
104.0
 31
-0.0000000000000231
210
0.0000000000000002
220
1.0
230
-0.0000000000000002
  0
LINE
  5
255EB
  8
0
  6
VERDECKT
 62
     1
 10
207.0
 20
145.0
 30
-0.0000000000000322
 11
212.0
 21
150.0
 31
-0.0000000000000333
210
0.0000000000000002
220
1.0
230
-0.0000000000000002
  0
LINE
  5
255EC
  8
0
  6
VERDECKT
 62
     1
 10
203.0
 20
145.0
 30
-0.0000000000000322
 11
207.0
 21
145.0
 31
-0.0000000000000322
210
0.0000000000000002
220
1.0
230
-0.0000000000000002
  0
LINE
  5
255ED
  8
0
  6
VERDECKT
 62
     1
 10
207.0
 20
145.0
 30
-0.0000000000000322
 11
207.0
 21
104.0
 31
-0.0000000000000231
210
0.0000000000000002
220
1.0
230
-0.0000000000000002
  0
LINE
  5
255EE
  8
0
  6
VERDECKT
 62
     1
 10
50.0000000000000497
 20
100.0
 30
-0.0000000000000222
 11
-0.0000000000000062
 21
100.0
 31
-0.0000000000000222
210
0.0000000000000002
220
1.0
230
-0.0000000000000002
  0
LINE
  5
255EF
  8
0
  6
VERDECKT
 62
     1
 10
145.0000000000001137
 20
104.0
 30
-0.0000000000000231
 11
145.0000000000001137
 21
100.0
 31
-0.0000000000000222
210
0.0000000000000002
220
1.0
230
-0.0000000000000002
  0
LINE
  5
255F0
  8
0
  6
VERDECKT
 62
     1
 10
145.0000000000001137
 20
100.0
 30
-0.0000000000000222
 11
62.0000000000000568
 21
100.0
 31
-0.0000000000000222
210
0.0000000000000002
220
1.0
230
-0.0000000000000002
  0
LINE
  5
255F1
  8
0
  6
VERDECKT
 62
     1
 10
203.0
 20
99.9999999999999858
 30
-0.0000000000000222
 11
157.0000000000001137
 21
100.0
 31
-0.0000000000000222
210
0.0000000000000002
220
1.0
230
-0.0000000000000002
  0
ARC
  5
255F2
  8
0
  6
VERDECKT
 62
     1
 10
203.0
 20
103.9999999999999005
 30
-0.0000000000000231
 40
3.9999999999999858
 50
269.9999999999997726
 51
0.0000000000003804
  0
ENDBLK
  5
255F4
  8
0
  0
BLOCK
  8
0
  2
A$CB5A34CD6
 70
     0
 10
0.0
 20
0.0
 30
0.0
  3
A$CB5A34CD6
  1

  0
LINE
  5
255F8
  8
0
  6
CONTINUOUS
 62
     3
 10
-243.0
 20
-0.0000000000000284
 30
0.0
 11
-241.0
 21
-0.0000000000000285
 31
0.0
  0
LINE
  5
255F9
  8
0
  6
CONTINUOUS
 62
     3
 10
-241.0
 20
-0.0000000000000284
 30
0.0
 11
-241.0
 21
318.0
 31
0.0
  0
LINE
  5
255FA
  8
0
  6
CONTINUOUS
 62
     3
 10
-243.0
 20
318.0
 30
0.0
 11
-243.0
 21
0.0
 31
0.0
  0
ARC
  5
255FB
  8
0
  6
CONTINUOUS
 62
     3
 10
-239.0
 20
318.0
 30
0.0
 40
1.9999999999999709
 50
89.9999999999975557
 51
179.9999999999992042
  0
ARC
  5
255FC
  8
0
  6
CONTINUOUS
 62
     3
 10
-239.0
 20
318.0
 30
0.0
 40
4.0000000000000284
 50
90.0
 51
180.0
  0
LINE
  5
255FD
  8
0
  6
CONTINUOUS
 62
     3
 10
239.0
 20
322.0
 30
0.0
 11
-239.0
 21
322.0
 31
0.0
  0
LINE
  5
255FE
  8
0
  6
CONTINUOUS
 62
     3
 10
-239.0
 20
320.0
 30
0.0
 11
239.0
 21
320.0
 31
0.0
  0
ARC
  5
255FF
  8
0
  6
CONTINUOUS
 62
     3
 10
239.0
 20
318.0
 30
0.0
 40
1.9999999999999709
 50
359.9999999999992042
 51
90.00000000000081
  0
ARC
  5
25600
  8
0
  6
CONTINUOUS
 62
     3
 10
239.0
 20
318.0
 30
0.0
 40
4.0
 50
0.0
 51
90.00000000000081
  0
LINE
  5
25601
  8
0
  6
CONTINUOUS
 62
     3
 10
241.0
 20
-0.0000000000000284
 30
0.0
 11
243.0
 21
-0.0000000000000283
 31
0.0
  0
LINE
  5
25602
  8
0
  6
CONTINUOUS
 62
     3
 10
243.0
 20
-0.0000000000000284
 30
0.0
 11
243.0
 21
318.0
 31
0.0
  0
LINE
  5
25603
  8
0
  6
CONTINUOUS
 62
     3
 10
241.0
 20
318.0
 30
0.0
 11
241.0
 21
0.0
 31
0.0
  0
LINE
  5
25604
  8
0
  6
CONTINUOUS
 62
     3
 10
243.0
 20
-0.0000000000000284
 30
0.0
 11
255.0
 21
-0.0000000000000284
 31
0.0
  0
LINE
  5
25605
  8
0
  6
CONTINUOUS
 62
     3
 10
255.0
 20
-0.0000000000000284
 30
0.0
 11
255.0
 21
335.0
 31
0.0
  0
LINE
  5
25606
  8
0
  6
CONTINUOUS
 62
     3
 10
255.0
 20
335.0
 30
0.0
 11
-255.0
 21
335.0
 31
0.0
  0
LINE
  5
25607
  8
0
  6
CONTINUOUS
 62
     3
 10
-255.0
 20
335.0
 30
0.0
 11
-255.0
 21
0.0
 31
0.0
  0
LINE
  5
25608
  8
0
  6
CONTINUOUS
 62
     3
 10
-255.0
 20
-0.0000000000000284
 30
0.0
 11
-243.0
 21
-0.0000000000000284
 31
0.0
  0
LINE
  5
25609
  8
0
  6
CONTINUOUS
 62
     3
 10
241.0
 20
-0.0000000000000284
 30
0.0
 11
133.0
 21
-0.0000000000000284
 31
0.0
  0
LINE
  5
2560A
  8
0
  6
CONTINUOUS
 62
     3
 10
128.0
 20
-0.0000000000000284
 30
0.0
 11
133.0
 21
-0.0000000000000281
 31
0.0
  0
LINE
  5
2560B
  8
0
  6
CONTINUOUS
 62
     3
 10
124.0
 20
0.0000000000001134
 30
0.0
 11
128.0
 21
0.0000000000001137
 31
0.0
  0
LINE
  5
2560C
  8
0
  6
CONTINUOUS
 62
     3
 10
124.0
 20
-0.0000000000000284
 30
0.0
 11
-124.0
 21
-0.0000000000000284
 31
0.0
  0
LINE
  5
2560D
  8
0
  6
CONTINUOUS
 62
     3
 10
-128.0
 20
-0.0000000000001705
 30
0.0
 11
-124.0
 21
-0.0000000000001708
 31
0.0
  0
LINE
  5
2560E
  8
0
  6
CONTINUOUS
 62
     3
 10
-133.0
 20
-0.0000000000000284
 30
0.0
 11
-128.0
 21
-0.0000000000000287
 31
0.0
  0
LINE
  5
2560F
  8
0
  6
CONTINUOUS
 62
     3
 10
-133.0
 20
-0.0000000000000284
 30
0.0
 11
-241.0
 21
-0.0000000000000284
 31
0.0
  0
LINE
  5
25610
  8
0
  6
CONTINUOUS
 62
     3
 10
-133.0
 20
-0.0000000000000284
 30
0.0
 11
-133.0
 21
203.0
 31
0.0
  0
ARC
  5
25611
  8
0
  6
CONTINUOUS
 62
     3
 10
-124.0000000000000995
 20
203.0
 30
0.0
 40
8.9999999999999432
 50
89.9999999999997442
 51
180.0000000000003979
  0
LINE
  5
25612
  8
0
  6
CONTINUOUS
 62
     3
 10
123.9999999999999005
 20
212.0
 30
0.0
 11
-124.0
 21
212.0
 31
0.0
  0
ARC
  5
25613
  8
0
  6
CONTINUOUS
 62
     3
 10
124.0
 20
202.9999999999998863
 30
0.0
 40
9.0
 50
0.0
 51
90.0000000000001847
  0
LINE
  5
25614
  8
0
  6
CONTINUOUS
 62
     3
 10
133.000000000000199
 20
202.9999999999998863
 30
0.0
 11
133.000000000000199
 21
-0.0000000000000284
 31
0.0
  0
LINE
  5
25615
  8
0
  6
CONTINUOUS
 62
     3
 10
128.0000000000001137
 20
49.9999999999999929
 30
0.0
 11
123.0000000000000995
 21
50.0000000000000568
 31
0.0
  0
LINE
  5
25616
  8
0
  6
CONTINUOUS
 62
     3
 10
123.0
 20
50.0000000000000568
 30
0.0
 11
123.0
 21
62.0000000000000426
 31
0.0
  0
LINE
  5
25617
  8
0
  6
CONTINUOUS
 62
     3
 10
123.0000000000000995
 20
62.0000000000000426
 30
0.0
 11
128.0
 21
62.0
 31
0.0
  0
LINE
  5
25618
  8
0
  6
CONTINUOUS
 62
     3
 10
123.0
 20
145.0
 30
0.0
 11
123.0
 21
157.0000000000005116
 31
0.0
  0
LINE
  5
25619
  8
0
  6
CONTINUOUS
 62
     3
 10
123.0000000000000995
 20
157.0
 30
0.0
 11
128.0000000000001137
 21
157.0
 31
0.0
  0
LINE
  5
2561A
  8
0
  6
CONTINUOUS
 62
     3
 10
-128.0
 20
157.0
 30
0.0
 11
-123.0
 21
157.0
 31
0.0
  0
LINE
  5
2561B
  8
0
  6
CONTINUOUS
 62
     3
 10
-123.0
 20
157.0
 30
0.0
 11
-123.0
 21
145.0
 31
0.0
  0
LINE
  5
2561C
  8
0
  6
CONTINUOUS
 62
     3
 10
-123.0
 20
145.0
 30
0.0
 11
-128.0
 21
145.0
 31
0.0
  0
LINE
  5
2561D
  8
0
  6
CONTINUOUS
 62
     3
 10
128.0
 20
203.0
 30
0.0
 11
128.0
 21
157.0
 31
0.0
  0
LINE
  5
2561E
  8
0
  6
CONTINUOUS
 62
     3
 10
128.0000000000001137
 20
145.0
 30
0.0
 11
123.0000000000000995
 21
145.0
 31
0.0
  0
LINE
  5
2561F
  8
0
  6
CONTINUOUS
 62
     3
 10
128.0
 20
145.0
 30
0.0
 11
128.0
 21
62.0
 31
0.0
  0
LINE
  5
25620
  8
0
  6
CONTINUOUS
 62
     3
 10
128.0
 20
49.9999999999999929
 30
0.0
 11
128.0
 21
-0.0000000000000142
 31
0.0
  0
LINE
  5
25621
  8
0
  6
CONTINUOUS
 62
     3
 10
-128.0
 20
157.0
 30
0.0
 11
-128.0
 21
202.9999999999998863
 31
0.0
  0
LINE
  5
25622
  8
0
  6
CONTINUOUS
 62
     3
 10
-128.0
 20
-0.0000000000000284
 30
0.0
 11
-127.9999999999999005
 21
49.9999999999999432
 31
0.0
  0
LINE
  5
25623
  8
0
  6
CONTINUOUS
 62
     3
 10
-123.0
 20
50.0000000000000071
 30
0.0
 11
-127.9999999999999005
 21
49.9999999999999432
 31
0.0
  0
LINE
  5
25624
  8
0
  6
CONTINUOUS
 62
     3
 10
-123.0
 20
62.0000000000000071
 30
0.0
 11
-123.0
 21
50.0000000000000284
 31
0.0
  0
LINE
  5
25625
  8
0
  6
CONTINUOUS
 62
     3
 10
-128.0
 20
61.9999999999999503
 30
0.0
 11
-123.0
 21
62.0000000000000071
 31
0.0
  0
LINE
  5
25626
  8
0
  6
CONTINUOUS
 62
     3
 10
-128.0
 20
61.9999999999999503
 30
0.0
 11
-128.0
 21
145.0
 31
0.0
  0
ARC
  5
25627
  8
0
  6
CONTINUOUS
 62
     3
 10
-124.0
 20
202.9999999999998863
 30
0.0
 40
4.0000000000000142
 50
90.0
 51
180.0
  0
LINE
  5
25628
  8
0
  6
CONTINUOUS
 62
     3
 10
-124.0
 20
207.0
 30
0.0
 11
123.9999999999999005
 21
207.0
 31
0.0
  0
ARC
  5
25629
  8
0
  6
CONTINUOUS
 62
     3
 10
123.9999999999999005
 20
202.9999999999998863
 30
0.0
 40
4.0000000000000071
 50
0.0000000000001018
 51
89.999999999999801
  0
ENDBLK
  5
2562B
  8
0
  0
ENDSEC
  0
SECTION
  2
ENTITIES
  0
INSERT
  5
712A
  8
ADSK_ASSOC_ENTITY_BACKUPS
  2
*S0
 10
0.0
 20
0.0
 30
0.0
  0
INSERT
  5
255D0
  8
STEMPEL
  2
A$CCA3FC516
 10
0.0
 20
0.0
 30
0.0
  0
INSERT
  5
255F5
  8
STEMPEL
  2
A$CE12C8E40
 10
-650.0
 20
0.0
 30
0.0
  0
INSERT
  5
2562C
  8
STEMPEL
  2
A$CB5A34CD6
 10
0.0
 20
-400.0
 30
0.0
  0
VIEWPORT
  5
7108
 67
     1
  8
0
 10
296.7650560593232854
 20
209.7547191331553904
 30
0.0
 40
795.6883637233959234
 41
422.1649484536083037
 68
     1
 69
     1
1001
ACAD
1000
MVIEW
1002
{
1070
    16
1010
0.0
1020
0.0
1030
0.0
1010
0.0
1020
0.0
1030
1.0
1040
0.0
1040
422.1649484536083037
1040
296.7650560593232854
1040
209.7547191331553904
1040
50.0
1040
0.0
1040
0.0
1070
     0
1070
  1500
1070
     1
1070
     1
1070
     0
1070
     0
1070
     0
1070
     0
1040
0.0
1040
0.0
1040
0.0
1040
10.0
1040
10.0
1040
10.0
1040
10.0
1070
     0
1002
{
1002
}
1002
}
  0
ENDSEC
  0
EOF
