  0
SECTION
  2
HEADER
  9
$ACADVER
  1
AC1009
  9
$INSBASE
 10
0.0
 20
0.0
 30
0.0
  9
$EXTMIN
 10
201.5279108047388092
 20
-0.00000000000002
 30
297.8214563709270237
  9
$EXTMAX
 10
267.5972311454967212
 20
500.0000000000002274
 30
297.8214563709271943
  9
$LIMMIN
 10
0.0
 20
0.0
  9
$LIMMAX
 10
419.9999999999998863
 20
594.0
  9
$ORTHOMODE
 70
     0
  9
$REGENMODE
 70
     1
  9
$FILLMODE
 70
     1
  9
$QTEXTMODE
 70
     0
  9
$MIRRTEXT
 70
     1
  9
$DRAGMODE
 70
     2
  9
$LTSCALE
 40
10.0
  9
$OSMODE
 70
  2495
  9
$ATTMODE
 70
     1
  9
$TEXTSIZE
 40
3.5
  9
$TRACEWID
 40
0.5
  9
$TEXTSTYLE
  7
STANDARD
  9
$CLAYER
  8
0
  9
$CELTYPE
  6
BYLAYER
  9
$CECOLOR
 62
   256
  9
$DIMSCALE
 40
1.0
  9
$DIMASZ
 40
3.5
  9
$DIMEXO
 40
1.0
  9
$DIMDLI
 40
7.0
  9
$DIMRND
 40
0.0
  9
$DIMDLE
 40
0.0
  9
$DIMEXE
 40
1.0
  9
$DIMTP
 40
0.0
  9
$DIMTM
 40
0.0
  9
$DIMTXT
 40
3.5
  9
$DIMCEN
 40
1.5
  9
$DIMTSZ
 40
0.0
  9
$DIMTOL
 70
     0
  9
$DIMLIM
 70
     0
  9
$DIMTIH
 70
     0
  9
$DIMTOH
 70
     0
  9
$DIMSE1
 70
     0
  9
$DIMSE2
 70
     0
  9
$DIMTAD
 70
     1
  9
$DIMZIN
 70
     8
  9
$DIMBLK
  1

  9
$DIMASO
 70
     1
  9
$DIMSHO
 70
     0
  9
$DIMPOST
  1

  9
$DIMAPOST
  1

  9
$DIMALT
 70
     0
  9
$DIMALTD
 70
     2
  9
$DIMALTF
 40
25.3999999999999986
  9
$DIMLFAC
 40
1.0
  9
$DIMTOFL
 70
     1
  9
$DIMTVP
 40
0.0
  9
$DIMTIX
 70
     0
  9
$DIMSOXD
 70
     0
  9
$DIMSAH
 70
     0
  9
$DIMBLK1
  1

  9
$DIMBLK2
  1

  9
$DIMSTYLE
  2
STANDARD
  9
$DIMCLRD
 70
     0
  9
$DIMCLRE
 70
     0
  9
$DIMCLRT
 70
     1
  9
$DIMTFAC
 40
0.5142857142857143
  9
$DIMGAP
 40
1.5
  9
$LUNITS
 70
     2
  9
$LUPREC
 70
     2
  9
$SKETCHINC
 40
1.0
  9
$FILLETRAD
 40
0.0
  9
$AUNITS
 70
     0
  9
$AUPREC
 70
     0
  9
$MENU
  1
ACAD
  9
$ELEVATION
 40
0.0
  9
$PELEVATION
 40
0.0
  9
$THICKNESS
 40
0.0
  9
$LIMCHECK
 70
     0
  9
$BLIPMODE
 70
     0
  9
$CHAMFERA
 40
0.0
  9
$CHAMFERB
 40
0.0
  9
$SKPOLY
 70
     0
  9
$TDCREATE
 40
2455397.8646990740671754
  9
$TDUPDATE
 40
2458904.3550810189917684
  9
$TDINDWG
 40
0.2051055324
  9
$TDUSRTIMER
 40
0.2051055324
  9
$USRTIMER
 70
     1
  9
$ANGBASE
 50
0.0
  9
$ANGDIR
 70
     0
  9
$PDMODE
 70
     0
  9
$PDSIZE
 40
0.0
  9
$PLINEWID
 40
0.0
  9
$COORDS
 70
     1
  9
$SPLFRAME
 70
     0
  9
$SPLINETYPE
 70
     6
  9
$SPLINESEGS
 70
     8
  9
$ATTDIA
 70
     1
  9
$ATTREQ
 70
     1
  9
$HANDLING
 70
     1
  9
$HANDSEED
  5
1345
  9
$SURFTAB1
 70
     6
  9
$SURFTAB2
 70
     6
  9
$SURFTYPE
 70
     6
  9
$SURFU
 70
     6
  9
$SURFV
 70
     6
  9
$UCSNAME
  2

  9
$UCSORG
 10
0.0
 20
0.0
 30
0.0
  9
$UCSXDIR
 10
1.0
 20
0.0
 30
0.0
  9
$UCSYDIR
 10
0.0
 20
1.0
 30
0.0
  9
$PUCSNAME
  2

  9
$PUCSORG
 10
0.0
 20
0.0
 30
0.0
  9
$PUCSXDIR
 10
1.0
 20
0.0
 30
0.0
  9
$PUCSYDIR
 10
0.0
 20
1.0
 30
0.0
  9
$USERI1
 70
     0
  9
$USERI2
 70
     0
  9
$USERI3
 70
     0
  9
$USERI4
 70
     0
  9
$USERI5
 70
     0
  9
$USERR1
 40
0.0
  9
$USERR2
 40
0.0
  9
$USERR3
 40
0.0
  9
$USERR4
 40
0.0
  9
$USERR5
 40
0.0
  9
$WORLDVIEW
 70
     1
  9
$SHADEDGE
 70
     3
  9
$SHADEDIF
 70
    70
  9
$TILEMODE
 70
     1
  9
$MAXACTVP
 70
    16
  9
$PLIMCHECK
 70
     0
  9
$PEXTMIN
 10
1.0000000000000000E+20
 20
1.0000000000000000E+20
 30
1.0000000000000000E+20
  9
$PEXTMAX
 10
-1.0000000000000000E+20
 20
-1.0000000000000000E+20
 30
-1.0000000000000000E+20
  9
$PLIMMIN
 10
17.8117965970274916
 20
-2.6255404208341702
  9
$PLIMMAX
 10
227.8117965970274952
 20
294.374459579165773
  9
$UNITMODE
 70
     0
  9
$VISRETAIN
 70
     0
  9
$PLINEGEN
 70
     0
  9
$PSLTSCALE
 70
     0
  0
ENDSEC
  0
SECTION
  2
TABLES
  0
TABLE
  2
VPORT
 70
     1
  0
VPORT
  2
*ACTIVE
 70
     0
 10
0.0
 20
0.0
 11
1.0
 21
1.0
 12
0.0
 22
0.0
 13
0.0
 23
0.0
 14
1.0
 24
1.0
 15
10.0
 25
10.0
 16
-0.0000000000002842
 26
0.0
 36
1253.2019362351200016
 17
234.3874765207042969
 27
250.0
 37
297.8214563709270806
 40
503.953370858852395
 41
1.7852028639618129
 42
50.0
 43
0.0
 44
0.0
 50
0.0
 51
0.0
 71
     0
 72
  1500
 73
     1
 74
     0
 75
     0
 76
     0
 77
     0
 78
     0
  0
ENDTAB
  0
TABLE
  2
LTYPE
 70
     4
  0
LTYPE
  2
CONTINUOUS
 70
     0
  3
Solid line
 72
    65
 73
     0
 40
0.0
  0
LTYPE
  2
VERDECKT
 70
     0
  3
Verdeckt __ __ __ __ __ __ __ __ __ __ __ __ __
 72
    65
 73
     2
 40
0.375
 49
0.25
 49
-0.125
  0
ENDTAB
  0
TABLE
  2
LAYER
 70
    12
  0
LAYER
  2
0
 70
     0
 62
     7
  6
CONTINUOUS
  0
LAYER
  2
VOLL
 70
     0
 62
     1
  6
CONTINUOUS
  0
LAYER
  2
DEFPOINTS
 70
     0
 62
     7
  6
CONTINUOUS
  0
LAYER
  2
ADSK_ASSOC_ENTITY_BACKUPS
 70
     1
 62
    -7
  6
CONTINUOUS
  0
ENDTAB
  0
TABLE
  2
STYLE
 70
     4
  0
STYLE
  2
STANDARD
 70
     0
 40
0.0
 41
0.8
 50
0.0
 71
     0
 42
3.5
  3
simplex.shx
  4

  0
STYLE
  2
GREEKS
 70
     0
 40
0.0
 41
0.8
 50
0.0
 71
     0
 42
2.5
  3
SIMPLEX.shx
  4

  0
ENDTAB
  0
TABLE
  2
VIEW
 70
     1
  0
ENDTAB
  0
TABLE
  2
UCS
 70
     0
  0
ENDTAB
  0
TABLE
  2
APPID
 70
    18
  0
APPID
  2
ACAD
 70
     0
  0
APPID
  2
ACAD_NAV_VCDISPLAY
 70
     0
  0
APPID
  2
ACAD_PSEXT
 70
     0
  0
APPID
  2
ACAECLAYERSTANDARD
 70
     0
  0
APPID
  2
ACCMTRANSPARENCY
 70
     0
  0
APPID
  2
ACDBDYNAMICBLOCKGUID
 70
     0
  0
APPID
  2
ACAD_EXEMPT_FROM_CAD_STANDARDS
 70
     0
  0
APPID
  2
ACSYNERGY
 70
     0
  0
APPID
  2
SYNERGY_BODY_TBR_ID
 70
     0
  0
APPID
  2
ACAD_VIEW_EDGE_ID
 70
     0
  0
APPID
  2
ACSYNERGYSKETCH
 70
     0
  0
APPID
  2
ACADANNOPO
 70
     0
  0
APPID
  2
ACADANNOMONITORALERTICONDI
 70
     0
  0
APPID
  2
ACAD_STEPID
 70
     0
  0
APPID
  2
ACAD_DSTYLE_DIMJAG
 70
     0
  0
APPID
  2
ACAD_DSTYLE_DIMTALN
 70
     0
  0
APPID
  2
ACAD_MLEADERVER
 70
     0
  0
APPID
  2
AcDbAttr
 70
     0
  0
ENDTAB
  0
TABLE
  2
DIMSTYLE
 70
     2
  0
DIMSTYLE
  2
STANDARD
 70
     0
  3

  4

  5

  6

  7

 40
1.0
 41
0.18
 42
0.0625
 43
0.38
 44
0.18
 45
0.0
 46
0.0
 47
0.0
 48
0.0
140
0.18
141
0.09
142
0.0
143
25.3999999999999986
144
1.0
145
0.0
146
1.0
147
0.09
 71
     0
 72
     0
 73
     1
 74
     1
 75
     0
 76
     0
 77
     0
 78
     0
170
     0
171
     2
172
     0
173
     0
174
     0
175
     0
176
     0
177
     0
178
     0
  0
ENDTAB
  0
ENDSEC
  0
SECTION
  2
BLOCKS
  0
BLOCK
  8
0
  2
$MODEL_SPACE
 70
     0
 10
0.0
 20
0.0
 30
0.0
  3
$MODEL_SPACE
  1

  0
ENDBLK
  5
36
  8
0
  0
BLOCK
 67
     1
  8
0
  2
$PAPER_SPACE
 70
     0
 10
0.0
 20
0.0
 30
0.0
  3
$PAPER_SPACE
  1

  0
ENDBLK
  5
34
 67
     1
  8
0
  0
BLOCK
  8
0
  2
*S3
 70
     1
 10
0.0
 20
0.0
 30
0.0
  3
*S3
  1

  0
ENDBLK
  5
A3E
  8
0
  0
BLOCK
  8
0
  2
A$CCC013943
 70
     0
 10
0.0
 20
0.0
 30
0.0
  3
A$CCC013943
  1

  0
LINE
  5
12B6
  8
0
  6
CONTINUOUS
 62
     3
 10
26.0625566823705412
 20
0.0
 30
0.0
 11
-26.0625566823705412
 21
0.0
 31
0.0
210
0.0
220
1.0
230
-0.0000000000000002
  0
LINE
  5
12B7
  8
0
  6
CONTINUOUS
 62
     3
 10
-29.60635314993851
 20
500.0000000000002274
 30
-0.000000000000111
 11
29.60635314993851
 21
500.0000000000002274
 31
-0.000000000000111
210
0.0
220
1.0
230
-0.0000000000000002
  0
ARC
  5
12B8
  8
0
  6
CONTINUOUS
 62
     3
 10
-20.0000000000021103
 20
5.2837961289025239
 30
0.0
 40
6.4999999999978888
210
0.0
220
-0.0000000000000002
230
-1.0
 50
179.9999999999990905
 51
184.9999999999988916
  0
ARC
  5
12B9
  8
0
  6
CONTINUOUS
 62
     3
 10
19.9999999999983693
 20
5.2837961289026856
 30
0.0
 40
6.5000000000016263
210
0.0
220
-0.0000000000000002
230
-1.0
 50
355.0000000000025011
 51
359.9999999999993747
  0
LINE
  5
12BA
  8
0
  6
CONTINUOUS
 62
     3
 10
-26.0625566823707686
 20
-0.00000000000002
 30
0.0
 11
-26.4752655375963606
 21
4.7172838010430462
 31
-0.000000000000001
210
0.0
220
1.0
230
-0.0000000000000002
  0
LINE
  5
12BB
  8
0
  6
CONTINUOUS
 62
     3
 10
26.0625566823707686
 20
-0.00000000000002
 30
0.0
 11
26.4752655375963606
 21
4.7172838010430462
 31
-0.000000000000001
210
0.0
220
1.0
230
-0.0000000000000002
  0
LINE
  5
12BC
  8
0
  6
CONTINUOUS
 62
     3
 10
-26.5
 20
5.2837961289026234
 30
-0.0000000000000012
 11
-26.5
 21
404.8726731603467783
 31
-0.0000000000000899
210
0.0
220
1.0
230
-0.0000000000000002
  0
LINE
  5
12BD
  8
0
  6
CONTINUOUS
 62
     3
 10
26.5
 20
5.2837961289026234
 30
-0.0000000000000012
 11
26.5
 21
404.8726731603467783
 31
-0.0000000000000899
210
0.0
220
1.0
230
-0.0000000000000002
  0
ARC
  5
12BE
  8
0
  6
CONTINUOUS
 62
     3
 10
12.0000000000003197
 20
491.6174986573428782
 30
0.0
 40
19.4999999999996803
210
0.0
220
-0.0000000000000002
230
-1.0
 50
359.9999999999994884
 51
25.4594285688081889
  0
ARC
  5
12BF
  8
0
  6
CONTINUOUS
 62
     3
 10
-12.0000000000003304
 20
491.6174986573428782
 30
0.0
 40
19.4999999999996483
210
0.0
220
-0.0000000000000002
230
-1.0
 50
154.5405714311918075
 51
180.0000000000003979
  0
LINE
  5
12C0
  8
0
  6
CONTINUOUS
 62
     3
 10
31.5
 20
491.6174986573428214
 30
-0.0000000000001092
 11
31.5
 21
487.2020357020119263
 31
-0.0000000000001082
210
0.0
220
1.0
230
-0.0000000000000002
  0
LINE
  5
12C1
  8
0
  6
CONTINUOUS
 62
     3
 10
-31.5
 20
491.6174986573428214
 30
-0.0000000000001092
 11
-31.5
 21
487.2020357020119263
 31
-0.0000000000001082
210
0.0
220
1.0
230
-0.0000000000000002
  0
ARC
  5
12C2
  8
0
  6
CONTINUOUS
 62
     3
 10
6.4999999999985318
 20
487.1620000000036157
 30
0.0
 40
25.0000320571296299
210
0.0
220
-0.0000000000000002
230
-1.0
 50
340.5369005553093871
 51
0.0917549917592325
  0
ARC
  5
12C3
  8
0
  6
CONTINUOUS
 62
     3
 10
-6.4999999999987699
 20
487.1620000000036157
 30
0.0
 40
25.0000320571293884
210
0.0
220
-0.0000000000000002
230
-1.0
 50
179.9082450082406126
 51
199.4630994446906129
  0
ARC
  5
12C4
  8
0
  6
CONTINUOUS
 62
     3
 10
39.4999999999937117
 20
475.5000000000046043
 30
0.0
 40
9.9999999999937135
210
0.0
220
-0.0000000000000002
230
-1.0
 50
160.5369005553114903
 51
180.0000000000055138
  0
ARC
  5
12C5
  8
0
  6
CONTINUOUS
 62
     3
 10
-39.4999999999937117
 20
475.5000000000046043
 30
0.0
 40
9.9999999999937117
210
0.0
220
-0.0000000000000002
230
-1.0
 50
359.9999999999944862
 51
19.4630994446884991
  0
LINE
  5
12C6
  8
0
  6
CONTINUOUS
 62
     3
 10
29.5000000000000107
 20
475.5000000000035811
 30
-0.0000000000001056
 11
29.5
 21
415.4083269131995735
 31
-0.0000000000000922
210
0.0
220
1.0
230
-0.0000000000000002
  0
LINE
  5
12C7
  8
0
  6
CONTINUOUS
 62
     3
 10
-29.5
 20
475.5000000000035811
 30
-0.0000000000001056
 11
-29.5000000000000107
 21
415.4083269131995735
 31
-0.0000000000000922
210
0.0
220
1.0
230
-0.0000000000000002
  0
ARC
  5
12C8
  8
0
  6
CONTINUOUS
 62
     3
 10
17.5000000000004903
 20
415.408326913199403
 30
0.0
 40
11.9999999999994902
210
0.0
220
-0.0000000000000002
230
-1.0
 50
328.2116693829506744
 51
0.0000000000008269
  0
ARC
  5
12C9
  8
0
  6
CONTINUOUS
 62
     3
 10
-17.5000000000004903
 20
415.408326913199403
 30
0.0
 40
11.9999999999994902
210
0.0
220
-0.0000000000000002
230
-1.0
 50
179.9999999999992042
 51
211.7883306170492972
  0
ARC
  5
12CA
  8
0
  6
CONTINUOUS
 62
     3
 10
34.5000000000017906
 20
404.8726731603463804
 30
0.0
 40
8.0000000000017781
210
0.0
220
-0.0000000000000002
230
-1.0
 50
148.2116693829476901
 51
179.9999999999967031
  0
ARC
  5
12CB
  8
0
  6
CONTINUOUS
 62
     3
 10
-34.5000000000017835
 20
404.8726731603463804
 30
0.0
 40
8.0000000000017764
210
0.0
220
-0.0000000000000002
230
-1.0
 50
0.0000000000032569
 51
31.7883306170523703
  0
LINE
  5
12CC
  8
0
  6
VERDECKT
 62
     1
 10
24.5682646352329392
 20
0.1307336141214535
 30
0.0
 11
-24.5682646352329392
 21
0.1307336141214535
 31
0.0
210
0.0
220
1.0
230
-0.0000000000000002
  0
LINE
  5
12CD
  8
0
  6
VERDECKT
 62
     1
 10
-28.2520182922507885
 20
499.3551922044111961
 30
-0.0000000000001109
 11
28.2520182922507885
 21
499.3551922044111961
 31
-0.0000000000001109
210
0.0
220
1.0
230
-0.0000000000000002
  0
ARC
  5
12CE
  8
0
  6
VERDECKT
 62
     1
 10
-20.0000000000005294
 20
5.2837961289048216
 30
0.0
 40
4.9999999999994671
210
0.0
220
-0.0000000000000002
230
-1.0
 50
179.9999999999994884
 51
184.9999999999980105
  0
ARC
  5
12CF
  8
0
  6
VERDECKT
 62
     1
 10
20.0000000000005294
 20
5.2837961289048216
 30
0.0
 40
4.9999999999994671
210
0.0
220
-0.0000000000000002
230
-1.0
 50
355.0000000000018758
 51
0.0000000000005216
  0
LINE
  5
12D0
  8
0
  6
VERDECKT
 62
     1
 10
-25.0
 20
5.2837961289048678
 30
-0.0000000000000012
 11
-25.0
 21
404.8726731603467783
 31
-0.0000000000000899
210
0.0
220
1.0
230
-0.0000000000000002
  0
LINE
  5
12D1
  8
0
  6
VERDECKT
 62
     1
 10
25.0
 20
5.2837961289048678
 30
-0.0000000000000012
 11
25.0
 21
404.8726731603467783
 31
-0.0000000000000899
210
0.0
220
1.0
230
-0.0000000000000002
  0
LINE
  5
12D2
  8
0
  6
VERDECKT
 62
     1
 10
-24.5682646352329392
 20
0.1307336141214535
 30
0.0
 11
-24.9809734904587408
 21
4.8480174151667459
 31
-0.0000000000000011
210
0.0
220
1.0
230
-0.0000000000000002
  0
LINE
  5
12D3
  8
0
  6
VERDECKT
 62
     1
 10
24.5682646352329392
 20
0.1307336141214535
 30
0.0
 11
24.9809734904587408
 21
4.8480174151667459
 31
-0.0000000000000011
210
0.0
220
1.0
230
-0.0000000000000002
  0
ARC
  5
12D4
  8
0
  6
VERDECKT
 62
     1
 10
34.500000000001009
 20
404.8726731603464941
 30
0.0
 40
9.5000000000010285
210
0.0
220
-0.0000000000000002
230
-1.0
 50
148.211669382947008
 51
179.9999999999982094
  0
ARC
  5
12D5
  8
0
  6
VERDECKT
 62
     1
 10
-34.5000000000010232
 20
404.8726731603464941
 30
0.0
 40
9.5000000000010214
210
0.0
220
-0.0000000000000002
230
-1.0
 50
0.0000000000017175
 51
31.78833061705296
  0
ARC
  5
12D6
  8
0
  6
VERDECKT
 62
     1
 10
17.5000000000004796
 20
415.4083269131992893
 30
0.0
 40
10.4999999999995204
210
0.0
220
-0.0000000000000002
230
-1.0
 50
328.2116693829506744
 51
0.0000000000012468
  0
ARC
  5
12D7
  8
0
  6
VERDECKT
 62
     1
 10
-17.5000000000004796
 20
415.4083269131992893
 30
0.0
 40
10.4999999999995097
210
0.0
220
-0.0000000000000002
230
-1.0
 50
179.9999999999988063
 51
211.7883306170492972
  0
LINE
  5
12D8
  8
0
  6
VERDECKT
 62
     1
 10
28.0000000000000107
 20
475.5000000000035243
 30
-0.0000000000001056
 11
28.0
 21
415.4083269131995735
 31
-0.0000000000000922
210
0.0
220
1.0
230
-0.0000000000000002
  0
LINE
  5
12D9
  8
0
  6
VERDECKT
 62
     1
 10
-28.0
 20
475.5000000000035243
 30
-0.0000000000001056
 11
-28.0000000000000107
 21
415.4083269131995735
 31
-0.0000000000000922
210
0.0
220
1.0
230
-0.0000000000000002
  0
ARC
  5
12DA
  8
0
  6
VERDECKT
 62
     1
 10
39.4999999999963975
 20
475.500000000003979
 30
0.0
 40
11.4999999999963904
210
0.0
220
-0.0000000000000002
230
-1.0
 50
160.5369005553133093
 51
180.0000000000028137
  0
ARC
  5
12DB
  8
0
  6
VERDECKT
 62
     1
 10
-39.4999999999962768
 20
475.500000000003979
 30
0.0
 40
11.4999999999962803
210
0.0
220
-0.0000000000000002
230
-1.0
 50
0.0
 51
19.4630994446896715
  0
ARC
  5
12DC
  8
0
  6
VERDECKT
 62
     1
 10
6.4999999999983471
 20
487.162000000003502
 30
0.0
 40
23.5000320571298005
210
0.0
220
-0.0000000000000002
230
-1.0
 50
340.536900555309785
 51
0.0946380447218306
  0
ARC
  5
12DD
  8
0
  6
VERDECKT
 62
     1
 10
-6.4999999999982272
 20
487.1620000000036157
 30
0.0
 40
23.5000320571299213
210
0.0
220
-0.0000000000000002
230
-1.0
 50
179.9053619552782948
 51
199.4630994446901866
  0
LINE
  5
12DE
  8
0
  6
VERDECKT
 62
     1
 10
30.0
 20
491.6174986573428214
 30
-0.0000000000001092
 11
30.0
 21
487.2008160540377162
 31
-0.0000000000001082
210
0.0
220
1.0
230
-0.0000000000000002
  0
LINE
  5
12DF
  8
0
  6
VERDECKT
 62
     1
 10
-30.0
 20
491.6174986573428214
 30
-0.0000000000001092
 11
-30.0
 21
487.2008160540377162
 31
-0.0000000000001082
210
0.0
220
1.0
230
-0.0000000000000002
  0
ARC
  5
12E0
  8
0
  6
VERDECKT
 62
     1
 10
11.9999999999991491
 20
491.617498657342594
 30
0.0
 40
18.0000000000008491
210
0.0
220
-0.0000000000000002
230
-1.0
 50
0.0000000000005471
 51
25.4594285688075708
  0
ARC
  5
12E1
  8
0
  6
VERDECKT
 62
     1
 10
-11.9999999999992202
 20
491.6174986573427077
 30
0.0
 40
18.0000000000007709
210
0.0
220
-0.0000000000000002
230
-1.0
 50
154.5405714311924896
 51
179.9999999999996021
  0
LINE
  5
12E2
  8
0
  6
VERDECKT
 62
     1
 10
-28.2520182922508987
 20
499.3551922044111961
 30
-0.0000000000001109
 11
-29.6063531499384602
 21
500.0000000000002274
 31
-0.000000000000111
210
0.0
220
1.0
230
-0.0000000000000002
  0
LINE
  5
12E3
  8
0
  6
VERDECKT
 62
     1
 10
28.2520182922508987
 20
499.3551922044111961
 30
-0.0000000000001109
 11
29.6063531499384602
 21
500.0000000000002274
 31
-0.000000000000111
210
0.0
220
1.0
230
-0.0000000000000002
  0
LINE
  5
12E4
  8
0
  6
VERDECKT
 62
     1
 10
24.5682646352329392
 20
0.1307336141214676
 30
0.0
 11
26.0625566823705412
 21
0.0000000000000141
 31
0.0
210
0.0
220
1.0
230
-0.0000000000000002
  0
LINE
  5
12E5
  8
0
  6
VERDECKT
 62
     1
 10
-24.5682646352329392
 20
0.1307336141214676
 30
0.0
 11
-26.0625566823705412
 21
0.0000000000000141
 31
0.0
210
0.0
220
1.0
230
-0.0000000000000002
  0
ENDBLK
  5
12E7
  8
0
  0
ENDSEC
  0
SECTION
  2
ENTITIES
  0
TEXT
  5
8F
  8
VOLL
 10
78.076754716981128
 20
31.025947764705851
 30
0.0
 40
1.8
  1

  7
GREEKS
  0
INSERT
  5
A40
  8
ADSK_ASSOC_ENTITY_BACKUPS
  2
*S3
 10
0.0
 20
0.0
 30
0.0
  0
INSERT
  5
12E8
  8
0
  2
A$CCC013943
 10
234.3874765207042969
 20
0.0
 30
297.8214563709271943
  0
VIEWPORT
  5
679
 67
     1
  8
0
 10
122.8117965970274952
 20
145.8744595791658014
 30
0.0
 40
533.9969448798290159
 41
299.1239570917758783
 68
     1
 69
     1
1001
ACAD
1000
MVIEW
1002
{
1070
    16
1010
0.0
1020
0.0
1030
0.0
1010
0.0
1020
0.0
1030
1.0
1040
0.0
1040
299.1239570917758783
1040
122.8117965970274952
1040
145.8744595791658014
1040
50.0
1040
0.0
1040
0.0
1070
     0
1070
  1500
1070
     1
1070
     1
1070
     0
1070
     0
1070
     0
1070
     0
1040
0.0
1040
0.0
1040
0.0
1040
10.0
1040
10.0
1040
10.0
1040
10.0
1070
     0
1002
{
1002
}
1002
}
  0
ENDSEC
  0
EOF
