  0
SECTION
  2
HEADER
  9
$ACADVER
  1
AC1009
  9
$INSBASE
 10
0.0
 20
0.0
 30
0.0
  9
$EXTMIN
 10
-84.611705184688347
 20
-50.9999999999999432
 30
-0.0000000000002431
  9
$EXTMAX
 10
157.4459464704208926
 20
1245.8692663858780634
 30
0.0
  9
$LIMMIN
 10
0.0
 20
0.0
  9
$LIMMAX
 10
419.9999999999998863
 20
594.0
  9
$ORTHOMODE
 70
     1
  9
$REGENMODE
 70
     1
  9
$FILLMODE
 70
     1
  9
$QTEXTMODE
 70
     0
  9
$MIRRTEXT
 70
     1
  9
$DRAGMODE
 70
     2
  9
$LTSCALE
 40
20.0
  9
$OSMODE
 70
   183
  9
$ATTMODE
 70
     1
  9
$TEXTSIZE
 40
3.5
  9
$TRACEWID
 40
0.5
  9
$TEXTSTYLE
  7
STANDARD
  9
$CLAYER
  8
STEMPEL
  9
$CELTYPE
  6
BYLAYER
  9
$CECOLOR
 62
   256
  9
$DIMSCALE
 40
1.0
  9
$DIMASZ
 40
3.5
  9
$DIMEXO
 40
1.0
  9
$DIMDLI
 40
7.0
  9
$DIMRND
 40
0.0
  9
$DIMDLE
 40
0.0
  9
$DIMEXE
 40
1.0
  9
$DIMTP
 40
0.0
  9
$DIMTM
 40
0.0
  9
$DIMTXT
 40
3.5
  9
$DIMCEN
 40
1.5
  9
$DIMTSZ
 40
0.0
  9
$DIMTOL
 70
     0
  9
$DIMLIM
 70
     0
  9
$DIMTIH
 70
     0
  9
$DIMTOH
 70
     0
  9
$DIMSE1
 70
     0
  9
$DIMSE2
 70
     0
  9
$DIMTAD
 70
     1
  9
$DIMZIN
 70
     8
  9
$DIMBLK
  1

  9
$DIMASO
 70
     1
  9
$DIMSHO
 70
     0
  9
$DIMPOST
  1

  9
$DIMAPOST
  1

  9
$DIMALT
 70
     0
  9
$DIMALTD
 70
     2
  9
$DIMALTF
 40
25.3999999999999986
  9
$DIMLFAC
 40
2.0
  9
$DIMTOFL
 70
     1
  9
$DIMTVP
 40
0.0
  9
$DIMTIX
 70
     0
  9
$DIMSOXD
 70
     0
  9
$DIMSAH
 70
     0
  9
$DIMBLK1
  1

  9
$DIMBLK2
  1

  9
$DIMSTYLE
  2
STANDARD
  9
$DIMCLRD
 70
     0
  9
$DIMCLRE
 70
     0
  9
$DIMCLRT
 70
     1
  9
$DIMTFAC
 40
0.5142857142857143
  9
$DIMGAP
 40
1.5
  9
$LUNITS
 70
     2
  9
$LUPREC
 70
     2
  9
$SKETCHINC
 40
1.0
  9
$FILLETRAD
 40
0.0
  9
$AUNITS
 70
     0
  9
$AUPREC
 70
     0
  9
$MENU
  1
ACAD
  9
$ELEVATION
 40
0.0
  9
$PELEVATION
 40
0.0
  9
$THICKNESS
 40
0.0
  9
$LIMCHECK
 70
     0
  9
$BLIPMODE
 70
     0
  9
$CHAMFERA
 40
0.0
  9
$CHAMFERB
 40
0.0
  9
$SKPOLY
 70
     0
  9
$TDCREATE
 40
2455397.8646990740671754
  9
$TDUPDATE
 40
2458380.3638078700751066
  9
$TDINDWG
 40
0.1352764352
  9
$TDUSRTIMER
 40
0.1352764352
  9
$USRTIMER
 70
     1
  9
$ANGBASE
 50
0.0
  9
$ANGDIR
 70
     0
  9
$PDMODE
 70
     0
  9
$PDSIZE
 40
0.0
  9
$PLINEWID
 40
0.0
  9
$COORDS
 70
     1
  9
$SPLFRAME
 70
     0
  9
$SPLINETYPE
 70
     6
  9
$SPLINESEGS
 70
     8
  9
$ATTDIA
 70
     1
  9
$ATTREQ
 70
     1
  9
$HANDLING
 70
     1
  9
$HANDSEED
  5
1034
  9
$SURFTAB1
 70
     6
  9
$SURFTAB2
 70
     6
  9
$SURFTYPE
 70
     6
  9
$SURFU
 70
     6
  9
$SURFV
 70
     6
  9
$UCSNAME
  2

  9
$UCSORG
 10
0.0
 20
0.0
 30
0.0
  9
$UCSXDIR
 10
1.0
 20
0.0
 30
0.0
  9
$UCSYDIR
 10
0.0
 20
1.0
 30
0.0
  9
$PUCSNAME
  2

  9
$PUCSORG
 10
0.0
 20
0.0
 30
0.0
  9
$PUCSXDIR
 10
1.0
 20
0.0
 30
0.0
  9
$PUCSYDIR
 10
0.0
 20
1.0
 30
0.0
  9
$USERI1
 70
     0
  9
$USERI2
 70
     0
  9
$USERI3
 70
     0
  9
$USERI4
 70
     0
  9
$USERI5
 70
     0
  9
$USERR1
 40
0.0
  9
$USERR2
 40
0.0
  9
$USERR3
 40
0.0
  9
$USERR4
 40
0.0
  9
$USERR5
 40
0.0
  9
$WORLDVIEW
 70
     1
  9
$SHADEDGE
 70
     3
  9
$SHADEDIF
 70
    70
  9
$TILEMODE
 70
     1
  9
$MAXACTVP
 70
    16
  9
$PLIMCHECK
 70
     0
  9
$PEXTMIN
 10
-80.4999994305071596
 20
-4.9999999999997584
 30
-8.0627231179680621
  9
$PEXTMAX
 10
198.7328328599473934
 20
552.6200000000000045
 30
806.2723117968077986
  9
$PLIMMIN
 10
-5.0737234526656101
 20
-2.233218016234046
  9
$PLIMMAX
 10
203.8065483295175966
 20
293.1767844152066118
  9
$UNITMODE
 70
     0
  9
$VISRETAIN
 70
     0
  9
$PLINEGEN
 70
     0
  9
$PSLTSCALE
 70
     0
  0
ENDSEC
  0
SECTION
  2
TABLES
  0
TABLE
  2
VPORT
 70
     1
  0
VPORT
  2
*ACTIVE
 70
     0
 10
0.0
 20
0.0
 11
1.0
 21
1.0
 12
0.0
 22
0.0
 13
0.0
 23
0.0
 14
1.0
 24
1.0
 15
10.0
 25
10.0
 16
-0.0000000000008527
 26
0.0
 36
3954.2772185012008777
 17
337.5825564829078189
 27
622.5753087032553594
 37
0.0000000000000715
 40
1563.1025240192971069
 41
1.875
 42
50.0
 43
0.0
 44
0.0
 50
0.0
 51
0.0
 71
     0
 72
  1500
 73
     1
 74
     0
 75
     0
 76
     0
 77
     0
 78
     0
  0
ENDTAB
  0
TABLE
  2
LTYPE
 70
     7
  0
LTYPE
  2
CONTINUOUS
 70
     0
  3
Solid line
 72
    65
 73
     0
 40
0.0
  0
LTYPE
  2
VERDECKT
 70
     0
  3
Verdeckt __ __ __ __ __ __ __ __ __ __ __ __ __
 72
    65
 73
     2
 40
0.375
 49
0.25
 49
-0.125
  0
ENDTAB
  0
TABLE
  2
LAYER
 70
    15
  0
LAYER
  2
0
 70
     0
 62
     7
  6
CONTINUOUS
  0
LAYER
  2
STEMPEL
 70
     0
 62
     3
  6
CONTINUOUS
  0
LAYER
  2
ADSK_ASSOC_ENTITY_BACKUPS
 70
     1
 62
    -7
  6
CONTINUOUS
  0
ENDTAB
  0
TABLE
  2
STYLE
 70
     4
  0
STYLE
  2
STANDARD
 70
     0
 40
0.0
 41
0.8
 50
0.0
 71
     0
 42
3.5
  3
simplex.shx
  4

  0
ENDTAB
  0
TABLE
  2
VIEW
 70
     1
  0
ENDTAB
  0
TABLE
  2
UCS
 70
     0
  0
ENDTAB
  0
TABLE
  2
APPID
 70
    17
  0
APPID
  2
ACAD
 70
     0
  0
APPID
  2
ACAD_NAV_VCDISPLAY
 70
     0
  0
APPID
  2
ACAD_PSEXT
 70
     0
  0
APPID
  2
ACAECLAYERSTANDARD
 70
     0
  0
APPID
  2
ACADANNOPO
 70
     0
  0
APPID
  2
ACAD_EXEMPT_FROM_CAD_STANDARDS
 70
     0
  0
APPID
  2
ACCMTRANSPARENCY
 70
     0
  0
APPID
  2
ACSYNERGY
 70
     0
  0
APPID
  2
SYNERGY_BODY_TBR_ID
 70
     0
  0
APPID
  2
ACAD_VIEW_EDGE_ID
 70
     0
  0
APPID
  2
ACSYNERGYSKETCH
 70
     0
  0
APPID
  2
ACAD_DSTYLE_DIMJAG
 70
     0
  0
APPID
  2
ACAD_DSTYLE_DIMTALN
 70
     0
  0
APPID
  2
ACADANNOMONITORALERTICONDI
 70
     0
  0
APPID
  2
PLOTTRANSPARENCY
 70
     0
  0
APPID
  2
ACAD_MLEADERVER
 70
     0
  0
APPID
  2
AcDbAttr
 70
     0
  0
ENDTAB
  0
TABLE
  2
DIMSTYLE
 70
     2
  0
DIMSTYLE
  2
STANDARD
 70
     0
  3

  4

  5

  6

  7

 40
1.0
 41
0.18
 42
0.0625
 43
0.38
 44
0.18
 45
0.0
 46
0.0
 47
0.0
 48
0.0
140
0.18
141
0.09
142
0.0
143
25.3999999999999986
144
1.0
145
0.0
146
1.0
147
0.09
 71
     0
 72
     0
 73
     1
 74
     1
 75
     0
 76
     0
 77
     0
 78
     0
170
     0
171
     2
172
     0
173
     0
174
     0
175
     0
176
     0
177
     0
178
     0
  0
ENDTAB
  0
ENDSEC
  0
SECTION
  2
BLOCKS
  0
BLOCK
  8
0
  2
$MODEL_SPACE
 70
     0
 10
0.0
 20
0.0
 30
0.0
  3
$MODEL_SPACE
  1

  0
ENDBLK
  5
36
  8
0
  0
BLOCK
 67
     1
  8
0
  2
$PAPER_SPACE
 70
     0
 10
0.0
 20
0.0
 30
0.0
  3
$PAPER_SPACE
  1

  0
ENDBLK
  5
34
 67
     1
  8
0
  0
BLOCK
  8
0
  2
*S3
 70
     1
 10
0.0
 20
0.0
 30
0.0
  3
*S3
  1

  0
ENDBLK
  5
91D
  8
0
  0
BLOCK
  8
0
  2
A$C13343AF3
 70
     0
 10
0.0
 20
0.0
 30
0.0
  3
A$C13343AF3
  1

  0
LINE
  5
FAC
  8
0
  6
CONTINUOUS
 62
     3
 10
17.3882948153117702
 20
1129.8860842320329994
 30
-0.0000000000002431
 11
-33.6117051846881623
 21
1129.8860842320329994
 31
-0.0000000000002431
210
0.0
220
1.0
230
-0.0000000000000002
  0
LINE
  5
FAD
  8
0
  6
CONTINUOUS
 62
     3
 10
-33.6117051846881694
 20
1129.8860842320329994
 30
-0.0000000000002431
 11
-84.6117051846881054
 21
1129.8860842320329994
 31
-0.0000000000002431
210
0.0
220
1.0
230
-0.0000000000000002
  0
LINE
  5
FAE
  8
0
  6
CONTINUOUS
 62
     3
 10
-80.6742618670584193
 20
34.8860842320329994
 30
0.0
 11
13.4508514976820894
 21
34.8860842320329994
 31
0.0
210
0.0
220
1.0
230
-0.0000000000000002
  0
ARC
  5
FAF
  8
0
  6
CONTINUOUS
 62
     3
 10
72.6117051846882902
 20
143.9647817191772106
 30
-0.0000000000000077
 40
11.9999999999996998
210
0.0
220
-0.0000000000000002
230
-1.0
 50
340.7099537808110199
 51
0.0
  0
ARC
  5
FB0
  8
0
  6
CONTINUOUS
 62
     3
 10
-5.3882948153119647
 20
143.9647817191772106
 30
-0.0000000000000077
 40
11.9999999999996998
210
0.0
220
-0.0000000000000002
230
-1.0
 50
180.0
 51
199.2900462191888948
  0
LINE
  5
FB1
  8
0
  6
CONTINUOUS
 62
     3
 10
-81.7854049082956749
 20
133.8502893287698896
 30
-0.000000000000022
 11
-83.9380054610801949
 21
140.0005766224400077
 31
-0.0000000000000233
210
0.0
220
1.0
230
-0.0000000000000002
  0
LINE
  5
FB2
  8
0
  6
CONTINUOUS
 62
     3
 10
14.5619945389193592
 20
133.8502893287698896
 30
-0.000000000000022
 11
16.714595091703881
 21
140.0005766224400077
 31
-0.0000000000000233
210
0.0
220
1.0
230
-0.0000000000000002
  0
ARC
  5
FB3
  8
0
  6
CONTINUOUS
 62
     3
 10
93.1117051846853201
 20
129.8860842320333973
 30
-0.0000000000000077
 40
11.9999999999973106
210
0.0
220
-0.0000000000000002
230
-1.0
 50
160.7099537808105936
 51
180.0000000000019895
  0
ARC
  5
FB4
  8
0
  6
CONTINUOUS
 62
     3
 10
-25.8882948153091093
 20
129.886084232033312
 30
-0.0000000000000077
 40
11.9999999999974296
210
0.0
220
-0.0000000000000002
230
-1.0
 50
0.0
 51
19.2900462191915594
  0
LINE
  5
FB5
  8
0
  6
CONTINUOUS
 62
     3
 10
13.8882948153116708
 20
129.8860842320329141
 30
-0.0000000000000211
 11
13.8882948153116708
 21
39.8860842320329994
 31
-0.0000000000000011
210
0.0
220
1.0
230
-0.0000000000000002
  0
LINE
  5
FB6
  8
0
  6
CONTINUOUS
 62
     3
 10
-81.1117051846879917
 20
129.8860842320329141
 30
-0.0000000000000211
 11
-81.1117051846879917
 21
39.8860842320329994
 31
-0.0000000000000011
210
0.0
220
1.0
230
-0.0000000000000002
  0
LINE
  5
FB7
  8
0
  6
CONTINUOUS
 62
     3
 10
-80.6742618670584193
 20
34.8860842320329994
 30
0.0
 11
-81.1117051846879917
 21
39.8860842320329994
 31
-0.0000000000000011
210
0.0
220
1.0
230
-0.0000000000000002
  0
LINE
  5
FB8
  8
0
  6
CONTINUOUS
 62
     3
 10
13.4508514976820894
 20
34.8860842320329994
 30
0.0
 11
13.8882948153116708
 21
39.8860842320329994
 31
-0.0000000000000011
210
0.0
220
1.0
230
-0.0000000000000002
  0
LINE
  5
FB9
  8
0
  6
CONTINUOUS
 62
     3
 10
17.3882948153117205
 20
1129.8860842320329994
 30
-0.0000000000002431
 11
17.3882948153117205
 21
143.9647817191772958
 31
-0.0000000000000242
210
0.0
220
1.0
230
-0.0000000000000002
  0
LINE
  5
FBA
  8
0
  6
CONTINUOUS
 62
     3
 10
-84.6117051846880344
 20
1129.8860842320329994
 30
-0.0000000000002431
 11
-84.6117051846880344
 21
143.9647817191772958
 31
-0.0000000000000242
210
0.0
220
1.0
230
-0.0000000000000002
  0
LINE
  5
FBB
  8
0
  6
VERDECKT
 62
     1
 10
-79.1799698199208137
 20
35.0168178461544812
 30
0.0
 11
11.9565594505444892
 21
35.0168178461544812
 31
0.0
210
0.0
220
1.0
230
-0.0000000000000002
  0
LINE
  5
FBC
  8
0
  6
VERDECKT
 62
     1
 10
11.9565594505444892
 20
35.0168178461544812
 30
0.0
 11
13.4508514976820894
 21
34.8860842320329994
 31
0.0
210
0.0
220
1.0
230
-0.0000000000000002
  0
LINE
  5
FBD
  8
0
  6
VERDECKT
 62
     1
 10
-79.1799698199208137
 20
35.0168178461544812
 30
0.0
 11
-80.6742618670584193
 21
34.8860842320329994
 31
0.0
210
0.0
220
1.0
230
-0.0000000000000002
  0
LINE
  5
FBE
  8
0
  6
VERDECKT
 62
     1
 10
-79.1799698199208137
 20
35.0168178461544812
 30
0.0
 11
-79.6117051846879917
 21
39.9515756463955327
 31
-0.0000000000000011
210
0.0
220
1.0
230
-0.0000000000000002
  0
LINE
  5
FBF
  8
0
  6
VERDECKT
 62
     1
 10
11.9565594505444892
 20
35.0168178461544812
 30
0.0
 11
12.3882948153116601
 21
39.9515756463954972
 31
-0.0000000000000011
210
0.0
220
1.0
230
-0.0000000000000002
  0
LINE
  5
FC0
  8
0
  6
VERDECKT
 62
     1
 10
12.3882948153116708
 20
129.8860842320329141
 30
-0.0000000000000211
 11
12.3882948153116708
 21
39.9515756463954972
 31
-0.0000000000000011
210
0.0
220
1.0
230
-0.0000000000000002
  0
LINE
  5
FC1
  8
0
  6
VERDECKT
 62
     1
 10
-79.6117051846879917
 20
129.8860842320329141
 30
-0.0000000000000211
 11
-79.6117051846879917
 21
39.9515756463955327
 31
-0.0000000000000011
210
0.0
220
1.0
230
-0.0000000000000002
  0
ARC
  5
FC2
  8
0
  6
VERDECKT
 62
     1
 10
93.111705184686798
 20
129.8860842320331983
 30
-0.0000000000000077
 40
13.4999999999988098
210
0.0
220
-0.0000000000000002
230
-1.0
 50
160.7099537808122989
 51
180.0000000000011937
  0
ARC
  5
FC3
  8
0
  6
VERDECKT
 62
     1
 10
-25.8882948153102284
 20
129.8860842320331983
 30
-0.0000000000000077
 40
13.4999999999985505
210
0.0
220
-0.0000000000000002
230
-1.0
 50
359.9999999999988063
 51
19.2900462191876905
  0
LINE
  5
FC4
  8
0
  6
VERDECKT
 62
     1
 10
-80.3696173737466211
 20
134.345814965861905
 30
-0.0000000000000221
 11
-82.5222179265311553
 21
140.4961022595321936
 31
-0.0000000000000235
210
0.0
220
1.0
230
-0.0000000000000002
  0
LINE
  5
FC5
  8
0
  6
VERDECKT
 62
     1
 10
13.1462070043702894
 20
134.345814965861905
 30
-0.0000000000000221
 11
15.2988075571548094
 21
140.4961022595321936
 31
-0.0000000000000235
210
0.0
220
1.0
230
-0.0000000000000002
  0
ARC
  5
FC6
  8
0
  6
VERDECKT
 62
     1
 10
72.6117051846856896
 20
143.9647817191778074
 30
-0.0000000000000077
 40
10.5000000000023093
210
0.0
220
-0.0000000000000002
230
-1.0
 50
340.709953780812782
 51
359.9999999999972147
  0
ARC
  5
FC7
  8
0
  6
VERDECKT
 62
     1
 10
-5.388294815309365
 20
143.9647817191778074
 30
-0.0000000000000077
 40
10.5000000000023093
210
0.0
220
-0.0000000000000002
230
-1.0
 50
180.0000000000028137
 51
199.2900462191871043
  0
LINE
  5
FC8
  8
0
  6
VERDECKT
 62
     1
 10
15.8882948153117205
 20
1129.8860842320329994
 30
-0.0000000000002431
 11
15.8882948153117205
 21
143.9647817191772958
 31
-0.0000000000000242
210
0.0
220
1.0
230
-0.0000000000000002
  0
LINE
  5
FC9
  8
0
  6
VERDECKT
 62
     1
 10
-83.1117051846880344
 20
1129.8860842320329994
 30
-0.0000000000002431
 11
-83.1117051846880344
 21
143.9647817191772958
 31
-0.0000000000000242
210
0.0
220
1.0
230
-0.0000000000000002
  0
ENDBLK
  5
FCA
  8
0
  0
BLOCK
  8
0
  2
A$C3F5C21C4
 70
     0
 10
0.0
 20
0.0
 30
0.0
  3
A$C3F5C21C4
  1

  0
CIRCLE
  5
FCD
  8
0
  6
CONTINUOUS
 62
     3
 10
0.0000000000002427
 20
0.0000000000000232
 30
0.0
 40
49.4999999999999432
  0
CIRCLE
  5
FCE
  8
0
  6
CONTINUOUS
 62
     3
 10
0.0000000000002427
 20
0.0000000000000172
 30
0.0
 40
50.9999999999999289
  0
CIRCLE
  5
FCF
  8
0
  6
CONTINUOUS
 62
     3
 10
0.0
 20
0.0000000000000128
 30
0.0
 40
45.5682646352326515
  0
CIRCLE
  5
FD0
  8
0
  6
CONTINUOUS
 62
     3
 10
0.0000000000000211
 20
0.0000000000000186
 30
0.0
 40
45.9999999999998224
  0
CIRCLE
  5
FD1
  8
0
  6
VERDECKT
 62
     1
 10
0.0000000000000211
 20
0.0000000000000186
 30
0.0
 40
47.4999999999998295
  0
CIRCLE
  5
FD2
  8
0
  6
VERDECKT
 62
     1
 10
0.0
 20
0.0000000000000128
 30
0.0
 40
47.062556682370257
  0
ENDBLK
  5
FD3
  8
0
  0
ENDSEC
  0
SECTION
  2
ENTITIES
  0
INSERT
  5
91F
  8
ADSK_ASSOC_ENTITY_BACKUPS
  2
*S3
 10
0.0
 20
0.0
 30
0.0
  0
INSERT
  5
FDD
  8
STEMPEL
  2
A$C13343AF3
 10
33.6117051846881694
 20
115.9831821538454051
 30
0.0
  0
INSERT
  5
FDE
  8
STEMPEL
  2
A$C3F5C21C4
 10
-0.0000000000002416
 20
-0.0000000000000213
 30
0.0
  0
VIEWPORT
  5
593
 67
     1
  8
0
 10
141.7428101537275893
 20
109.704064541848993
 30
0.0
 40
1593.4395901428799789
 41
874.3489033091700549
 68
     1
 69
     1
1001
ACAD
1000
MVIEW
1002
{
1070
    16
1010
0.0
1020
0.0
1030
0.0
1010
0.0
1020
0.0
1030
1.0
1040
0.0
1040
874.3489033091700549
1040
141.7428101537275893
1040
109.704064541848993
1040
50.0
1040
0.0
1040
0.0
1070
     0
1070
  1500
1070
     1
1070
     1
1070
     0
1070
     0
1070
     0
1070
     0
1040
0.0
1040
0.0
1040
0.0
1040
10.0
1040
10.0
1040
10.0
1040
10.0
1070
     0
1002
{
1002
}
1002
}
  0
ENDSEC
  0
EOF
