  0
SECTION
  2
HEADER
  9
$ACADVER
  1
AC1009
  9
$INSBASE
 10
0.0
 20
0.0
 30
0.0
  9
$EXTMIN
 10
-50.9999999999999432
 20
-250.9999999999998863
 30
-0.0000000000006872
  9
$EXTMAX
 10
51.0000000000006111
 20
3095.0000000000009095
 30
3095.0
  9
$LIMMIN
 10
0.0
 20
0.0
  9
$LIMMAX
 10
419.9999999999998863
 20
594.0
  9
$ORTHOMODE
 70
     1
  9
$REGENMODE
 70
     1
  9
$FILLMODE
 70
     1
  9
$QTEXTMODE
 70
     0
  9
$MIRRTEXT
 70
     1
  9
$DRAGMODE
 70
     2
  9
$LTSCALE
 40
20.0
  9
$OSMODE
 70
   183
  9
$ATTMODE
 70
     1
  9
$TEXTSIZE
 40
3.5
  9
$TRACEWID
 40
0.5
  9
$TEXTSTYLE
  7
STANDARD
  9
$CLAYER
  8
STEMPEL
  9
$CELTYPE
  6
BYLAYER
  9
$CECOLOR
 62
   256
  9
$DIMSCALE
 40
1.0
  9
$DIMASZ
 40
3.5
  9
$DIMEXO
 40
1.0
  9
$DIMDLI
 40
7.0
  9
$DIMRND
 40
0.0
  9
$DIMDLE
 40
0.0
  9
$DIMEXE
 40
1.0
  9
$DIMTP
 40
0.0
  9
$DIMTM
 40
0.0
  9
$DIMTXT
 40
3.5
  9
$DIMCEN
 40
1.5
  9
$DIMTSZ
 40
0.0
  9
$DIMTOL
 70
     0
  9
$DIMLIM
 70
     0
  9
$DIMTIH
 70
     0
  9
$DIMTOH
 70
     0
  9
$DIMSE1
 70
     0
  9
$DIMSE2
 70
     0
  9
$DIMTAD
 70
     1
  9
$DIMZIN
 70
     8
  9
$DIMBLK
  1

  9
$DIMASO
 70
     1
  9
$DIMSHO
 70
     0
  9
$DIMPOST
  1

  9
$DIMAPOST
  1

  9
$DIMALT
 70
     0
  9
$DIMALTD
 70
     2
  9
$DIMALTF
 40
25.3999999999999986
  9
$DIMLFAC
 40
2.0
  9
$DIMTOFL
 70
     1
  9
$DIMTVP
 40
0.0
  9
$DIMTIX
 70
     0
  9
$DIMSOXD
 70
     0
  9
$DIMSAH
 70
     0
  9
$DIMBLK1
  1

  9
$DIMBLK2
  1

  9
$DIMSTYLE
  2
STANDARD
  9
$DIMCLRD
 70
     0
  9
$DIMCLRE
 70
     0
  9
$DIMCLRT
 70
     1
  9
$DIMTFAC
 40
0.5142857142857143
  9
$DIMGAP
 40
1.5
  9
$LUNITS
 70
     2
  9
$LUPREC
 70
     2
  9
$SKETCHINC
 40
1.0
  9
$FILLETRAD
 40
0.0
  9
$AUNITS
 70
     0
  9
$AUPREC
 70
     0
  9
$MENU
  1
ACAD
  9
$ELEVATION
 40
0.0
  9
$PELEVATION
 40
0.0
  9
$THICKNESS
 40
0.0
  9
$LIMCHECK
 70
     0
  9
$BLIPMODE
 70
     0
  9
$CHAMFERA
 40
0.0
  9
$CHAMFERB
 40
0.0
  9
$SKPOLY
 70
     0
  9
$TDCREATE
 40
2455397.8646990740671754
  9
$TDUPDATE
 40
2458374.6210416671819985
  9
$TDINDWG
 40
0.1936213426
  9
$TDUSRTIMER
 40
0.1936213426
  9
$USRTIMER
 70
     1
  9
$ANGBASE
 50
0.0
  9
$ANGDIR
 70
     0
  9
$PDMODE
 70
     0
  9
$PDSIZE
 40
0.0
  9
$PLINEWID
 40
0.0
  9
$COORDS
 70
     1
  9
$SPLFRAME
 70
     0
  9
$SPLINETYPE
 70
     6
  9
$SPLINESEGS
 70
     8
  9
$ATTDIA
 70
     1
  9
$ATTREQ
 70
     1
  9
$HANDLING
 70
     1
  9
$HANDSEED
  5
122C
  9
$SURFTAB1
 70
     6
  9
$SURFTAB2
 70
     6
  9
$SURFTYPE
 70
     6
  9
$SURFU
 70
     6
  9
$SURFV
 70
     6
  9
$UCSNAME
  2

  9
$UCSORG
 10
0.0
 20
0.0
 30
0.0
  9
$UCSXDIR
 10
1.0
 20
0.0
 30
0.0
  9
$UCSYDIR
 10
0.0
 20
1.0
 30
0.0
  9
$PUCSNAME
  2

  9
$PUCSORG
 10
0.0
 20
0.0
 30
0.0
  9
$PUCSXDIR
 10
1.0
 20
0.0
 30
0.0
  9
$PUCSYDIR
 10
0.0
 20
1.0
 30
0.0
  9
$USERI1
 70
     0
  9
$USERI2
 70
     0
  9
$USERI3
 70
     0
  9
$USERI4
 70
     0
  9
$USERI5
 70
     0
  9
$USERR1
 40
0.0
  9
$USERR2
 40
0.0
  9
$USERR3
 40
0.0
  9
$USERR4
 40
0.0
  9
$USERR5
 40
0.0
  9
$WORLDVIEW
 70
     1
  9
$SHADEDGE
 70
     3
  9
$SHADEDIF
 70
    70
  9
$TILEMODE
 70
     1
  9
$MAXACTVP
 70
    16
  9
$PLIMCHECK
 70
     0
  9
$PEXTMIN
 10
-80.4999994305071596
 20
-4.9999999999998153
 30
-8.0627231179680621
  9
$PEXTMAX
 10
198.7328328599473934
 20
1552.6199999999998909
 30
806.2723117968077986
  9
$PLIMMIN
 10
-5.0737234526656101
 20
-2.233218016234046
  9
$PLIMMAX
 10
203.8065483295175966
 20
293.1767844152066118
  9
$UNITMODE
 70
     0
  9
$VISRETAIN
 70
     0
  9
$PLINEGEN
 70
     0
  9
$PSLTSCALE
 70
     0
  0
ENDSEC
  0
SECTION
  2
TABLES
  0
TABLE
  2
VPORT
 70
     1
  0
VPORT
  2
*ACTIVE
 70
     0
 10
0.0
 20
0.0
 11
1.0
 21
1.0
 12
0.0
 22
0.0
 13
0.0
 23
0.0
 14
1.0
 24
1.0
 15
10.0
 25
10.0
 16
-0.0000000000034106
 26
0.0
 36
15093.8933034163292177
 17
753.1610348423484993
 27
1094.3421926959340453
 37
1547.4999999999990905
 40
6099.241464273535712
 41
1.8224299065420551
 42
50.0
 43
0.0
 44
0.0
 50
0.0
 51
0.0
 71
     0
 72
  1500
 73
     1
 74
     0
 75
     0
 76
     0
 77
     0
 78
     0
  0
ENDTAB
  0
TABLE
  2
LTYPE
 70
     6
  0
LTYPE
  2
CONTINUOUS
 70
     0
  3
Solid line
 72
    65
 73
     0
 40
0.0
  0
LTYPE
  2
VERDECKT
 70
     0
  3
Verdeckt __ __ __ __ __ __ __ __ __ __ __ __ __
 72
    65
 73
     2
 40
0.375
 49
0.25
 49
-0.125
  0
ENDTAB
  0
TABLE
  2
LAYER
 70
    15
  0
LAYER
  2
0
 70
     0
 62
     7
  6
CONTINUOUS
  0
LAYER
  2
STEMPEL
 70
     0
 62
     3
  6
CONTINUOUS
  0
LAYER
  2
MATERIAL__VERSINKT_
 70
     0
 62
   254
  6
CONTINUOUS
  0
LAYER
  2
ADSK_ASSOC_ENTITY_BACKUPS
 70
     1
 62
    -7
  6
CONTINUOUS
  0
ENDTAB
  0
TABLE
  2
STYLE
 70
     5
  0
STYLE
  2
STANDARD
 70
     0
 40
0.0
 41
0.8
 50
0.0
 71
     0
 42
3.5
  3
simplex.shx
  4

  0
ENDTAB
  0
TABLE
  2
VIEW
 70
     1
  0
ENDTAB
  0
TABLE
  2
UCS
 70
     0
  0
ENDTAB
  0
TABLE
  2
APPID
 70
    17
  0
APPID
  2
ACAD
 70
     0
  0
APPID
  2
ACAD_NAV_VCDISPLAY
 70
     0
  0
APPID
  2
ACAD_PSEXT
 70
     0
  0
APPID
  2
ACAECLAYERSTANDARD
 70
     0
  0
APPID
  2
ACADANNOPO
 70
     0
  0
APPID
  2
ACAD_EXEMPT_FROM_CAD_STANDARDS
 70
     0
  0
APPID
  2
ACCMTRANSPARENCY
 70
     0
  0
APPID
  2
ACSYNERGY
 70
     0
  0
APPID
  2
SYNERGY_BODY_TBR_ID
 70
     0
  0
APPID
  2
ACAD_VIEW_EDGE_ID
 70
     0
  0
APPID
  2
ACSYNERGYSKETCH
 70
     0
  0
APPID
  2
ACAD_DSTYLE_DIMJAG
 70
     0
  0
APPID
  2
ACAD_DSTYLE_DIMTALN
 70
     0
  0
APPID
  2
ACADANNOMONITORALERTICONDI
 70
     0
  0
APPID
  2
PLOTTRANSPARENCY
 70
     0
  0
APPID
  2
ACAD_MLEADERVER
 70
     0
  0
APPID
  2
AcDbAttr
 70
     0
  0
ENDTAB
  0
TABLE
  2
DIMSTYLE
 70
     3
  0
DIMSTYLE
  2
STANDARD
 70
     0
  3

  4

  5

  6

  7

 40
1.0
 41
0.18
 42
0.0625
 43
0.38
 44
0.18
 45
0.0
 46
0.0
 47
0.0
 48
0.0
140
0.18
141
0.09
142
0.0
143
25.3999999999999986
144
1.0
145
0.0
146
1.0
147
0.09
 71
     0
 72
     0
 73
     1
 74
     1
 75
     0
 76
     0
 77
     0
 78
     0
170
     0
171
     2
172
     0
173
     0
174
     0
175
     0
176
     0
177
     0
178
     0
  0
ENDTAB
  0
ENDSEC
  0
SECTION
  2
BLOCKS
  0
BLOCK
  8
0
  2
$MODEL_SPACE
 70
     0
 10
0.0
 20
0.0
 30
0.0
  3
$MODEL_SPACE
  1

  0
ENDBLK
  5
36
  8
0
  0
BLOCK
 67
     1
  8
0
  2
$PAPER_SPACE
 70
     0
 10
0.0
 20
0.0
 30
0.0
  3
$PAPER_SPACE
  1

  0
ENDBLK
  5
34
 67
     1
  8
0
  0
BLOCK
  8
0
  2
*S3
 70
     1
 10
0.0
 20
0.0
 30
0.0
  3
*S3
  1

  0
ENDBLK
  5
91D
  8
0
  0
BLOCK
  8
0
  2
A$C1E4F40D4
 70
     0
 10
0.0
 20
0.0
 30
0.0
  3
A$C1E4F40D4
  1

  0
LINE
  5
1178
  8
0
  6
CONTINUOUS
 62
     3
 10
50.9999999999999432
 20
3095.0000000000009095
 30
-0.0000000000006872
 11
-50.9999999999999432
 21
3095.0000000000009095
 31
-0.0000000000006872
210
0.0
220
1.0
230
-0.0000000000000002
  0
LINE
  5
1179
  8
0
  6
CONTINUOUS
 62
     3
 10
-47.062556682370257
 20
0.0
 30
0.0
 11
47.062556682370257
 21
0.0
 31
0.0
210
0.0
220
1.0
230
-0.0000000000000002
  0
ARC
  5
117A
  8
0
  6
CONTINUOUS
 62
     3
 10
39.0000000000001279
 20
109.078697487144197
 30
0.0
 40
11.9999999999996998
210
0.0
220
-0.0000000000000002
230
-1.0
 50
340.7099537808110199
 51
0.0000000000001399
  0
ARC
  5
117B
  8
0
  6
CONTINUOUS
 62
     3
 10
-39.0000000000001279
 20
109.078697487144197
 30
0.0
 40
11.9999999999996998
210
0.0
220
-0.0000000000000002
230
-1.0
 50
179.999999999999801
 51
199.2900462191888948
  0
LINE
  5
117C
  8
0
  6
CONTINUOUS
 62
     3
 10
-48.1736997236075197
 20
98.9642050967368903
 30
-0.000000000000022
 11
-50.3263002763920326
 21
105.1144923904069941
 31
-0.0000000000000233
210
0.0
220
1.0
230
-0.0000000000000002
  0
LINE
  5
117D
  8
0
  6
CONTINUOUS
 62
     3
 10
48.1736997236075197
 20
98.9642050967368903
 30
-0.000000000000022
 11
50.3263002763920326
 21
105.1144923904069941
 31
-0.0000000000000233
210
0.0
220
1.0
230
-0.0000000000000002
  0
ARC
  5
117E
  8
0
  6
CONTINUOUS
 62
     3
 10
59.4999999999971507
 20
95.0000000000003837
 30
0.0
 40
11.9999999999973106
210
0.0
220
-0.0000000000000002
230
-1.0
 50
160.7099537808107073
 51
180.0000000000021885
  0
ARC
  5
117F
  8
0
  6
CONTINUOUS
 62
     3
 10
-59.4999999999972715
 20
95.0000000000003695
 30
0.0
 40
11.9999999999974296
210
0.0
220
-0.0000000000000002
230
-1.0
 50
0.0
 51
19.2900462191913817
  0
LINE
  5
1180
  8
0
  6
CONTINUOUS
 62
     3
 10
47.4999999999998295
 20
94.9999999999999147
 30
-0.0000000000000211
 11
47.4999999999998295
 21
5.0
 31
-0.0000000000000011
210
0.0
220
1.0
230
-0.0000000000000002
  0
LINE
  5
1181
  8
0
  6
CONTINUOUS
 62
     3
 10
-47.4999999999998295
 20
94.9999999999999147
 30
-0.0000000000000211
 11
-47.4999999999998295
 21
5.0
 31
-0.0000000000000011
210
0.0
220
1.0
230
-0.0000000000000002
  0
LINE
  5
1182
  8
0
  6
CONTINUOUS
 62
     3
 10
-47.062556682370257
 20
0.0
 30
0.0
 11
-47.4999999999998295
 21
5.0
 31
-0.0000000000000011
210
0.0
220
1.0
230
-0.0000000000000002
  0
LINE
  5
1183
  8
0
  6
CONTINUOUS
 62
     3
 10
47.062556682370257
 20
0.0
 30
0.0
 11
47.4999999999998295
 21
5.0
 31
-0.0000000000000011
210
0.0
220
1.0
230
-0.0000000000000002
  0
LINE
  5
1184
  8
0
  6
CONTINUOUS
 62
     3
 10
50.9999999999998792
 20
3095.0000000000009095
 30
-0.0000000000006872
 11
50.9999999999998792
 21
109.078697487144396
 31
-0.0000000000000242
210
0.0
220
1.0
230
-0.0000000000000002
  0
LINE
  5
1185
  8
0
  6
CONTINUOUS
 62
     3
 10
-50.9999999999998792
 20
3095.0000000000009095
 30
-0.0000000000006872
 11
-50.9999999999998792
 21
109.078697487144396
 31
-0.0000000000000242
210
0.0
220
1.0
230
-0.0000000000000002
  0
LINE
  5
1186
  8
0
  6
VERDECKT
 62
     1
 10
-45.5682646352326515
 20
0.1307336141214819
 30
0.0
 11
45.5682646352326515
 21
0.1307336141214819
 31
0.0
210
0.0
220
1.0
230
-0.0000000000000002
  0
LINE
  5
1187
  8
0
  6
VERDECKT
 62
     1
 10
45.5682646352326515
 20
0.1307336141214819
 30
0.0
 11
47.062556682370257
 21
0.0
 31
0.0
210
0.0
220
1.0
230
-0.0000000000000002
  0
LINE
  5
1188
  8
0
  6
VERDECKT
 62
     1
 10
-45.5682646352326515
 20
0.1307336141214819
 30
0.0
 11
-47.062556682370257
 21
0.0
 31
0.0
210
0.0
220
1.0
230
-0.0000000000000002
  0
LINE
  5
1189
  8
0
  6
VERDECKT
 62
     1
 10
-45.5682646352326515
 20
0.1307336141214823
 30
0.0
 11
-45.9999999999998224
 21
5.0654914143625271
 31
-0.0000000000000011
210
0.0
220
1.0
230
-0.0000000000000002
  0
LINE
  5
118A
  8
0
  6
VERDECKT
 62
     1
 10
45.5682646352326515
 20
0.1307336141214823
 30
0.0
 11
45.9999999999998224
 21
5.0654914143624978
 31
-0.0000000000000011
210
0.0
220
1.0
230
-0.0000000000000002
  0
LINE
  5
118B
  8
0
  6
VERDECKT
 62
     1
 10
45.9999999999998224
 20
94.9999999999999147
 30
-0.0000000000000211
 11
45.9999999999998224
 21
5.0654914143624978
 31
-0.0000000000000011
210
0.0
220
1.0
230
-0.0000000000000002
  0
LINE
  5
118C
  8
0
  6
VERDECKT
 62
     1
 10
-45.9999999999998224
 20
94.9999999999999147
 30
-0.0000000000000211
 11
-45.9999999999998224
 21
5.0654914143625271
 31
-0.0000000000000011
210
0.0
220
1.0
230
-0.0000000000000002
  0
ARC
  5
118D
  8
0
  6
VERDECKT
 62
     1
 10
59.4999999999986429
 20
95.0000000000001705
 30
0.0
 40
13.4999999999988098
210
0.0
220
-0.0000000000000002
230
-1.0
 50
160.7099537808122989
 51
180.0000000000011084
  0
ARC
  5
118E
  8
0
  6
VERDECKT
 62
     1
 10
-59.4999999999983871
 20
95.0000000000002274
 30
0.0
 40
13.4999999999985505
210
0.0
220
-0.0000000000000002
230
-1.0
 50
359.9999999999985789
 51
19.2900462191876905
  0
LINE
  5
118F
  8
0
  6
VERDECKT
 62
     1
 10
-46.7579121890584517
 20
99.4597307338289767
 30
-0.0000000000000221
 11
-48.9105127418429788
 21
105.6100180274991942
 31
-0.0000000000000235
210
0.0
220
1.0
230
-0.0000000000000002
  0
LINE
  5
1190
  8
0
  6
VERDECKT
 62
     1
 10
46.7579121890584517
 20
99.4597307338289767
 30
-0.0000000000000221
 11
48.9105127418429788
 21
105.6100180274991942
 31
-0.0000000000000235
210
0.0
220
1.0
230
-0.0000000000000002
  0
ARC
  5
1191
  8
0
  6
VERDECKT
 62
     1
 10
38.9999999999975273
 20
109.0786974871447939
 30
0.0
 40
10.5000000000023093
210
0.0
220
-0.0000000000000002
230
-1.0
 50
340.7099537808127252
 51
359.9999999999972147
  0
ARC
  5
1192
  8
0
  6
VERDECKT
 62
     1
 10
-38.9999999999975273
 20
109.0786974871447939
 30
0.0
 40
10.5000000000023093
210
0.0
220
-0.0000000000000002
230
-1.0
 50
180.0000000000028137
 51
199.2900462191871895
  0
LINE
  5
1193
  8
0
  6
VERDECKT
 62
     1
 10
49.4999999999998792
 20
3095.0000000000009095
 30
-0.0000000000006872
 11
49.4999999999998792
 21
109.078697487144396
 31
-0.0000000000000242
210
0.0
220
1.0
230
-0.0000000000000002
  0
LINE
  5
1194
  8
0
  6
VERDECKT
 62
     1
 10
-49.4999999999998792
 20
3095.0000000000009095
 30
-0.0000000000006872
 11
-49.4999999999998792
 21
109.078697487144396
 31
-0.0000000000000242
210
0.0
220
1.0
230
-0.0000000000000002
  0
ENDBLK
  5
1196
  8
0
  0
BLOCK
  8
0
  2
A$C1F6F1199
 70
     0
 10
0.0
 20
0.0
 30
0.0
  3
A$C1F6F1199
  1

  0
CIRCLE
  5
119A
  8
0
  6
CONTINUOUS
 62
     3
 10
0.0000000000006872
 20
0.0000000000000071
 30
0.0
 40
49.4999999999999289
  0
CIRCLE
  5
119B
  8
0
  6
CONTINUOUS
 62
     3
 10
0.0000000000006872
 20
0.0000000000000284
 30
0.0
 40
50.9999999999999218
  0
CIRCLE
  5
119C
  8
0
  6
CONTINUOUS
 62
     3
 10
0.0
 20
0.0000000000000128
 30
0.0
 40
45.5682646352326515
  0
CIRCLE
  5
119D
  8
0
  6
CONTINUOUS
 62
     3
 10
0.0000000000000211
 20
0.0000000000000186
 30
0.0
 40
45.9999999999998224
  0
CIRCLE
  5
119E
  8
0
  6
VERDECKT
 62
     1
 10
0.0000000000000211
 20
0.0000000000000186
 30
0.0
 40
47.4999999999998295
  0
CIRCLE
  5
119F
  8
0
  6
VERDECKT
 62
     1
 10
0.0
 20
0.0000000000000128
 30
0.0
 40
47.062556682370257
  0
ENDBLK
  5
11A1
  8
0
  0
BLOCK
  8
0
  2
*U16
 70
     1
 10
0.0
 20
0.0
 30
0.0
  3
*U16
  1

  0
CIRCLE
  5
1207
  8
MATERIAL__VERSINKT_
 10
0.0
 20
-200.0
 30
3095.0
 40
49.4999999999999289
  0
CIRCLE
  5
1208
  8
MATERIAL__VERSINKT_
 10
0.0
 20
-200.0
 30
3095.0
 40
50.9999999999999218
  0
CIRCLE
  5
1209
  8
MATERIAL__VERSINKT_
 10
0.0
 20
-200.0
 30
-105.1144923904069941
 40
50.3263002763920326
210
0.0
220
-0.0000000000000001
230
-1.0
  0
CIRCLE
  5
120A
  8
MATERIAL__VERSINKT_
 10
0.0
 20
-200.0
 30
-109.078697487144197
 40
50.9999999999998295
210
0.0
220
-0.0000000000000001
230
-1.0
  0
CIRCLE
  5
120B
  8
MATERIAL__VERSINKT_
 10
0.0
 20
-200.0
 30
-98.9642050967368476
 40
48.1736997236075126
210
0.0
220
-0.0000000000000001
230
-1.0
  0
CIRCLE
  5
120C
  8
MATERIAL__VERSINKT_
 10
0.0
 20
-200.0
 30
-105.1144923904069941
 40
50.3263002763920326
210
0.0
220
-0.0000000000000001
230
-1.0
  0
CIRCLE
  5
120D
  8
MATERIAL__VERSINKT_
 10
0.0
 20
-200.0
 30
-94.9999999999998721
 40
47.4999999999998295
210
0.0
220
-0.0000000000000001
230
-1.0
  0
CIRCLE
  5
120E
  8
MATERIAL__VERSINKT_
 10
0.0
 20
-200.0
 30
-98.9642050967368476
 40
48.1736997236075126
210
0.0
220
-0.0000000000000001
230
-1.0
  0
CIRCLE
  5
120F
  8
MATERIAL__VERSINKT_
 10
0.0
 20
-200.0
 30
-4.9999999999999867
 40
47.4999999999998295
210
0.0
220
-0.0000000000000001
230
-1.0
  0
CIRCLE
  5
1210
  8
MATERIAL__VERSINKT_
 10
0.0
 20
-200.0
 30
-94.9999999999998721
 40
47.4999999999998295
210
0.0
220
-0.0000000000000001
230
-1.0
  0
CIRCLE
  5
1211
  8
MATERIAL__VERSINKT_
 10
0.0
 20
-200.0
 30
0.0000000000000122
 40
47.062556682370257
210
0.0
220
-0.0000000000000001
230
-1.0
  0
CIRCLE
  5
1212
  8
MATERIAL__VERSINKT_
 10
0.0
 20
-200.0
 30
-4.9999999999999867
 40
47.4999999999998295
210
0.0
220
-0.0000000000000001
230
-1.0
  0
CIRCLE
  5
1213
  8
MATERIAL__VERSINKT_
 10
0.0
 20
-200.0
 30
-0.1307336141214696
 40
45.5682646352326515
210
0.0
220
-0.0000000000000001
230
-1.0
  0
CIRCLE
  5
1214
  8
MATERIAL__VERSINKT_
 10
0.0
 20
-200.0
 30
0.0000000000000122
 40
47.062556682370257
210
0.0
220
-0.0000000000000001
230
-1.0
  0
CIRCLE
  5
1215
  8
MATERIAL__VERSINKT_
 10
0.0
 20
-200.0
 30
-5.0654914143624854
 40
45.9999999999998224
210
0.0
220
-0.0000000000000001
230
-1.0
  0
CIRCLE
  5
1216
  8
MATERIAL__VERSINKT_
 10
0.0
 20
-200.0
 30
-0.1307336141214696
 40
45.5682646352326515
210
0.0
220
-0.0000000000000001
230
-1.0
  0
CIRCLE
  5
1217
  8
MATERIAL__VERSINKT_
 10
0.0
 20
-200.0
 30
-94.9999999999998721
 40
45.9999999999998224
210
0.0
220
-0.0000000000000001
230
-1.0
  0
CIRCLE
  5
1218
  8
MATERIAL__VERSINKT_
 10
0.0
 20
-200.0
 30
-5.0654914143624854
 40
45.9999999999998224
210
0.0
220
-0.0000000000000001
230
-1.0
  0
CIRCLE
  5
1219
  8
MATERIAL__VERSINKT_
 10
0.0
 20
-200.0
 30
-99.459730733828934
 40
46.757912189058402
210
0.0
220
-0.0000000000000001
230
-1.0
  0
CIRCLE
  5
121A
  8
MATERIAL__VERSINKT_
 10
0.0
 20
-200.0
 30
-94.9999999999998721
 40
45.9999999999998224
210
0.0
220
-0.0000000000000001
230
-1.0
  0
CIRCLE
  5
121B
  8
MATERIAL__VERSINKT_
 10
0.0
 20
-200.0
 30
-105.6100180274990947
 40
48.9105127418429788
210
0.0
220
-0.0000000000000001
230
-1.0
  0
CIRCLE
  5
121C
  8
MATERIAL__VERSINKT_
 10
0.0
 20
-200.0
 30
-99.459730733828934
 40
46.757912189058402
210
0.0
220
-0.0000000000000001
230
-1.0
  0
CIRCLE
  5
121D
  8
MATERIAL__VERSINKT_
 10
0.0
 20
-200.0
 30
-109.078697487144197
 40
49.4999999999998295
210
0.0
220
-0.0000000000000001
230
-1.0
  0
CIRCLE
  5
121E
  8
MATERIAL__VERSINKT_
 10
0.0
 20
-200.0
 30
-105.6100180274990947
 40
48.9105127418429788
210
0.0
220
-0.0000000000000001
230
-1.0
  0
CIRCLE
  5
121F
  8
MATERIAL__VERSINKT_
 10
0.0
 20
-200.0
 30
-3095.0
 40
49.4999999999999289
210
0.0
220
0.0
230
-1.0
  0
CIRCLE
  5
1220
  8
MATERIAL__VERSINKT_
 10
0.0
 20
-200.0
 30
-109.078697487144197
 40
49.4999999999998295
210
0.0
220
-0.0000000000000001
230
-1.0
  0
CIRCLE
  5
1221
  8
MATERIAL__VERSINKT_
 10
0.0
 20
-200.0
 30
3095.0
 40
50.9999999999999218
  0
CIRCLE
  5
1222
  8
MATERIAL__VERSINKT_
 10
0.0
 20
-200.0
 30
-109.078697487144197
 40
50.9999999999998295
210
0.0
220
-0.0000000000000001
230
-1.0
  0
ENDBLK
  5
1224
  8
0
  0
ENDSEC
  0
SECTION
  2
ENTITIES
  0
INSERT
  5
8F3
  8
STEMPEL
  2
*U16
 10
0.0
 20
0.0
 30
0.0
  0
INSERT
  5
91F
  8
ADSK_ASSOC_ENTITY_BACKUPS
  2
*S3
 10
0.0
 20
0.0
 30
0.0
  0
INSERT
  5
1197
  8
STEMPEL
  2
A$C1E4F40D4
 10
0.0
 20
0.0
 30
0.0
  0
INSERT
  5
11A2
  8
STEMPEL
  2
A$C1F6F1199
 10
0.0
 20
-200.0
 30
0.0
  0
VIEWPORT
  5
593
 67
     1
  8
0
 10
94.8882138777730546
 20
130.7081214913378062
 30
0.0
 40
767.9492607828206019
 41
421.3875430962144151
 68
     1
 69
     1
1001
ACAD
1000
MVIEW
1002
{
1070
    16
1010
0.0
1020
0.0
1030
0.0
1010
0.0
1020
0.0
1030
1.0
1040
0.0
1040
421.3875430962144151
1040
94.8882138777730546
1040
130.7081214913378062
1040
50.0
1040
0.0
1040
0.0
1070
     0
1070
  1500
1070
     1
1070
     1
1070
     0
1070
     0
1070
     0
1070
     0
1040
0.0
1040
0.0
1040
0.0
1040
10.0
1040
10.0
1040
10.0
1040
10.0
1070
     0
1002
{
1002
}
1002
}
  0
LINE
  5
960
 67
     1
  8
STEMPEL
 10
-19.4999994305071382
 20
1492.5
 30
806.2723117968077986
 11
-80.4999994305071169
 21
1552.5
 31
806.2723117968077986
  0
ENDSEC
  0
EOF
