  0
SECTION
  2
HEADER
  9
$ACADVER
  1
AC1009
  9
$INSBASE
 10
0.0
 20
0.0
 30
0.0
  9
$EXTMIN
 10
407.447265625
 20
-2443.317626953125
 30
-1070.2222900390620453
  9
$EXTMAX
 10
654.24725341796875
 20
0.0000000000000115
 30
-1070.2222900390620453
  9
$LIMMIN
 10
0.0
 20
0.0
  9
$LIMMAX
 10
419.9999999999998863
 20
594.0000000000002274
  9
$ORTHOMODE
 70
     1
  9
$REGENMODE
 70
     1
  9
$FILLMODE
 70
     1
  9
$QTEXTMODE
 70
     0
  9
$MIRRTEXT
 70
     1
  9
$DRAGMODE
 70
     2
  9
$LTSCALE
 40
20.0
  9
$OSMODE
 70
  3583
  9
$ATTMODE
 70
     1
  9
$TEXTSIZE
 40
3.5
  9
$TRACEWID
 40
0.5
  9
$TEXTSTYLE
  7
STANDARD
  9
$CLAYER
  8
STEMPEL
  9
$CELTYPE
  6
BYLAYER
  9
$CECOLOR
 62
   256
  9
$DIMSCALE
 40
1.0
  9
$DIMASZ
 40
1.75
  9
$DIMEXO
 40
1.0
  9
$DIMDLI
 40
0.38
  9
$DIMRND
 40
0.0
  9
$DIMDLE
 40
0.0
  9
$DIMEXE
 40
1.0
  9
$DIMTP
 40
0.0
  9
$DIMTM
 40
0.000000001
  9
$DIMTXT
 40
3.5
  9
$DIMCEN
 40
0.09
  9
$DIMTSZ
 40
0.0
  9
$DIMTOL
 70
     0
  9
$DIMLIM
 70
     0
  9
$DIMTIH
 70
     0
  9
$DIMTOH
 70
     0
  9
$DIMSE1
 70
     0
  9
$DIMSE2
 70
     0
  9
$DIMTAD
 70
     1
  9
$DIMZIN
 70
     8
  9
$DIMBLK
  1

  9
$DIMASO
 70
     1
  9
$DIMSHO
 70
     0
  9
$DIMPOST
  1

  9
$DIMAPOST
  1

  9
$DIMALT
 70
     0
  9
$DIMALTD
 70
     2
  9
$DIMALTF
 40
25.3999999999999986
  9
$DIMLFAC
 40
5.0
  9
$DIMTOFL
 70
     1
  9
$DIMTVP
 40
0.0
  9
$DIMTIX
 70
     0
  9
$DIMSOXD
 70
     0
  9
$DIMSAH
 70
     0
  9
$DIMBLK1
  1

  9
$DIMBLK2
  1

  9
$DIMSTYLE
  2
LORO
  9
$DIMCLRD
 70
     0
  9
$DIMCLRE
 70
     0
  9
$DIMCLRT
 70
     1
  9
$DIMTFAC
 40
0.5
  9
$DIMGAP
 40
1.5
  9
$LUNITS
 70
     2
  9
$LUPREC
 70
     2
  9
$SKETCHINC
 40
1.0
  9
$FILLETRAD
 40
0.0
  9
$AUNITS
 70
     0
  9
$AUPREC
 70
     0
  9
$MENU
  1
ACAD
  9
$ELEVATION
 40
0.0
  9
$PELEVATION
 40
0.0
  9
$THICKNESS
 40
0.0
  9
$LIMCHECK
 70
     0
  9
$BLIPMODE
 70
     0
  9
$CHAMFERA
 40
0.0
  9
$CHAMFERB
 40
0.0
  9
$SKPOLY
 70
     0
  9
$TDCREATE
 40
2455397.8646990740671754
  9
$TDUPDATE
 40
2460927.4803935191594064
  9
$TDINDWG
 40
0.7058189815
  9
$TDUSRTIMER
 40
0.7058189815
  9
$USRTIMER
 70
     1
  9
$ANGBASE
 50
0.0
  9
$ANGDIR
 70
     0
  9
$PDMODE
 70
     0
  9
$PDSIZE
 40
0.0
  9
$PLINEWID
 40
0.0
  9
$COORDS
 70
     1
  9
$SPLFRAME
 70
     0
  9
$SPLINETYPE
 70
     6
  9
$SPLINESEGS
 70
     8
  9
$ATTDIA
 70
     1
  9
$ATTREQ
 70
     1
  9
$HANDLING
 70
     1
  9
$HANDSEED
  5
12FE1
  9
$SURFTAB1
 70
     6
  9
$SURFTAB2
 70
     6
  9
$SURFTYPE
 70
     6
  9
$SURFU
 70
     6
  9
$SURFV
 70
     6
  9
$UCSNAME
  2

  9
$UCSORG
 10
0.0
 20
0.0
 30
0.0
  9
$UCSXDIR
 10
1.0
 20
0.0
 30
0.0
  9
$UCSYDIR
 10
0.0
 20
1.0
 30
0.0
  9
$PUCSNAME
  2

  9
$PUCSORG
 10
0.0
 20
0.0
 30
0.0
  9
$PUCSXDIR
 10
1.0
 20
0.0
 30
0.0
  9
$PUCSYDIR
 10
0.0
 20
1.0
 30
0.0
  9
$USERI1
 70
     0
  9
$USERI2
 70
     0
  9
$USERI3
 70
     0
  9
$USERI4
 70
     0
  9
$USERI5
 70
     0
  9
$USERR1
 40
0.0
  9
$USERR2
 40
0.0
  9
$USERR3
 40
0.0
  9
$USERR4
 40
0.0
  9
$USERR5
 40
0.0
  9
$WORLDVIEW
 70
     1
  9
$SHADEDGE
 70
     3
  9
$SHADEDIF
 70
    70
  9
$TILEMODE
 70
     1
  9
$MAXACTVP
 70
    16
  9
$PLIMCHECK
 70
     0
  9
$PEXTMIN
 10
1.0000000000000000E+20
 20
1.0000000000000000E+20
 30
1.0000000000000000E+20
  9
$PEXTMAX
 10
-1.0000000000000000E+20
 20
-1.0000000000000000E+20
 30
-1.0000000000000000E+20
  9
$PLIMMIN
 10
-0.2049179077148437
 20
-0.2552490234375
  9
$PLIMMAX
 10
209.7950820922850994
 20
296.7447509765625
  9
$UNITMODE
 70
     0
  9
$VISRETAIN
 70
     0
  9
$PLINEGEN
 70
     0
  9
$PSLTSCALE
 70
     0
  0
ENDSEC
  0
SECTION
  2
TABLES
  0
TABLE
  2
VPORT
 70
     1
  0
VPORT
  2
*ACTIVE
 70
     0
 10
0.0
 20
0.0
 11
1.0
 21
1.0
 12
-94.81110915968884
 22
954.3579088427420629
 13
0.0
 23
0.0
 14
1.0
 24
1.0
 15
10.0
 25
10.0
 16
-0.0000000000004547
 26
0.0
 36
1953.8353130020138906
 17
625.6583686811728739
 27
-2176.0167223193047903
 37
-1060.0
 40
2455.9992063317740758
 41
1.9004329004328999
 42
49.9999999999966604
 43
0.0
 44
0.0
 50
0.0
 51
0.0
 71
     0
 72
  1500
 73
     1
 74
     0
 75
     0
 76
     0
 77
     0
 78
     0
  0
ENDTAB
  0
TABLE
  2
LTYPE
 70
     3
  0
LTYPE
  2
CONTINUOUS
 70
     0
  3
Solid line
 72
    65
 73
     0
 40
0.0
  0
LTYPE
  2
STRICHPUNKT
 70
     0
  3
__ . __ . __ . __ . __ . __ . __ . __ . __ . __
 72
    65
 73
     4
 40
1.0
 49
0.5
 49
-0.25
 49
0.0
 49
-0.25
  0
LTYPE
  2
VERDECKT
 70
     0
  3
Verdeckt __ __ __ __ __ __ __ __ __ __ __ __ __
 72
    65
 73
     2
 40
0.375
 49
0.25
 49
-0.125
  0
ENDTAB
  0
TABLE
  2
LAYER
 70
     5
  0
LAYER
  2
0
 70
     0
 62
     7
  6
CONTINUOUS
  0
LAYER
  2
STEMPEL
 70
     0
 62
     3
  6
CONTINUOUS
  0
LAYER
  2
DEFPOINTS
 70
     0
 62
     7
  6
CONTINUOUS
  0
LAYER
  2
MATERIAL__VERZINKT_
 70
     0
 62
   254
  6
CONTINUOUS
  0
LAYER
  2
ADSK_ASSOC_ENTITY_BACKUPS
 70
     1
 62
    -7
  6
CONTINUOUS
  0
ENDTAB
  0
TABLE
  2
STYLE
 70
     2
  0
STYLE
  2
STANDARD
 70
     0
 40
0.0
 41
0.8
 50
0.0
 71
     0
 42
3.5
  3
simplex.shx
  4

  0
STYLE
  2

 70
     1
 40
0.0
 41
1.0
 50
0.0
 71
     0
 42
2.5
  3
ltypeshp.shx
  4

  0
ENDTAB
  0
TABLE
  2
VIEW
 70
     0
  0
ENDTAB
  0
TABLE
  2
UCS
 70
     0
  0
ENDTAB
  0
TABLE
  2
APPID
 70
    27
  0
APPID
  2
ACAD
 70
     0
  0
APPID
  2
ACAD_EXEMPT_FROM_CAD_STANDARDS
 70
     0
  0
APPID
  2
ACADANNOMONITORALERTICONDI
 70
     0
  0
APPID
  2
ACAD_NAV_VCDISPLAY
 70
     0
  0
APPID
  2
ACAD_PSEXT
 70
     0
  0
APPID
  2
ACAD_MLEADERVER
 70
     0
  0
APPID
  2
ACAECLAYERSTANDARD
 70
     0
  0
APPID
  2
ACCMTRANSPARENCY
 70
     0
  0
APPID
  2
ACAD_DSTYLE_DIMJAG
 70
     0
  0
APPID
  2
ACAD_DSTYLE_DIMBREAK
 70
     0
  0
APPID
  2
ACAD_DSTYLE_DIMTALN
 70
     0
  0
APPID
  2
ACAD_STEPID
 70
     0
  0
APPID
  2
ACDBDYNAMICBLOCKGUID
 70
     0
  0
APPID
  2
ACSYNERGY
 70
     0
  0
APPID
  2
SYNERGY_BODY_TBR_ID
 70
     0
  0
APPID
  2
ACAD_VIEW_EDGE_ID
 70
     0
  0
APPID
  2
ACSYNERGYSKETCH
 70
     0
  0
APPID
  2
ACAD_MODELDOC_XFORM
 70
     0
  0
APPID
  2
ACAD_DSTYLE_DIMRADIAL_EXTENSION
 70
     0
  0
APPID
  2
ACADANNOPO
 70
     0
  0
APPID
  2
ACADANNOTATIVE
 70
     0
  0
APPID
  2
ACAD_TC
 70
     0
  0
APPID
  2
ACAD_DIMASSOC_CALC_DIMLFAC
 70
     0
  0
APPID
  2
ACAD_DIMASSOC_DIMLFAC
 70
     0
  0
APPID
  2
ACAD_DIMASSOC_OVERRIDDEN_D
 70
     0
  0
APPID
  2
RAK
 70
     0
  0
APPID
  2
PLOTTRANSPARENCY
 70
     0
  0
ENDTAB
  0
TABLE
  2
DIMSTYLE
 70
     2
  0
DIMSTYLE
  2
LORO
 70
     0
  3

  4

  5

  6

  7

 40
1.0
 41
1.75
 42
1.0
 43
0.38
 44
1.0
 45
0.0
 46
0.0
 47
0.0
 48
0.000000001
140
3.5
141
0.09
142
0.0
143
25.3999999999999986
144
5.0
145
0.0
146
0.5
147
1.5
 71
     0
 72
     0
 73
     0
 74
     0
 75
     0
 76
     0
 77
     1
 78
     8
170
     0
171
     2
172
     1
173
     0
174
     0
175
     0
176
     0
177
     0
178
     1
  0
DIMSTYLE
  2
STANDARD
 70
     0
  3

  4

  5

  6

  7

 40
1.0
 41
0.18
 42
0.0625
 43
0.38
 44
0.18
 45
0.0
 46
0.0
 47
0.0
 48
0.0
140
0.18
141
0.09
142
0.0
143
25.3999999999999986
144
1.0
145
0.0
146
1.0
147
0.09
 71
     0
 72
     0
 73
     1
 74
     1
 75
     0
 76
     0
 77
     0
 78
     0
170
     0
171
     2
172
     0
173
     0
174
     0
175
     0
176
     0
177
     0
178
     0
  0
ENDTAB
  0
ENDSEC
  0
SECTION
  2
BLOCKS
  0
BLOCK
  8
0
  2
$MODEL_SPACE
 70
     0
 10
0.0
 20
0.0
 30
0.0
  3
$MODEL_SPACE
  1

  0
ENDBLK
  5
36
  8
0
  0
BLOCK
 67
     1
  8
0
  2
$PAPER_SPACE
 70
     0
 10
0.0
 20
0.0
 30
0.0
  3
$PAPER_SPACE
  1

  0
ENDBLK
  5
34
 67
     1
  8
0
  0
BLOCK
  8
0
  2
*S0
 70
     1
 10
0.0
 20
0.0
 30
0.0
  3
*S0
  1

  0
ENDBLK
  5
1CC4
  8
0
  0
BLOCK
  8
0
  2
A$C878A088B
 70
     0
 10
0.0
 20
0.0
 30
0.0
  3
A$C878A088B
  1

  0
LINE
  5
12F45
  8
0
  6
CONTINUOUS
 62
     3
 10
-109.5
 20
-2110.0000000000009095
 30
0.0000000000004685
 11
109.5
 21
-2110.0000000000009095
 31
0.0000000000004685
210
0.0
220
1.0
230
-0.0000000000000002
  0
LINE
  5
12F46
  8
0
  6
CONTINUOUS
 62
     3
 10
-108.25
 20
-2120.0
 30
0.0000000000004707
 11
108.25
 21
-2120.0
 31
0.0000000000004707
210
0.0
220
1.0
230
-0.0000000000000002
  0
LINE
  5
12F47
  8
0
  6
CONTINUOUS
 62
     3
 10
-117.329471894123003
 20
0.0
 30
0.0
 11
117.329471894123003
 21
0.0
 31
0.0
210
0.0
220
1.0
230
-0.0000000000000002
  0
LINE
  5
12F48
  8
0
  6
CONTINUOUS
 62
     3
 10
-108.25
 20
-2120.0
 30
0.0000000000004707
 11
-109.5
 21
-2110.0000000000009095
 31
0.0000000000004685
210
0.0
220
1.0
230
-0.0000000000000002
  0
LINE
  5
12F49
  8
0
  6
CONTINUOUS
 62
     3
 10
108.25
 20
-2120.0
 30
0.0000000000004707
 11
109.5
 21
-2110.0000000000009095
 31
0.0000000000004685
210
0.0
220
1.0
230
-0.0000000000000002
  0
ARC
  5
12F4A
  8
0
  6
CONTINUOUS
 62
     3
 10
80.4999999999999005
 20
-54.1000000000000085
 30
0.0
 40
42.9000000000000767
210
0.0
220
-0.0000000000000002
230
-1.0
 50
330.8311782829492813
 51
0.0
  0
ARC
  5
12F4B
  8
0
  6
CONTINUOUS
 62
     3
 10
-80.5000000000004263
 20
-54.1000000000001435
 30
0.0
 40
42.8999999999995509
210
0.0
220
-0.0000000000000002
230
-1.0
 50
179.999999999999801
 51
209.168821717050804
  0
LINE
  5
12F4C
  8
0
  6
CONTINUOUS
 62
     3
 10
-117.1953076341430062
 20
-76.3783392028132937
 30
0.000000000000017
 11
-117.9597404693517007
 21
-75.0087982430558071
 31
0.0000000000000167
210
0.0
220
1.0
230
-0.0000000000000002
  0
LINE
  5
12F4D
  8
0
  6
CONTINUOUS
 62
     3
 10
117.1953076341430062
 20
-76.3783392028133221
 30
0.000000000000017
 11
117.9597404693517007
 21
-75.0087982430557929
 31
0.0000000000000167
210
0.0
220
1.0
230
-0.0000000000000002
  0
ARC
  5
12F4E
  8
0
  6
CONTINUOUS
 62
     3
 10
133.0
 20
-85.1999999999999886
 30
0.0
 40
18.1000000000000014
210
0.0
220
-0.0000000000000002
230
-1.0
 50
150.831178282949395
 51
180.0
  0
ARC
  5
12F4F
  8
0
  6
CONTINUOUS
 62
     3
 10
-133.0
 20
-85.2000000000000171
 30
0.0
 40
18.1000000000000583
210
0.0
220
-0.0000000000000002
230
-1.0
 50
0.0
 51
29.1688217170505304
  0
LINE
  5
12F50
  8
0
  6
CONTINUOUS
 62
     3
 10
114.9000000000000057
 20
-85.2000000000000171
 30
0.0000000000000189
 11
114.9000000000000057
 21
-110.7999999999999972
 31
0.0000000000000246
210
0.0
220
1.0
230
-0.0000000000000002
  0
LINE
  5
12F51
  8
0
  6
CONTINUOUS
 62
     3
 10
-114.9000000000000057
 20
-85.2000000000000171
 30
0.0000000000000189
 11
-114.9000000000000057
 21
-110.7999999999999972
 31
0.0000000000000246
210
0.0
220
1.0
230
-0.0000000000000002
  0
ARC
  5
12F52
  8
0
  6
CONTINUOUS
 62
     3
 10
94.0000000000002558
 20
-110.7999999999999972
 30
0.0
 40
20.8999999999997499
210
0.0
220
-0.0000000000000002
230
-1.0
 50
327.0869573304736946
 51
0.0000000000002036
  0
ARC
  5
12F53
  8
0
  6
CONTINUOUS
 62
     3
 10
-94.0000000000002558
 20
-110.8000000000000966
 30
0.0
 40
20.8999999999997499
210
0.0
220
-0.0000000000000002
230
-1.0
 50
179.9999999999996874
 51
212.9130426695261917
  0
LINE
  5
12F54
  8
0
  6
CONTINUOUS
 62
     3
 10
-111.1210884214789019
 20
-122.8120077948651954
 30
0.0000000000000273
 11
-111.5454704941675033
 21
-122.1563403056749024
 31
0.0000000000000271
210
0.0
220
1.0
230
-0.0000000000000002
  0
LINE
  5
12F55
  8
0
  6
CONTINUOUS
 62
     3
 10
111.1210884214789019
 20
-122.8120077948651954
 30
0.0000000000000273
 11
111.5454704941675033
 21
-122.1563403056749024
 31
0.0000000000000271
210
0.0
220
1.0
230
-0.0000000000000002
  0
ARC
  5
12F56
  8
0
  6
CONTINUOUS
 62
     3
 10
119.6000000000000938
 20
-128.3000000000000114
 30
0.0
 40
10.1000000000000902
210
0.0
220
-0.0000000000000002
230
-1.0
 50
147.0869573304740925
 51
179.999999999999801
  0
ARC
  5
12F57
  8
0
  6
CONTINUOUS
 62
     3
 10
-119.6000000000000938
 20
-128.3000000000000114
 30
0.0
 40
10.1000000000000902
210
0.0
220
-0.0000000000000002
230
-1.0
 50
0.0000000000001654
 51
32.9130426695259004
  0
ARC
  5
12F58
  8
0
  6
CONTINUOUS
 62
     3
 10
80.4999999999997442
 20
-22.0000000000000711
 30
0.0
 40
42.9000000000002331
210
0.0
220
-0.0000000000000002
230
-1.0
 50
0.0000000000000891
 51
30.8518859860652803
  0
ARC
  5
12F59
  8
0
  6
CONTINUOUS
 62
     3
 10
-80.5000000000000711
 20
-21.9999999999999787
 30
0.0
 40
42.8999999999999133
210
0.0
220
-0.0000000000000002
230
-1.0
 50
149.1481140139345882
 51
180.0
  0
LINE
  5
12F5A
  8
0
  6
CONTINUOUS
 62
     3
 10
123.3999999999999062
 20
-22.0000000000000107
 30
0.0000000000000049
 11
123.3999999999999062
 21
-54.1000000000000085
 31
0.000000000000012
210
0.0
220
1.0
230
-0.0000000000000002
  0
LINE
  5
12F5B
  8
0
  6
CONTINUOUS
 62
     3
 10
-123.3999999999999062
 20
-22.0000000000000107
 30
0.0000000000000049
 11
-123.3999999999999062
 21
-54.1000000000000085
 31
0.000000000000012
210
0.0
220
1.0
230
-0.0000000000000002
  0
LINE
  5
12F5C
  8
0
  6
CONTINUOUS
 62
     3
 10
109.5
 20
-128.3000000000000114
 30
0.0000000000000285
 11
109.5
 21
-2110.0000000000009095
 31
0.0000000000004685
210
0.0
220
1.0
230
-0.0000000000000002
  0
LINE
  5
12F5D
  8
0
  6
CONTINUOUS
 62
     3
 10
-109.5
 20
-128.3000000000000114
 30
0.0000000000000285
 11
-109.5
 21
-2110.0000000000009095
 31
0.0000000000004685
210
0.0
220
1.0
230
-0.0000000000000002
  0
LINE
  5
12F5E
  8
0
  6
VERDECKT
 62
     1
 10
-105.3723941575302945
 20
-2119.6402992696921501
 30
0.0000000000004707
 11
105.3723941575302945
 21
-2119.6402992696921501
 31
0.0000000000004707
210
0.0
220
1.0
230
-0.0000000000000002
  0
LINE
  5
12F5F
  8
0
  6
VERDECKT
 62
     1
 10
-106.5999999999999943
 20
-2109.8194525299350062
 30
0.0000000000004685
 11
106.5999999999999943
 21
-2109.8194525299350062
 31
0.0000000000004685
210
0.0
220
1.0
230
-0.0000000000000002
  0
LINE
  5
12F60
  8
0
  6
VERDECKT
 62
     1
 10
-114.8398339339142069
 20
-1.4871794871794739
 30
0.0000000000000003
 11
114.8398339339142069
 21
-1.4871794871794739
 31
0.0000000000000003
210
0.0
220
1.0
230
-0.0000000000000002
  0
LINE
  5
12F61
  8
0
  6
VERDECKT
 62
     1
 10
105.372394157530394
 20
-2119.6402992696921501
 30
0.0000000000004707
 11
108.25
 21
-2120.0
 31
0.0000000000004707
210
0.0
220
1.0
230
-0.0000000000000002
  0
LINE
  5
12F62
  8
0
  6
VERDECKT
 62
     1
 10
-105.372394157530394
 20
-2119.6402992696921501
 30
0.0000000000004707
 11
-108.25
 21
-2120.0
 31
0.0000000000004707
210
0.0
220
1.0
230
-0.0000000000000002
  0
LINE
  5
12F63
  8
0
  6
VERDECKT
 62
     1
 10
-105.372394157530394
 20
-2119.6402992696921501
 30
0.0000000000004707
 11
-106.5999999999999943
 21
-2109.8194525299350062
 31
0.0000000000004685
210
0.0
220
1.0
230
-0.0000000000000002
  0
LINE
  5
12F64
  8
0
  6
VERDECKT
 62
     1
 10
105.372394157530394
 20
-2119.6402992696921501
 30
0.0000000000004707
 11
106.5999999999999943
 21
-2109.8194525299350062
 31
0.0000000000004685
210
0.0
220
1.0
230
-0.0000000000000002
  0
ARC
  5
12F65
  8
0
  6
VERDECKT
 62
     1
 10
119.6000000000000938
 20
-128.3000000000000114
 30
0.0
 40
13.0000000000000604
210
0.0
220
-0.0000000000000002
230
-1.0
 50
147.0869573304740072
 51
179.9999999999998863
  0
ARC
  5
12F66
  8
0
  6
VERDECKT
 62
     1
 10
-119.6000000000000938
 20
-128.3000000000000114
 30
0.0
 40
13.0000000000000497
210
0.0
220
-0.0000000000000002
230
-1.0
 50
0.0000000000001272
 51
32.9130426695260283
  0
LINE
  5
12F67
  8
0
  6
VERDECKT
 62
     1
 10
-108.6865494533885936
 20
-121.2362476567572003
 30
0.0000000000000269
 11
-109.1109315260772945
 21
-120.5805801675670068
 31
0.0000000000000268
210
0.0
220
1.0
230
-0.0000000000000002
  0
LINE
  5
12F68
  8
0
  6
VERDECKT
 62
     1
 10
108.6865494533885936
 20
-121.2362476567572003
 30
0.0000000000000269
 11
109.1109315260772945
 21
-120.5805801675670068
 31
0.0000000000000268
210
0.0
220
1.0
230
-0.0000000000000002
  0
ARC
  5
12F69
  8
0
  6
VERDECKT
 62
     1
 10
93.9999999999997442
 20
-110.7999999999998977
 30
0.0
 40
18.00000000000027
210
0.0
220
-0.0000000000000002
230
-1.0
 50
327.0869573304742062
 51
359.9999999999997726
  0
ARC
  5
12F6A
  8
0
  6
VERDECKT
 62
     1
 10
-93.9999999999997442
 20
-110.7999999999998977
 30
0.0
 40
18.00000000000027
210
0.0
220
-0.0000000000000002
230
-1.0
 50
180.0000000000001137
 51
212.9130426695257938
  0
LINE
  5
12F6B
  8
0
  6
VERDECKT
 62
     1
 10
111.9999999999999005
 20
-85.2000000000000171
 30
0.0000000000000189
 11
111.9999999999999005
 21
-110.7999999999999972
 31
0.0000000000000246
210
0.0
220
1.0
230
-0.0000000000000002
  0
LINE
  5
12F6C
  8
0
  6
VERDECKT
 62
     1
 10
-111.9999999999999005
 20
-85.2000000000000171
 30
0.0000000000000189
 11
-111.9999999999999005
 21
-110.7999999999999972
 31
0.0000000000000246
210
0.0
220
1.0
230
-0.0000000000000002
  0
ARC
  5
12F6D
  8
0
  6
VERDECKT
 62
     1
 10
132.999999999999801
 20
-85.1999999999999744
 30
0.0
 40
20.9999999999998295
210
0.0
220
-0.0000000000000002
230
-1.0
 50
150.8311782829491108
 51
180.0
  0
ARC
  5
12F6E
  8
0
  6
VERDECKT
 62
     1
 10
-133.0
 20
-85.2000000000000171
 30
0.0
 40
21.0000000000000284
210
0.0
220
-0.0000000000000002
230
-1.0
 50
0.0
 51
29.1688217170506299
  0
LINE
  5
12F6F
  8
0
  6
VERDECKT
 62
     1
 10
-114.6630641059117011
 20
-74.9649239369657181
 30
0.0000000000000166
 11
-115.4274969411203955
 21
-73.5953829772081889
 31
0.0000000000000163
210
0.0
220
1.0
230
-0.0000000000000002
  0
LINE
  5
12F70
  8
0
  6
VERDECKT
 62
     1
 10
114.6630641059117011
 20
-74.9649239369657181
 30
0.0000000000000166
 11
115.4274969411203955
 21
-73.5953829772081889
 31
0.0000000000000163
210
0.0
220
1.0
230
-0.0000000000000002
  0
ARC
  5
12F71
  8
0
  6
VERDECKT
 62
     1
 10
80.5000000000005258
 20
-54.1000000000001506
 30
0.0
 40
39.99999999999946
210
0.0
220
-0.0000000000000002
230
-1.0
 50
330.8311782829491108
 51
0.0000000000002163
  0
ARC
  5
12F72
  8
0
  6
VERDECKT
 62
     1
 10
-80.5000000000004974
 20
-54.1000000000001506
 30
0.0
 40
39.9999999999994813
210
0.0
220
-0.0000000000000002
230
-1.0
 50
179.999999999999801
 51
209.1688217170508892
  0
LINE
  5
12F73
  8
0
  6
VERDECKT
 62
     1
 10
120.5
 20
-22.0000000000000107
 30
0.0000000000000049
 11
120.5
 21
-54.1000000000000085
 31
0.000000000000012
210
0.0
220
1.0
230
-0.0000000000000002
  0
LINE
  5
12F74
  8
0
  6
VERDECKT
 62
     1
 10
-120.5
 20
-22.0000000000000107
 30
0.0000000000000049
 11
-120.5
 21
-54.1000000000000085
 31
0.000000000000012
210
0.0
220
1.0
230
-0.0000000000000002
  0
ARC
  5
12F75
  8
0
  6
VERDECKT
 62
     1
 10
80.5000000000000853
 20
-21.9999999999999893
 30
0.0
 40
39.9999999999999005
210
0.0
220
-0.0000000000000002
230
-1.0
 50
0.0
 51
30.8518859860654295
  0
ARC
  5
12F76
  8
0
  6
VERDECKT
 62
     1
 10
-80.4999999999999147
 20
-22.0000000000000107
 30
0.0
 40
40.0000000000000711
210
0.0
220
-0.0000000000000002
230
-1.0
 50
149.1481140139347019
 51
180.0
  0
LINE
  5
12F77
  8
0
  6
VERDECKT
 62
     1
 10
-114.8398339339142069
 20
-1.487179487179465
 30
0.0000000000000003
 11
-117.329471894123003
 21
0.0000000000000115
 31
0.0
210
0.0
220
1.0
230
-0.0000000000000002
  0
LINE
  5
12F78
  8
0
  6
VERDECKT
 62
     1
 10
114.8398339339142069
 20
-1.487179487179465
 30
0.0000000000000003
 11
117.329471894123003
 21
0.0000000000000115
 31
0.0
210
0.0
220
1.0
230
-0.0000000000000002
  0
LINE
  5
12F79
  8
0
  6
VERDECKT
 62
     1
 10
106.5999999999999943
 20
-128.3000000000000114
 30
0.0000000000000285
 11
106.5999999999999943
 21
-2109.8194525299350062
 31
0.0000000000004685
210
0.0
220
1.0
230
-0.0000000000000002
  0
LINE
  5
12F7A
  8
0
  6
VERDECKT
 62
     1
 10
-106.5999999999999943
 20
-128.3000000000000114
 30
0.0000000000000285
 11
-106.5999999999999943
 21
-2109.8194525299350062
 31
0.0000000000004685
210
0.0
220
1.0
230
-0.0000000000000002
  0
ENDBLK
  5
12F7C
  8
0
  0
BLOCK
  8
0
  2
A$C3F227763
 70
     0
 10
0.0
 20
0.0
 30
0.0
  3
A$C3F227763
  1

  0
CIRCLE
  5
12F80
  8
0
  6
CONTINUOUS
 62
     3
 10
-0.0000000000004709
 20
0.0
 30
0.0
 40
105.372394157530394
  0
CIRCLE
  5
12F81
  8
0
  6
CONTINUOUS
 62
     3
 10
-0.0000000000000285
 20
0.0000000000000044
 30
0.0
 40
106.5999999999999943
  0
CIRCLE
  5
12F82
  8
0
  6
CONTINUOUS
 62
     3
 10
-0.0000000000000189
 20
0.000000000000007
 30
0.0
 40
111.9999999999999005
  0
CIRCLE
  5
12F83
  8
0
  6
CONTINUOUS
 62
     3
 10
-0.0000000000000003
 20
0.0000000000000122
 30
0.0
 40
114.8398339339142069
  0
CIRCLE
  5
12F84
  8
0
  6
CONTINUOUS
 62
     3
 10
0.0
 20
0.0000000000000122
 30
0.0
 40
117.329471894123003
  0
CIRCLE
  5
12F85
  8
0
  6
CONTINUOUS
 62
     3
 10
-0.0000000000000049
 20
0.0000000000000109
 30
0.0
 40
123.3999999999999062
  0
CIRCLE
  5
12F86
  8
0
  6
VERDECKT
 62
     1
 10
-0.000000000000471
 20
0.0
 30
0.0
 40
108.25
  0
CIRCLE
  5
12F87
  8
0
  6
VERDECKT
 62
     1
 10
-0.0000000000000189
 20
0.000000000000007
 30
0.0
 40
114.9000000000000057
  0
CIRCLE
  5
12F88
  8
0
  6
VERDECKT
 62
     1
 10
-0.0000000000000285
 20
0.0000000000000044
 30
0.0
 40
109.5
  0
CIRCLE
  5
12F89
  8
0
  6
VERDECKT
 62
     1
 10
-0.0000000000000049
 20
0.0000000000000109
 30
0.0
 40
120.5
  0
ENDBLK
  5
12F8B
  8
0
  0
ENDSEC
  0
SECTION
  2
ENTITIES
  0
INSERT
  5
1CC6
  8
ADSK_ASSOC_ENTITY_BACKUPS
  2
*S0
 10
0.0
 20
0.0
 30
0.0
  0
INSERT
  5
12F7D
  8
STEMPEL
  2
A$C878A088B
 10
530.8472716586766182
 20
0.0
 30
-1070.2222893664441017
  0
INSERT
  5
12F8C
  8
STEMPEL
  2
A$C3F227763
 10
530.8472716586766182
 20
-2320.0000000000009095
 30
-1070.2222893664429648
  0
VIEWPORT
  5
16C7
 67
     1
  8
0
 10
104.7950820922850994
 20
148.2447509765625
 30
0.0
 40
567.3581314878892954
 41
298.5415224913494967
 68
     1
 69
     1
1001
ACAD
1000
MVIEW
1002
{
1070
    16
1010
0.0
1020
0.0
1030
0.0
1010
0.0
1020
0.0
1030
1.0
1040
0.0
1040
298.5415224913494967
1040
104.7950820922850994
1040
148.2447509765625
1040
50.0
1040
0.0
1040
0.0
1070
     0
1070
  1500
1070
     1
1070
     1
1070
     0
1070
     0
1070
     0
1070
     0
1040
0.0
1040
0.0
1040
0.0
1040
10.0
1040
10.0
1040
10.0
1040
10.0
1070
     0
1002
{
1002
}
1002
}
  0
ENDSEC
  0
EOF
