  0
SECTION
  2
HEADER
  9
$ACADVER
  1
AC1009
  9
$INSBASE
 10
0.0
 20
0.0
 30
0.0
  9
$EXTMIN
 10
323.880340576171875
 20
-2276.724365234375
 30
-944.56365966796875
  9
$EXTMAX
 10
475.8803405761718182
 20
-0.000000000000071
 30
-944.56365966796875
  9
$LIMMIN
 10
0.0
 20
0.0
  9
$LIMMAX
 10
419.9999999999998863
 20
594.0000000000002274
  9
$ORTHOMODE
 70
     1
  9
$REGENMODE
 70
     1
  9
$FILLMODE
 70
     1
  9
$QTEXTMODE
 70
     0
  9
$MIRRTEXT
 70
     1
  9
$DRAGMODE
 70
     2
  9
$LTSCALE
 40
20.0
  9
$OSMODE
 70
  3583
  9
$ATTMODE
 70
     1
  9
$TEXTSIZE
 40
3.5
  9
$TRACEWID
 40
0.5
  9
$TEXTSTYLE
  7
STANDARD
  9
$CLAYER
  8
STEMPEL
  9
$CELTYPE
  6
BYLAYER
  9
$CECOLOR
 62
   256
  9
$DIMSCALE
 40
1.0
  9
$DIMASZ
 40
1.75
  9
$DIMEXO
 40
1.0
  9
$DIMDLI
 40
0.38
  9
$DIMRND
 40
0.0
  9
$DIMDLE
 40
0.0
  9
$DIMEXE
 40
1.0
  9
$DIMTP
 40
0.0
  9
$DIMTM
 40
0.000000001
  9
$DIMTXT
 40
3.5
  9
$DIMCEN
 40
0.09
  9
$DIMTSZ
 40
0.0
  9
$DIMTOL
 70
     0
  9
$DIMLIM
 70
     0
  9
$DIMTIH
 70
     0
  9
$DIMTOH
 70
     0
  9
$DIMSE1
 70
     0
  9
$DIMSE2
 70
     0
  9
$DIMTAD
 70
     1
  9
$DIMZIN
 70
     8
  9
$DIMBLK
  1

  9
$DIMASO
 70
     1
  9
$DIMSHO
 70
     0
  9
$DIMPOST
  1

  9
$DIMAPOST
  1

  9
$DIMALT
 70
     0
  9
$DIMALTD
 70
     2
  9
$DIMALTF
 40
25.3999999999999986
  9
$DIMLFAC
 40
5.0
  9
$DIMTOFL
 70
     1
  9
$DIMTVP
 40
0.0
  9
$DIMTIX
 70
     0
  9
$DIMSOXD
 70
     0
  9
$DIMSAH
 70
     0
  9
$DIMBLK1
  1

  9
$DIMBLK2
  1

  9
$DIMSTYLE
  2
LORO
  9
$DIMCLRD
 70
     0
  9
$DIMCLRE
 70
     0
  9
$DIMCLRT
 70
     1
  9
$DIMTFAC
 40
0.5
  9
$DIMGAP
 40
1.5
  9
$LUNITS
 70
     2
  9
$LUPREC
 70
     2
  9
$SKETCHINC
 40
1.0
  9
$FILLETRAD
 40
0.0
  9
$AUNITS
 70
     0
  9
$AUPREC
 70
     0
  9
$MENU
  1
ACAD
  9
$ELEVATION
 40
0.0
  9
$PELEVATION
 40
0.0
  9
$THICKNESS
 40
0.0
  9
$LIMCHECK
 70
     0
  9
$BLIPMODE
 70
     0
  9
$CHAMFERA
 40
0.0
  9
$CHAMFERB
 40
0.0
  9
$SKPOLY
 70
     0
  9
$TDCREATE
 40
2455397.8646990740671754
  9
$TDUPDATE
 40
2460927.4766666670329869
  9
$TDINDWG
 40
0.7250550926
  9
$TDUSRTIMER
 40
0.7250550926
  9
$USRTIMER
 70
     1
  9
$ANGBASE
 50
0.0
  9
$ANGDIR
 70
     0
  9
$PDMODE
 70
     0
  9
$PDSIZE
 40
0.0
  9
$PLINEWID
 40
0.0
  9
$COORDS
 70
     1
  9
$SPLFRAME
 70
     0
  9
$SPLINETYPE
 70
     6
  9
$SPLINESEGS
 70
     8
  9
$ATTDIA
 70
     1
  9
$ATTREQ
 70
     1
  9
$HANDLING
 70
     1
  9
$HANDSEED
  5
1344A
  9
$SURFTAB1
 70
     6
  9
$SURFTAB2
 70
     6
  9
$SURFTYPE
 70
     6
  9
$SURFU
 70
     6
  9
$SURFV
 70
     6
  9
$UCSNAME
  2

  9
$UCSORG
 10
0.0
 20
0.0
 30
0.0
  9
$UCSXDIR
 10
1.0
 20
0.0
 30
0.0
  9
$UCSYDIR
 10
0.0
 20
1.0
 30
0.0
  9
$PUCSNAME
  2

  9
$PUCSORG
 10
0.0
 20
0.0
 30
0.0
  9
$PUCSXDIR
 10
1.0
 20
0.0
 30
0.0
  9
$PUCSYDIR
 10
0.0
 20
1.0
 30
0.0
  9
$USERI1
 70
     0
  9
$USERI2
 70
     0
  9
$USERI3
 70
     0
  9
$USERI4
 70
     0
  9
$USERI5
 70
     0
  9
$USERR1
 40
0.0
  9
$USERR2
 40
0.0
  9
$USERR3
 40
0.0
  9
$USERR4
 40
0.0
  9
$USERR5
 40
0.0
  9
$WORLDVIEW
 70
     1
  9
$SHADEDGE
 70
     3
  9
$SHADEDIF
 70
    70
  9
$TILEMODE
 70
     1
  9
$MAXACTVP
 70
    16
  9
$PLIMCHECK
 70
     0
  9
$PEXTMIN
 10
1.0000000000000000E+20
 20
1.0000000000000000E+20
 30
1.0000000000000000E+20
  9
$PEXTMAX
 10
-1.0000000000000000E+20
 20
-1.0000000000000000E+20
 30
-1.0000000000000000E+20
  9
$PLIMMIN
 10
-0.2049179077148437
 20
-0.2552490234375
  9
$PLIMMAX
 10
209.7950820922850994
 20
296.7447509765625
  9
$UNITMODE
 70
     0
  9
$VISRETAIN
 70
     0
  9
$PLINEGEN
 70
     0
  9
$PSLTSCALE
 70
     0
  0
ENDSEC
  0
SECTION
  2
TABLES
  0
TABLE
  2
VPORT
 70
     1
  0
VPORT
  2
*ACTIVE
 70
     0
 10
0.0
 20
0.0
 11
1.0
 21
1.0
 12
-133.2114995981069114
 22
473.3797161389227881
 13
0.0
 23
0.0
 14
1.0
 24
1.0
 15
10.0
 25
10.0
 16
-0.0000000000019327
 26
0.0
 36
6709.6562980407206851
 17
533.0918401742787864
 27
-1611.7418987561100039
 37
-1037.5
 40
2288.5412737044489404
 41
1.9004329004328999
 42
49.9999999999966604
 43
0.0
 44
0.0
 50
0.0
 51
0.0
 71
     0
 72
  1500
 73
     1
 74
     0
 75
     0
 76
     0
 77
     0
 78
     0
  0
ENDTAB
  0
TABLE
  2
LTYPE
 70
     3
  0
LTYPE
  2
CONTINUOUS
 70
     0
  3
Solid line
 72
    65
 73
     0
 40
0.0
  0
LTYPE
  2
STRICHPUNKT
 70
     0
  3
__ . __ . __ . __ . __ . __ . __ . __ . __ . __
 72
    65
 73
     4
 40
1.0
 49
0.5
 49
-0.25
 49
0.0
 49
-0.25
  0
LTYPE
  2
VERDECKT
 70
     0
  3
Verdeckt __ __ __ __ __ __ __ __ __ __ __ __ __
 72
    65
 73
     2
 40
0.375
 49
0.25
 49
-0.125
  0
ENDTAB
  0
TABLE
  2
LAYER
 70
     5
  0
LAYER
  2
0
 70
     0
 62
     7
  6
CONTINUOUS
  0
LAYER
  2
STEMPEL
 70
     0
 62
     3
  6
CONTINUOUS
  0
LAYER
  2
DEFPOINTS
 70
     0
 62
     7
  6
CONTINUOUS
  0
LAYER
  2
MATERIAL__VERZINKT_
 70
     0
 62
   254
  6
CONTINUOUS
  0
LAYER
  2
ADSK_ASSOC_ENTITY_BACKUPS
 70
     1
 62
    -7
  6
CONTINUOUS
  0
ENDTAB
  0
TABLE
  2
STYLE
 70
     2
  0
STYLE
  2
STANDARD
 70
     0
 40
0.0
 41
0.8
 50
0.0
 71
     0
 42
3.5
  3
simplex.shx
  4

  0
STYLE
  2

 70
     1
 40
0.0
 41
1.0
 50
0.0
 71
     0
 42
2.5
  3
ltypeshp.shx
  4

  0
ENDTAB
  0
TABLE
  2
VIEW
 70
     0
  0
ENDTAB
  0
TABLE
  2
UCS
 70
     0
  0
ENDTAB
  0
TABLE
  2
APPID
 70
    27
  0
APPID
  2
ACAD
 70
     0
  0
APPID
  2
ACAD_EXEMPT_FROM_CAD_STANDARDS
 70
     0
  0
APPID
  2
ACADANNOMONITORALERTICONDI
 70
     0
  0
APPID
  2
ACAD_NAV_VCDISPLAY
 70
     0
  0
APPID
  2
ACAD_PSEXT
 70
     0
  0
APPID
  2
ACAD_MLEADERVER
 70
     0
  0
APPID
  2
ACAECLAYERSTANDARD
 70
     0
  0
APPID
  2
ACCMTRANSPARENCY
 70
     0
  0
APPID
  2
ACAD_DSTYLE_DIMJAG
 70
     0
  0
APPID
  2
ACAD_DSTYLE_DIMBREAK
 70
     0
  0
APPID
  2
ACAD_DSTYLE_DIMTALN
 70
     0
  0
APPID
  2
ACAD_STEPID
 70
     0
  0
APPID
  2
ACDBDYNAMICBLOCKGUID
 70
     0
  0
APPID
  2
ACSYNERGY
 70
     0
  0
APPID
  2
SYNERGY_BODY_TBR_ID
 70
     0
  0
APPID
  2
ACAD_VIEW_EDGE_ID
 70
     0
  0
APPID
  2
ACSYNERGYSKETCH
 70
     0
  0
APPID
  2
ACAD_MODELDOC_XFORM
 70
     0
  0
APPID
  2
ACAD_DSTYLE_DIMRADIAL_EXTENSION
 70
     0
  0
APPID
  2
ACADANNOPO
 70
     0
  0
APPID
  2
ACADANNOTATIVE
 70
     0
  0
APPID
  2
ACAD_TC
 70
     0
  0
APPID
  2
ACAD_DIMASSOC_CALC_DIMLFAC
 70
     0
  0
APPID
  2
ACAD_DIMASSOC_DIMLFAC
 70
     0
  0
APPID
  2
ACAD_DIMASSOC_OVERRIDDEN_D
 70
     0
  0
APPID
  2
RAK
 70
     0
  0
APPID
  2
PLOTTRANSPARENCY
 70
     0
  0
ENDTAB
  0
TABLE
  2
DIMSTYLE
 70
     2
  0
DIMSTYLE
  2
LORO
 70
     0
  3

  4

  5

  6

  7

 40
1.0
 41
1.75
 42
1.0
 43
0.38
 44
1.0
 45
0.0
 46
0.0
 47
0.0
 48
0.000000001
140
3.5
141
0.09
142
0.0
143
25.3999999999999986
144
5.0
145
0.0
146
0.5
147
1.5
 71
     0
 72
     0
 73
     0
 74
     0
 75
     0
 76
     0
 77
     1
 78
     8
170
     0
171
     2
172
     1
173
     0
174
     0
175
     0
176
     0
177
     0
178
     1
  0
DIMSTYLE
  2
STANDARD
 70
     0
  3

  4

  5

  6

  7

 40
1.0
 41
0.18
 42
0.0625
 43
0.38
 44
0.18
 45
0.0
 46
0.0
 47
0.0
 48
0.0
140
0.18
141
0.09
142
0.0
143
25.3999999999999986
144
1.0
145
0.0
146
1.0
147
0.09
 71
     0
 72
     0
 73
     1
 74
     1
 75
     0
 76
     0
 77
     0
 78
     0
170
     0
171
     2
172
     0
173
     0
174
     0
175
     0
176
     0
177
     0
178
     0
  0
ENDTAB
  0
ENDSEC
  0
SECTION
  2
BLOCKS
  0
BLOCK
  8
0
  2
$MODEL_SPACE
 70
     0
 10
0.0
 20
0.0
 30
0.0
  3
$MODEL_SPACE
  1

  0
ENDBLK
  5
36
  8
0
  0
BLOCK
 67
     1
  8
0
  2
$PAPER_SPACE
 70
     0
 10
0.0
 20
0.0
 30
0.0
  3
$PAPER_SPACE
  1

  0
ENDBLK
  5
34
 67
     1
  8
0
  0
BLOCK
  8
0
  2
*S0
 70
     1
 10
0.0
 20
0.0
 30
0.0
  3
*S0
  1

  0
ENDBLK
  5
1CC4
  8
0
  0
BLOCK
  8
0
  2
A$CDD7D4886
 70
     0
 10
0.0
 20
0.0
 30
0.0
  3
A$CDD7D4886
  1

  0
LINE
  5
133B0
  8
0
  6
CONTINUOUS
 62
     3
 10
-65.5000000000004263
 20
-2075.0000000000009095
 30
0.0000000000004607
 11
65.4999999999995453
 21
-2075.0000000000009095
 31
0.0000000000004607
210
0.0000000000000002
220
1.0
230
-0.0000000000000002
  0
LINE
  5
133B1
  8
0
  6
CONTINUOUS
 62
     3
 10
-72.7402318613732177
 20
0.0000000000000162
 30
0.0
 11
72.7402318613732177
 21
-0.0000000000000162
 31
0.0
210
0.0000000000000002
220
1.0
230
-0.0000000000000002
  0
LINE
  5
133B2
  8
0
  6
CONTINUOUS
 62
     3
 10
-65.5000000000004547
 20
-2075.0000000000009095
 30
0.0000000000004607
 11
-66.5000000000004547
 21
-2065.0000000000009095
 31
0.0000000000004585
210
0.0000000000000002
220
1.0
230
-0.0000000000000002
  0
LINE
  5
133B3
  8
0
  6
CONTINUOUS
 62
     3
 10
65.4999999999995453
 20
-2075.0000000000009095
 30
0.0000000000004607
 11
66.4999999999995453
 21
-2065.0000000000009095
 31
0.0000000000004585
210
0.0000000000000002
220
1.0
230
-0.0000000000000002
  0
LINE
  5
133B4
  8
0
  6
CONTINUOUS
 62
     3
 10
76.0
 20
-13.6000000000000298
 30
0.000000000000003
 11
76.0
 21
-22.7000000000000313
 31
0.000000000000005
210
0.0000000000000002
220
1.0
230
-0.0000000000000002
  0
LINE
  5
133B5
  8
0
  6
CONTINUOUS
 62
     3
 10
-76.0
 20
-13.5999999999999908
 30
0.000000000000003
 11
-76.0
 21
-22.6999999999999886
 31
0.000000000000005
210
0.0000000000000002
220
1.0
230
-0.0000000000000002
  0
ARC
  5
133B6
  8
0
  6
CONTINUOUS
 62
     3
 10
45.9999999999999289
 20
-13.5999999999999996
 30
0.0
 40
30.0000000000000711
210
0.0
220
-0.0000000000000002
230
-1.0
 50
0.0000000000000127
 51
26.9577491392830595
  0
ARC
  5
133B7
  8
0
  6
CONTINUOUS
 62
     3
 10
-46.0000000000004334
 20
-13.5999999999999002
 30
0.0
 40
29.9999999999995701
210
0.0
220
-0.0000000000000002
230
-1.0
 50
153.042250860716706
 51
180.000000000000199
  0
ARC
  5
133B8
  8
0
  6
CONTINUOUS
 62
     3
 10
76.5000000000000284
 20
-82.5000000000000284
 30
0.0
 40
10.0000000000000107
210
0.0
220
-0.0000000000000002
230
-1.0
 50
147.220919331930304
 51
179.9999999999998863
  0
ARC
  5
133B9
  8
0
  6
CONTINUOUS
 62
     3
 10
-76.5000000000001563
 20
-82.5000000000000711
 30
0.0
 40
10.0000000000001705
210
0.0
220
-0.0000000000000002
230
-1.0
 50
0.0000000000001781
 51
32.7790806680692484
  0
LINE
  5
133BA
  8
0
  6
CONTINUOUS
 62
     3
 10
-68.0923566878981035
 20
-77.0859872611464993
 30
0.0000000000000171
 11
-68.633757961783445
 21
-76.245222929936304
 31
0.0000000000000169
210
0.0000000000000002
220
1.0
230
-0.0000000000000002
  0
LINE
  5
133BB
  8
0
  6
CONTINUOUS
 62
     3
 10
68.0923566878980751
 20
-77.0859872611465278
 30
0.0000000000000171
 11
68.6337579617834166
 21
-76.2452229299363466
 31
0.0000000000000169
210
0.0000000000000002
220
1.0
230
-0.0000000000000002
  0
ARC
  5
133BC
  8
0
  6
CONTINUOUS
 62
     3
 10
53.5000000000000071
 20
-66.5000000000000142
 30
0.0
 40
18.0000000000000107
210
0.0
220
-0.0000000000000002
230
-1.0
 50
327.2209193319304745
 51
0.0000000000000496
  0
ARC
  5
133BD
  8
0
  6
CONTINUOUS
 62
     3
 10
-53.4999999999999716
 20
-66.5000000000000426
 30
0.0
 40
18.0000000000000107
210
0.0
220
-0.0000000000000002
230
-1.0
 50
179.9999999999998863
 51
212.7790806680694971
  0
LINE
  5
133BE
  8
0
  6
CONTINUOUS
 62
     3
 10
71.4999999999999858
 20
-43.0000000000000284
 30
0.0000000000000095
 11
71.4999999999999858
 21
-66.5000000000000284
 31
0.0000000000000148
210
0.0000000000000002
220
1.0
230
-0.0000000000000002
  0
LINE
  5
133BF
  8
0
  6
CONTINUOUS
 62
     3
 10
-71.5000000000000142
 20
-43.0
 30
0.0000000000000095
 11
-71.5000000000000142
 21
-66.5
 31
0.0000000000000148
210
0.0000000000000002
220
1.0
230
-0.0000000000000002
  0
ARC
  5
133C0
  8
0
  6
CONTINUOUS
 62
     3
 10
89.4999999999998579
 20
-42.9999999999999716
 30
0.0
 40
17.9999999999998401
210
0.0
220
-0.0000000000000002
230
-1.0
 50
155.6790909006512038
 51
180.0000000000001137
  0
ARC
  5
133C1
  8
0
  6
CONTINUOUS
 62
     3
 10
-89.5000000000000853
 20
-43.0000000000000426
 30
0.0
 40
18.0000000000000711
210
0.0
220
-0.0000000000000002
230
-1.0
 50
0.0000000000000127
 51
24.3209090993485688
  0
LINE
  5
133C2
  8
0
  6
CONTINUOUS
 62
     3
 10
-73.0974452631826637
 20
-35.586755224214528
 30
0.0000000000000079
 11
-73.3375912280289413
 21
-35.0554079596424515
 31
0.0000000000000078
210
0.0000000000000002
220
1.0
230
-0.0000000000000002
  0
LINE
  5
133C3
  8
0
  6
CONTINUOUS
 62
     3
 10
73.0974452631826352
 20
-35.5867552242145635
 30
0.0000000000000079
 11
73.3375912280289128
 21
-35.0554079596424728
 31
0.0000000000000078
210
0.0000000000000002
220
1.0
230
-0.0000000000000002
  0
ARC
  5
133C4
  8
0
  6
CONTINUOUS
 62
     3
 10
45.9999999999999289
 20
-22.6999999999999886
 30
0.0
 40
30.0000000000000711
210
0.0
220
-0.0000000000000002
230
-1.0
 50
335.6790909006513743
 51
0.0
  0
ARC
  5
133C5
  8
0
  6
CONTINUOUS
 62
     3
 10
-45.9999999999999289
 20
-22.7000000000000099
 30
0.0
 40
30.0000000000000604
210
0.0
220
-0.0000000000000002
230
-1.0
 50
180.0
 51
204.3209090993485972
  0
LINE
  5
133C6
  8
0
  6
CONTINUOUS
 62
     3
 10
66.4999999999999858
 20
-82.5000000000000568
 30
0.0000000000000183
 11
66.4999999999995453
 21
-2065.0000000000009095
 31
0.0000000000004585
210
0.0000000000000002
220
1.0
230
-0.0000000000000002
  0
LINE
  5
133C7
  8
0
  6
CONTINUOUS
 62
     3
 10
-66.5000000000000142
 20
-82.5
 30
0.0000000000000183
 11
-66.5000000000004547
 21
-2065.0000000000009095
 31
0.0000000000004585
210
0.0000000000000002
220
1.0
230
-0.0000000000000002
  0
LINE
  5
133C8
  8
0
  6
VERDECKT
 62
     1
 10
-63.0124070244755075
 20
-2074.7512407024491949
 30
0.0000000000004607
 11
63.0124070244745766
 21
-2074.7512407024491949
 31
0.0000000000004607
210
0.0000000000000002
220
1.0
230
-0.0000000000000002
  0
LINE
  5
133C9
  8
0
  6
VERDECKT
 62
     1
 10
-70.5118792062587971
 20
-1.13333333333331
 30
0.0000000000000003
 11
70.5118792062587971
 21
-1.1333333333333411
 31
0.0000000000000003
210
0.0000000000000002
220
1.0
230
-0.0000000000000002
  0
LINE
  5
133CA
  8
0
  6
VERDECKT
 62
     1
 10
63.0124070244745909
 20
-2074.7512407024491949
 30
0.0000000000004607
 11
65.499999999999531
 21
-2075.0000000000009095
 31
0.0000000000004607
210
0.0000000000000002
220
1.0
230
-0.0000000000000002
  0
LINE
  5
133CB
  8
0
  6
VERDECKT
 62
     1
 10
-63.0124070244755075
 20
-2074.7512407024491949
 30
0.0000000000004607
 11
-65.5000000000004405
 21
-2075.0000000000009095
 31
0.0000000000004607
210
0.0000000000000002
220
1.0
230
-0.0000000000000002
  0
LINE
  5
133CC
  8
0
  6
VERDECKT
 62
     1
 10
-63.0124070244754506
 20
-2074.7512407024491949
 30
0.0000000000004607
 11
-64.0000000000004547
 21
-2064.8753109471981588
 31
0.0000000000004585
210
0.0000000000000002
220
1.0
230
-0.0000000000000002
  0
LINE
  5
133CD
  8
0
  6
VERDECKT
 62
     1
 10
63.0124070244745269
 20
-2074.7512407024491949
 30
0.0000000000004607
 11
63.9999999999995381
 21
-2064.8753109471981588
 31
0.0000000000004585
210
0.0000000000000002
220
1.0
230
-0.0000000000000002
  0
LINE
  5
133CE
  8
0
  6
VERDECKT
 62
     1
 10
-70.5118792062587971
 20
-1.133333333333314
 30
0.0000000000000003
 11
-72.7402318613732177
 21
0.0000000000000144
 31
0.0
210
0.0000000000000002
220
1.0
230
-0.0000000000000002
  0
LINE
  5
133CF
  8
0
  6
VERDECKT
 62
     1
 10
70.5118792062587971
 20
-1.1333333333333451
 30
0.0000000000000003
 11
72.7402318613732177
 21
-0.0000000000000179
 31
0.0
210
0.0000000000000002
220
1.0
230
-0.0000000000000002
  0
ARC
  5
133D0
  8
0
  6
VERDECKT
 62
     1
 10
46.0000000000000995
 20
-13.5999999999999606
 30
0.0
 40
27.4999999999999005
210
0.0
220
-0.0000000000000002
230
-1.0
 50
359.9999999999998863
 51
26.9577491392831412
  0
ARC
  5
133D1
  8
0
  6
VERDECKT
 62
     1
 10
-46.0000000000000711
 20
-13.5999999999999801
 30
0.0
 40
27.4999999999999289
210
0.0
220
-0.0000000000000002
230
-1.0
 50
153.042250860716905
 51
180.0000000000001137
  0
LINE
  5
133D2
  8
0
  6
VERDECKT
 62
     1
 10
73.5
 20
-13.6000000000000298
 30
0.000000000000003
 11
73.5
 21
-22.7000000000000313
 31
0.000000000000005
210
0.0000000000000002
220
1.0
230
-0.0000000000000002
  0
LINE
  5
133D3
  8
0
  6
VERDECKT
 62
     1
 10
-73.5
 20
-13.5999999999999908
 30
0.000000000000003
 11
-73.5
 21
-22.6999999999999886
 31
0.000000000000005
210
0.0000000000000002
220
1.0
230
-0.0000000000000002
  0
ARC
  5
133D4
  8
0
  6
VERDECKT
 62
     1
 10
46.0000000000000213
 20
-22.6999999999999886
 30
0.0
 40
27.4999999999999893
210
0.0
220
-0.0000000000000002
230
-1.0
 50
335.6790909006513743
 51
0.0
  0
ARC
  5
133D5
  8
0
  6
VERDECKT
 62
     1
 10
-46.0
 20
-22.7000000000000099
 30
0.0
 40
27.4999999999999893
210
0.0
220
-0.0000000000000002
230
-1.0
 50
180.0
 51
204.3209090993485972
  0
LINE
  5
133D6
  8
0
  6
VERDECKT
 62
     1
 10
-70.8193126608469328
 20
-34.5571378942443417
 30
0.0000000000000077
 11
-71.0594586256932104
 21
-34.0257906296722368
 31
0.0000000000000076
210
0.0000000000000002
220
1.0
230
-0.0000000000000002
  0
LINE
  5
133D7
  8
0
  6
VERDECKT
 62
     1
 10
70.8193126608469044
 20
-34.5571378942443701
 30
0.0000000000000077
 11
71.0594586256931819
 21
-34.0257906296722723
 31
0.0000000000000076
210
0.0000000000000002
220
1.0
230
-0.0000000000000002
  0
ARC
  5
133D8
  8
0
  6
VERDECKT
 62
     1
 10
89.5000000000001279
 20
-42.9999999999999929
 30
0.0
 40
20.5000000000000995
210
0.0
220
-0.0000000000000002
230
-1.0
 50
155.6790909006514028
 51
180.0
  0
ARC
  5
133D9
  8
0
  6
VERDECKT
 62
     1
 10
-89.5000000000003979
 20
-43.0000000000001421
 30
0.0
 40
20.5000000000004086
210
0.0
220
-0.0000000000000002
230
-1.0
 50
0.0000000000002926
 51
24.3209090993484587
  0
LINE
  5
133DA
  8
0
  6
VERDECKT
 62
     1
 10
68.9999999999999858
 20
-43.0000000000000284
 30
0.0000000000000095
 11
68.9999999999999858
 21
-66.5000000000000284
 31
0.0000000000000148
210
0.0000000000000002
220
1.0
230
-0.0000000000000002
  0
LINE
  5
133DB
  8
0
  6
VERDECKT
 62
     1
 10
-69.0000000000000142
 20
-43.0
 30
0.0000000000000095
 11
-69.0000000000000142
 21
-66.5
 31
0.0000000000000148
210
0.0000000000000002
220
1.0
230
-0.0000000000000002
  0
ARC
  5
133DC
  8
0
  6
VERDECKT
 62
     1
 10
53.5000000000002203
 20
-66.5000000000000711
 30
0.0
 40
15.4999999999997904
210
0.0
220
-0.0000000000000002
230
-1.0
 50
327.2209193319301903
 51
0.0000000000002862
  0
ARC
  5
133DD
  8
0
  6
VERDECKT
 62
     1
 10
-53.5000000000001918
 20
-66.5000000000000995
 30
0.0
 40
15.4999999999997904
210
0.0
220
-0.0000000000000002
230
-1.0
 50
179.9999999999996874
 51
212.779080668069696
  0
LINE
  5
133DE
  8
0
  6
VERDECKT
 62
     1
 10
-65.9904458598726222
 20
-75.7324840764331384
 30
0.0000000000000168
 11
-66.5318471337579638
 21
-74.8917197452229146
 31
0.0000000000000166
210
0.0000000000000002
220
1.0
230
-0.0000000000000002
  0
LINE
  5
133DF
  8
0
  6
VERDECKT
 62
     1
 10
65.9904458598725938
 20
-75.7324840764331668
 30
0.0000000000000168
 11
66.5318471337579496
 21
-74.8917197452229573
 31
0.0000000000000166
210
0.0000000000000002
220
1.0
230
-0.0000000000000002
  0
ARC
  5
133E0
  8
0
  6
VERDECKT
 62
     1
 10
76.5000000000001137
 20
-82.5000000000000568
 30
0.0
 40
12.5000000000001208
210
0.0
220
-0.0000000000000002
230
-1.0
 50
147.2209193319305029
 51
179.999999999999801
  0
ARC
  5
133E1
  8
0
  6
VERDECKT
 62
     1
 10
-76.5000000000000995
 20
-82.5000000000000853
 30
0.0
 40
12.5000000000001101
210
0.0
220
-0.0000000000000002
230
-1.0
 50
0.0000000000002163
 51
32.7790806680694615
  0
LINE
  5
133E2
  8
0
  6
VERDECKT
 62
     1
 10
63.9999999999999787
 20
-82.5000000000000568
 30
0.0000000000000183
 11
63.9999999999995381
 21
-2064.8753109471981588
 31
0.0000000000004585
210
0.0000000000000002
220
1.0
230
-0.0000000000000002
  0
LINE
  5
133E3
  8
0
  6
VERDECKT
 62
     1
 10
-64.0000000000000142
 20
-82.5
 30
0.0000000000000183
 11
-64.0000000000004547
 21
-2064.8753109471981588
 31
0.0000000000004585
210
0.0000000000000002
220
1.0
230
-0.0000000000000002
  0
ENDBLK
  5
133E5
  8
0
  0
BLOCK
  8
0
  2
A$C01D8606A
 70
     0
 10
0.0
 20
0.0
 30
0.0
  3
A$C01D8606A
  1

  0
CIRCLE
  5
133E9
  8
0
  6
CONTINUOUS
 62
     3
 10
-0.0000000000004608
 20
0.0
 30
0.0
 40
63.0124070244750385
  0
CIRCLE
  5
133EA
  8
0
  6
CONTINUOUS
 62
     3
 10
-0.000000000000003
 20
0.0000000000000059
 30
0.0
 40
76.0
  0
CIRCLE
  5
133EB
  8
0
  6
CONTINUOUS
 62
     3
 10
0.0
 20
0.0000000000000067
 30
0.0
 40
72.7402318613732177
  0
CIRCLE
  5
133EC
  8
0
  6
CONTINUOUS
 62
     3
 10
-0.0000000000000003
 20
0.0000000000000067
 30
0.0
 40
70.5118792062587971
  0
CIRCLE
  5
133ED
  8
0
  6
CONTINUOUS
 62
     3
 10
-0.0000000000000096
 20
0.0000000000000041
 30
0.0
 40
69.0
  0
CIRCLE
  5
133EE
  8
0
  6
CONTINUOUS
 62
     3
 10
-0.0000000000000183
 20
0.0000000000000017
 30
0.0
 40
64.0
  0
CIRCLE
  5
133EF
  8
0
  6
VERDECKT
 62
     1
 10
-0.0000000000004609
 20
0.0
 30
0.0
 40
65.5
  0
CIRCLE
  5
133F0
  8
0
  6
VERDECKT
 62
     1
 10
-0.000000000000003
 20
0.0000000000000059
 30
0.0
 40
73.5
  0
CIRCLE
  5
133F1
  8
0
  6
VERDECKT
 62
     1
 10
-0.0000000000000183
 20
0.0000000000000017
 30
0.0
 40
66.5
  0
CIRCLE
  5
133F2
  8
0
  6
VERDECKT
 62
     1
 10
-0.0000000000000096
 20
0.0000000000000041
 30
0.0
 40
71.5
  0
ENDBLK
  5
133F4
  8
0
  0
ENDSEC
  0
SECTION
  2
ENTITIES
  0
INSERT
  5
1CC6
  8
ADSK_ASSOC_ENTITY_BACKUPS
  2
*S0
 10
0.0
 20
0.0
 30
0.0
  0
INSERT
  5
133E6
  8
STEMPEL
  2
A$CDD7D4886
 10
399.880333010900415
 20
-0.0000000000000888
 30
-944.5636732213461073
  0
INSERT
  5
133F5
  8
STEMPEL
  2
A$C01D8606A
 10
399.8803330108999035
 20
-2200.7512407024478307
 30
-944.5636732213456526
  0
VIEWPORT
  5
16C7
 67
     1
  8
0
 10
104.7950820922850994
 20
148.2447509765625
 30
0.0
 40
567.3581314878892954
 41
298.5415224913494967
 68
     1
 69
     1
1001
ACAD
1000
MVIEW
1002
{
1070
    16
1010
0.0
1020
0.0
1030
0.0
1010
0.0
1020
0.0
1030
1.0
1040
0.0
1040
298.5415224913494967
1040
104.7950820922850994
1040
148.2447509765625
1040
50.0
1040
0.0
1040
0.0
1070
     0
1070
  1500
1070
     1
1070
     1
1070
     0
1070
     0
1070
     0
1070
     0
1040
0.0
1040
0.0
1040
0.0
1040
10.0
1040
10.0
1040
10.0
1040
10.0
1070
     0
1002
{
1002
}
1002
}
  0
ENDSEC
  0
EOF
