  0
SECTION
  2
HEADER
  9
$ACADVER
  1
AC1009
  9
$INSBASE
 10
0.0
 20
0.0
 30
0.0
  9
$EXTMIN
 10
-42.1000932431254569
 20
-92.1000932431256842
 30
-0.000000000000625
  9
$EXTMAX
 10
42.1000932431265724
 20
2805.0000000000009095
 30
0.0
  9
$LIMMIN
 10
0.0
 20
0.0
  9
$LIMMAX
 10
594.0
 20
840.0
  9
$ORTHOMODE
 70
     1
  9
$REGENMODE
 70
     1
  9
$FILLMODE
 70
     1
  9
$QTEXTMODE
 70
     0
  9
$MIRRTEXT
 70
     1
  9
$DRAGMODE
 70
     2
  9
$LTSCALE
 40
10.0
  9
$OSMODE
 70
  1535
  9
$ATTMODE
 70
     1
  9
$TEXTSIZE
 40
3.5
  9
$TRACEWID
 40
1.0
  9
$TEXTSTYLE
  7
STANDARD
  9
$CLAYER
  8
STEMPEL
  9
$CELTYPE
  6
BYLAYER
  9
$CECOLOR
 62
   256
  9
$DIMSCALE
 40
1.0
  9
$DIMASZ
 40
3.5
  9
$DIMEXO
 40
1.0
  9
$DIMDLI
 40
0.38
  9
$DIMRND
 40
0.0
  9
$DIMDLE
 40
0.0
  9
$DIMEXE
 40
1.0
  9
$DIMTP
 40
0.0
  9
$DIMTM
 40
0.000000001
  9
$DIMTXT
 40
3.5
  9
$DIMCEN
 40
0.09
  9
$DIMTSZ
 40
0.0
  9
$DIMTOL
 70
     0
  9
$DIMLIM
 70
     0
  9
$DIMTIH
 70
     0
  9
$DIMTOH
 70
     0
  9
$DIMSE1
 70
     0
  9
$DIMSE2
 70
     0
  9
$DIMTAD
 70
     1
  9
$DIMZIN
 70
     8
  9
$DIMBLK
  1

  9
$DIMASO
 70
     1
  9
$DIMSHO
 70
     0
  9
$DIMPOST
  1

  9
$DIMAPOST
  1

  9
$DIMALT
 70
     0
  9
$DIMALTD
 70
     2
  9
$DIMALTF
 40
25.3999999999999986
  9
$DIMLFAC
 40
2.0
  9
$DIMTOFL
 70
     1
  9
$DIMTVP
 40
0.0
  9
$DIMTIX
 70
     0
  9
$DIMSOXD
 70
     0
  9
$DIMSAH
 70
     0
  9
$DIMBLK1
  1

  9
$DIMBLK2
  1

  9
$DIMSTYLE
  2
LORO
  9
$DIMCLRD
 70
     0
  9
$DIMCLRE
 70
     0
  9
$DIMCLRT
 70
     1
  9
$DIMTFAC
 40
0.5
  9
$DIMGAP
 40
1.5
  9
$LUNITS
 70
     2
  9
$LUPREC
 70
     2
  9
$SKETCHINC
 40
1.0
  9
$FILLETRAD
 40
5.0
  9
$AUNITS
 70
     0
  9
$AUPREC
 70
     0
  9
$MENU
  1
ACAD
  9
$ELEVATION
 40
0.0
  9
$PELEVATION
 40
0.0
  9
$THICKNESS
 40
0.0
  9
$LIMCHECK
 70
     0
  9
$BLIPMODE
 70
     0
  9
$CHAMFERA
 40
0.0
  9
$CHAMFERB
 40
0.0
  9
$SKPOLY
 70
     0
  9
$TDCREATE
 40
2455397.867048610933125
  9
$TDUPDATE
 40
2460886.3940393519587815
  9
$TDINDWG
 40
2.2178882176000001
  9
$TDUSRTIMER
 40
2.2178882176000001
  9
$USRTIMER
 70
     1
  9
$ANGBASE
 50
0.0
  9
$ANGDIR
 70
     0
  9
$PDMODE
 70
     0
  9
$PDSIZE
 40
0.0
  9
$PLINEWID
 40
0.0
  9
$COORDS
 70
     1
  9
$SPLFRAME
 70
     0
  9
$SPLINETYPE
 70
     6
  9
$SPLINESEGS
 70
     8
  9
$ATTDIA
 70
     1
  9
$ATTREQ
 70
     1
  9
$HANDLING
 70
     1
  9
$HANDSEED
  5
14CBC
  9
$SURFTAB1
 70
     6
  9
$SURFTAB2
 70
     6
  9
$SURFTYPE
 70
     6
  9
$SURFU
 70
     6
  9
$SURFV
 70
     6
  9
$UCSNAME
  2

  9
$UCSORG
 10
0.0
 20
0.0
 30
0.0
  9
$UCSXDIR
 10
1.0
 20
0.0
 30
0.0
  9
$UCSYDIR
 10
0.0
 20
1.0
 30
0.0
  9
$PUCSNAME
  2

  9
$PUCSORG
 10
0.0
 20
0.0
 30
0.0
  9
$PUCSXDIR
 10
1.0
 20
0.0
 30
0.0
  9
$PUCSYDIR
 10
0.0
 20
1.0
 30
0.0
  9
$USERI1
 70
     0
  9
$USERI2
 70
     0
  9
$USERI3
 70
     0
  9
$USERI4
 70
     0
  9
$USERI5
 70
     0
  9
$USERR1
 40
0.0
  9
$USERR2
 40
0.0
  9
$USERR3
 40
0.0
  9
$USERR4
 40
0.0
  9
$USERR5
 40
0.0
  9
$WORLDVIEW
 70
     1
  9
$SHADEDGE
 70
     3
  9
$SHADEDIF
 70
    70
  9
$TILEMODE
 70
     1
  9
$MAXACTVP
 70
    16
  9
$PLIMCHECK
 70
     0
  9
$PEXTMIN
 10
0.0
 20
0.0
 30
-0.0000000000001704
  9
$PEXTMAX
 10
209.5
 20
296.5
 30
0.0000000000001132
  9
$PLIMMIN
 10
-0.2180013472035683
 20
-0.2203496809828778
  9
$PLIMMAX
 10
209.7819986527964886
 20
296.7796503190172075
  9
$UNITMODE
 70
     0
  9
$VISRETAIN
 70
     0
  9
$PLINEGEN
 70
     0
  9
$PSLTSCALE
 70
     0
  0
ENDSEC
  0
SECTION
  2
TABLES
  0
TABLE
  2
VPORT
 70
     1
  0
VPORT
  2
*ACTIVE
 70
     0
 10
0.0
 20
0.0
 11
1.0
 21
1.0
 12
44.0844437070327331
 22
614.2244340511766723
 13
0.0
 23
0.0
 14
1.0
 24
1.0
 15
10.0
 25
10.0
 16
-0.0000000000017266
 26
0.0
 36
7773.0175062329672073
 17
-44.0844437070319302
 27
742.2255193272604856
 37
-0.0000000000003212
 40
2912.033598878399971
 41
1.8839208942390371
 42
50.0
 43
0.0
 44
0.0
 50
0.0
 51
0.0
 71
     0
 72
  1500
 73
     1
 74
     0
 75
     0
 76
     0
 77
     0
 78
     0
  0
ENDTAB
  0
TABLE
  2
LTYPE
 70
     3
  0
LTYPE
  2
CONTINUOUS
 70
     0
  3
Solid line
 72
    65
 73
     0
 40
0.0
  0
LTYPE
  2
STRICHPUNKT
 70
     0
  3
__ . __ . __ . __ . __ . __ . __ . __ . __ . __
 72
    65
 73
     4
 40
1.0
 49
0.5
 49
-0.25
 49
0.0
 49
-0.25
  0
LTYPE
  2
VERDECKT
 70
     0
  3
Verdeckt __ __ __ __ __ __ __ __ __ __ __ __ __
 72
    65
 73
     2
 40
0.375
 49
0.25
 49
-0.125
  0
ENDTAB
  0
TABLE
  2
LAYER
 70
     5
  0
LAYER
  2
0
 70
     0
 62
     7
  6
CONTINUOUS
  0
LAYER
  2
STEMPEL
 70
     0
 62
     3
  6
CONTINUOUS
  0
LAYER
  2
ADSK_ASSOC_ENTITY_BACKUPS
 70
     1
 62
    -7
  6
CONTINUOUS
  0
ENDTAB
  0
TABLE
  2
STYLE
 70
     2
  0
STYLE
  2
STANDARD
 70
     0
 40
0.0
 41
0.8
 50
0.0
 71
     0
 42
3.5
  3
simplex.shx
  4

  0
ENDTAB
  0
TABLE
  2
VIEW
 70
     0
  0
ENDTAB
  0
TABLE
  2
UCS
 70
     0
  0
ENDTAB
  0
TABLE
  2
APPID
 70
    27
  0
APPID
  2
ACAD
 70
     0
  0
APPID
  2
ACAECLAYERSTANDARD
 70
     0
  0
APPID
  2
ACCMTRANSPARENCY
 70
     0
  0
APPID
  2
ACAD_NAV_VCDISPLAY
 70
     0
  0
APPID
  2
ACAD_PSEXT
 70
     0
  0
APPID
  2
ACAD_STEPID
 70
     0
  0
APPID
  2
ACAD_EXEMPT_FROM_CAD_STANDARDS
 70
     0
  0
APPID
  2
ACSYNERGY
 70
     0
  0
APPID
  2
SYNERGY_BODY_TBR_ID
 70
     0
  0
APPID
  2
ACAD_VIEW_EDGE_ID
 70
     0
  0
APPID
  2
GRADIENTCOLOR1ACI
 70
     0
  0
APPID
  2
GRADIENTCOLOR2ACI
 70
     0
  0
APPID
  2
ACAD_DSTYLE_DIMRADIAL_EXTENSION
 70
     0
  0
APPID
  2
ACADANNOMONITORALERTICONDI
 70
     0
  0
APPID
  2
ACAD_MLEADERVER
 70
     0
  0
APPID
  2
ACSYNERGYSKETCH
 70
     0
  0
APPID
  2
ACAD_MODELDOC_XFORM
 70
     0
  0
APPID
  2
ACDBDYNAMICBLOCKGUID
 70
     0
  0
APPID
  2
ACAD_DSTYLE_DIMJAG
 70
     0
  0
APPID
  2
ACAD_DSTYLE_DIMBREAK
 70
     0
  0
APPID
  2
ACAD_DSTYLE_DIMTALN
 70
     0
  0
APPID
  2
ACADANNOPO
 70
     0
  0
APPID
  2
PLOTTRANSPARENCY
 70
     0
  0
APPID
  2
ACADANNOTATIVE
 70
     0
  0
APPID
  2
ACAD_DIMASSOC_CALC_DIMLFAC
 70
     0
  0
APPID
  2
ACAD_DIMASSOC_DIMLFAC
 70
     0
  0
APPID
  2
ACAD_DIMASSOC_OVERRIDDEN_D
 70
     0
  0
ENDTAB
  0
TABLE
  2
DIMSTYLE
 70
     1
  0
DIMSTYLE
  2
LORO
 70
     0
  3

  4

  5

  6

  7

 40
1.0
 41
3.5
 42
1.0
 43
0.38
 44
1.0
 45
0.0
 46
0.0
 47
0.0
 48
0.000000001
140
3.5
141
0.09
142
0.0
143
25.3999999999999986
144
2.0
145
0.0
146
0.5
147
1.5
 71
     0
 72
     0
 73
     0
 74
     0
 75
     0
 76
     0
 77
     1
 78
     8
170
     0
171
     2
172
     1
173
     0
174
     0
175
     0
176
     0
177
     0
178
     1
  0
ENDTAB
  0
ENDSEC
  0
SECTION
  2
BLOCKS
  0
BLOCK
  8
0
  2
$MODEL_SPACE
 70
     0
 10
0.0
 20
0.0
 30
0.0
  3
$MODEL_SPACE
  1

  0
ENDBLK
  5
38
  8
0
  0
BLOCK
 67
     1
  8
0
  2
$PAPER_SPACE
 70
     0
 10
0.0
 20
0.0
 30
0.0
  3
$PAPER_SPACE
  1

  0
ENDBLK
  5
36
 67
     1
  8
0
  0
BLOCK
  8
0
  2
*S0
 70
     1
 10
0.0
 20
0.0
 30
0.0
  3
*S0
  1

  0
ENDBLK
  5
7128
  8
0
  0
BLOCK
  8
0
  2
A$CACDF52EF
 70
     0
 10
0.0
 20
0.0
 30
0.0
  3
A$CACDF52EF
  1

  0
LINE
  5
14C20
  8
0
  6
CONTINUOUS
 62
     3
 10
-35.5
 20
-0.0000000000000052
 30
0.0
 11
35.5
 21
-0.0000000000000052
 31
0.0
210
0.0
220
1.0
230
-0.0000000000000002
  0
LINE
  5
14C21
  8
0
  6
CONTINUOUS
 62
     3
 10
39.4500924592588333
 20
2805.0000000000009095
 30
-0.0000000000006228
 11
-39.4500924592583715
 21
2805.0000000000009095
 31
-0.0000000000006228
210
0.0
220
1.0
230
-0.0000000000000002
  0
ARC
  5
14C22
  8
0
  6
CONTINUOUS
 62
     3
 10
35.5000000000013927
 20
8.062257748298931
 30
0.0
 40
0.9999999999987212
210
0.0
220
-0.0000000000000002
230
-1.0
 50
352.8749836510922933
 51
0.0000000000043764
  0
ARC
  5
14C23
  8
0
  6
CONTINUOUS
 62
     3
 10
-35.5000000000014495
 20
8.0622577482989257
 30
0.0
 40
0.9999999999986712
210
0.0
220
-0.0000000000000002
230
-1.0
 50
179.9999999999953104
 51
187.125016348907792
  0
LINE
  5
14C24
  8
0
  6
CONTINUOUS
 62
     3
 10
36.5000000000001066
 20
2679.6934003354322158
 30
-0.000000000000595
 11
36.5000000000001066
 21
8.0622577482990891
 31
-0.0000000000000018
210
0.0
220
1.0
230
-0.0000000000000002
  0
LINE
  5
14C25
  8
0
  6
CONTINUOUS
 62
     3
 10
-36.5000000000001066
 20
2679.6934003354322158
 30
-0.000000000000595
 11
-36.5000000000001066
 21
8.0622577482990891
 31
-0.0000000000000018
210
0.0
220
1.0
230
-0.0000000000000002
  0
LINE
  5
14C26
  8
0
  6
CONTINUOUS
 62
     3
 10
-35.4999999999999432
 20
0.0000000000000009
 30
0.0
 11
-36.4922778767137785
 21
7.938223013709778
 31
-0.0000000000000018
210
0.0
220
1.0
230
-0.0000000000000002
  0
LINE
  5
14C27
  8
0
  6
CONTINUOUS
 62
     3
 10
35.4999999999999432
 20
0.0000000000000009
 30
0.0
 11
36.4922778767137785
 21
7.938223013709778
 31
-0.0000000000000018
210
0.0
220
1.0
230
-0.0000000000000002
  0
ARC
  5
14C28
  8
0
  6
CONTINUOUS
 62
     3
 10
-51.6000000000017707
 20
2776.3300000000008367
 30
0.0
 40
12.0000000000015206
210
0.0
220
-0.0000000000000002
230
-1.0
 50
0.0000000000021755
 51
21.1831543930289783
  0
ARC
  5
14C29
  8
0
  6
CONTINUOUS
 62
     3
 10
51.600000000001323
 20
2776.3300000000008367
 30
0.0
 40
12.0000000000015294
210
0.0
220
-0.0000000000000002
230
-1.0
 50
158.8168456069709862
 51
179.9999999999978115
  0
ARC
  5
14C2A
  8
0
  6
CONTINUOUS
 62
     3
 10
-17.0999999999876486
 20
2789.7000000000030013
 30
0.0
 40
25.0000932431383092
210
0.0
220
-0.0000000000000002
230
-1.0
 50
179.8435140456658985
 51
201.1831543930327086
  0
ARC
  5
14C2B
  8
0
  6
CONTINUOUS
 62
     3
 10
17.099999999987201
 20
2789.7000000000030013
 30
0.0
 40
25.0000932431382594
210
0.0
220
-0.0000000000000002
230
-1.0
 50
338.8168456069673198
 51
0.1564859543340677
  0
LINE
  5
14C2C
  8
0
  6
CONTINUOUS
 62
     3
 10
-42.0999999999997883
 20
2789.76828004818708
 30
-0.0000000000006195
 11
-42.0999999999997883
 21
2793.7748883740969177
 31
-0.0000000000006203
210
0.0
220
1.0
230
-0.0000000000000002
  0
LINE
  5
14C2D
  8
0
  6
CONTINUOUS
 62
     3
 10
42.100000000000243
 20
2789.76828004818708
 30
-0.0000000000006195
 11
42.100000000000243
 21
2793.7748883740969177
 31
-0.0000000000006203
210
0.0
220
1.0
230
-0.0000000000000002
  0
ARC
  5
14C2E
  8
0
  6
CONTINUOUS
 62
     3
 10
-17.1000000000001009
 20
2793.7748883740969177
 30
0.0
 40
25.0000000000000284
210
0.0
220
-0.0000000000000002
230
-1.0
 50
154.9999999999965894
 51
180.0
  0
ARC
  5
14C2F
  8
0
  6
CONTINUOUS
 62
     3
 10
17.0999999999999304
 20
2793.7748883740969177
 30
0.0
 40
24.9999999999998508
210
0.0
220
-0.0000000000000002
230
-1.0
 50
0.0
 51
25.0000000000036913
  0
LINE
  5
14C30
  8
0
  6
CONTINUOUS
 62
     3
 10
39.4500924592587694
 20
2805.0000000000009095
 30
-0.0000000000006228
 11
39.7576946759158929
 21
2804.3403449176162212
 31
-0.0000000000006227
210
0.0
220
1.0
230
-0.0000000000000002
  0
LINE
  5
14C31
  8
0
  6
CONTINUOUS
 62
     3
 10
-39.4500924592583004
 20
2805.0000000000009095
 30
-0.0000000000006228
 11
-39.7576946759154097
 21
2804.3403449176162212
 31
-0.0000000000006227
210
0.0
220
1.0
230
-0.0000000000000002
  0
ARC
  5
14C32
  8
0
  6
CONTINUOUS
 62
     3
 10
-44.4999999964905371
 20
2679.6934003354299421
 30
0.0
 40
8.0000000000012008
210
0.0
220
-0.0000000000000002
230
-1.0
 50
0.0000000000130276
 51
32.3280641221680014
  0
ARC
  5
14C33
  8
0
  6
CONTINUOUS
 62
     3
 10
44.5000000035094914
 20
2679.6934003354299421
 30
0.0
 40
7.9999999999988889
210
0.0
220
-0.0000000000000002
230
-1.0
 50
147.6719358778258027
 51
179.9999999999870113
  0
ARC
  5
14C34
  8
0
  6
CONTINUOUS
 62
     3
 10
-27.5999999964885312
 20
2690.3887264174150005
 30
0.0
 40
12.0000000000008402
210
0.0
220
-0.0000000000000002
230
-1.0
 50
180.0
 51
212.3280641221554959
  0
ARC
  5
14C35
  8
0
  6
CONTINUOUS
 62
     3
 10
27.6000000035106616
 20
2690.3887264174150005
 30
0.0
 40
11.9999999999999591
210
0.0
220
-0.0000000000000002
230
-1.0
 50
327.6719358778423157
 51
0.0000000000021755
  0
LINE
  5
14C36
  8
0
  6
CONTINUOUS
 62
     3
 10
-39.6000000035106723
 20
2690.3887264174150005
 30
-0.0000000000005974
 11
-39.6000000035106723
 21
2776.3300000000008367
 31
-0.0000000000006165
210
0.0
220
1.0
230
-0.0000000000000002
  0
LINE
  5
14C37
  8
0
  6
CONTINUOUS
 62
     3
 10
39.5999999964893803
 20
2690.3887264174150005
 30
-0.0000000000005974
 11
39.5999999964893803
 21
2776.3300000000008367
 31
-0.0000000000006165
210
0.0
220
1.0
230
-0.0000000000000002
  0
LINE
  5
14C38
  8
0
  6
VERDECKT
 62
     1
 10
-33.9123553972581178
 20
0.1984555753427505
 30
0.0
 11
33.9123553972581178
 21
0.1984555753427505
 31
0.0
210
0.0
220
1.0
230
-0.0000000000000002
  0
LINE
  5
14C39
  8
0
  6
VERDECKT
 62
     1
 10
38.0000000000002274
 20
2804.3238107812148883
 30
-0.0000000000006227
 11
-37.9999999999997797
 21
2804.3238107812148883
 31
-0.0000000000006227
210
0.0
220
1.0
230
-0.0000000000000002
  0
ARC
  5
14C3A
  8
0
  6
VERDECKT
 62
     1
 10
33.9000000000013202
 20
8.1618701455757634
 30
0.0
 40
0.999999999998778
210
0.0
220
-0.0000000000000002
230
-1.0
 50
352.8749836510925206
 51
0.0000000000044782
  0
ARC
  5
14C3B
  8
0
  6
VERDECKT
 62
     1
 10
-33.9000000000012989
 20
8.1618701455757652
 30
0.0
 40
0.999999999998792
210
0.0
220
-0.0000000000000002
230
-1.0
 50
179.9999999999955946
 51
187.1250163489073941
  0
LINE
  5
14C3C
  8
0
  6
VERDECKT
 62
     1
 10
-33.9123553972581178
 20
0.1984555753427509
 30
0.0
 11
-34.8922778767137629
 21
8.0378354109866077
 31
-0.0000000000000018
210
0.0
220
1.0
230
-0.0000000000000002
  0
LINE
  5
14C3D
  8
0
  6
VERDECKT
 62
     1
 10
33.9123553972581178
 20
0.1984555753427509
 30
0.0
 11
34.8922778767137629
 21
8.0378354109866077
 31
-0.0000000000000018
210
0.0
220
1.0
230
-0.0000000000000002
  0
LINE
  5
14C3E
  8
0
  6
VERDECKT
 62
     1
 10
34.9000000000000909
 20
2679.6934003354322158
 30
-0.000000000000595
 11
34.9000000000000909
 21
8.1618701455759055
 31
-0.0000000000000018
210
0.0
220
1.0
230
-0.0000000000000002
  0
LINE
  5
14C3F
  8
0
  6
VERDECKT
 62
     1
 10
-34.9000000000000909
 20
2679.6934003354322158
 30
-0.000000000000595
 11
-34.9000000000000909
 21
8.1618701455759055
 31
-0.0000000000000018
210
0.0
220
1.0
230
-0.0000000000000002
  0
LINE
  5
14C40
  8
0
  6
VERDECKT
 62
     1
 10
-37.9999999999996305
 20
2804.3238107812148883
 30
-0.0000000000006227
 11
-39.450092459258542
 21
2805.0
 31
-0.0000000000006228
210
0.0
220
1.0
230
-0.0000000000000002
  0
LINE
  5
14C41
  8
0
  6
VERDECKT
 62
     1
 10
38.0000000000002487
 20
2804.3238107812148883
 30
-0.0000000000006227
 11
39.450092459259082
 21
2805.0
 31
-0.0000000000006228
210
0.0
220
1.0
230
-0.0000000000000002
  0
LINE
  5
14C42
  8
0
  6
VERDECKT
 62
     1
 10
38.0000000000003411
 20
2804.3238107812148883
 30
-0.0000000000006227
 11
38.3076022166572514
 21
2803.6641556988311095
 31
-0.0000000000006225
210
0.0
220
1.0
230
-0.0000000000000002
  0
LINE
  5
14C43
  8
0
  6
VERDECKT
 62
     1
 10
-37.9999999999997087
 20
2804.3238107812157978
 30
-0.0000000000006227
 11
-38.3076022166567967
 21
2803.6641556988311095
 31
-0.0000000000006225
210
0.0
220
1.0
230
-0.0000000000000002
  0
ARC
  5
14C44
  8
0
  6
VERDECKT
 62
     1
 10
-17.0999999999984205
 20
2793.7748883740960082
 30
0.0
 40
23.4000000000017501
210
0.0
220
-0.0000000000000002
230
-1.0
 50
154.9999999999969873
 51
179.9999999999988916
  0
ARC
  5
14C45
  8
0
  6
VERDECKT
 62
     1
 10
17.0999999999979586
 20
2793.7748883740960082
 30
0.0
 40
23.4000000000018105
210
0.0
220
-0.0000000000000002
230
-1.0
 50
0.0000000000011196
 51
25.000000000002931
  0
LINE
  5
14C46
  8
0
  6
VERDECKT
 62
     1
 10
-40.4999999999997726
 20
2789.7660589659249126
 30
-0.0000000000006195
 11
-40.4999999999997726
 21
2793.7748883740969177
 31
-0.0000000000006203
210
0.0
220
1.0
230
-0.0000000000000002
  0
LINE
  5
14C47
  8
0
  6
VERDECKT
 62
     1
 10
40.5000000000002203
 20
2789.7660589659258221
 30
-0.0000000000006195
 11
40.5000000000002203
 21
2793.7748883740969177
 31
-0.0000000000006203
210
0.0
220
1.0
230
-0.0000000000000002
  0
ARC
  5
14C48
  8
0
  6
VERDECKT
 62
     1
 10
-17.0999999999950383
 20
2789.7000000000030013
 30
0.0
 40
23.4000932431309216
210
0.0
220
-0.0000000000000002
230
-1.0
 50
179.8382525687256077
 51
201.1831543930352098
  0
ARC
  5
14C49
  8
0
  6
VERDECKT
 62
     1
 10
17.0999999999924199
 20
2789.7000000000030013
 30
0.0
 40
23.4000932431330106
210
0.0
220
-0.0000000000000002
230
-1.0
 50
338.8168456069677745
 51
0.1617474312731919
  0
ARC
  5
14C4A
  8
0
  6
VERDECKT
 62
     1
 10
-51.5999999999980119
 20
2776.330000000002201
 30
0.0
 40
13.5999999999976602
210
0.0
220
-0.0000000000000002
230
-1.0
 50
0.0
 51
21.1831543930367516
  0
ARC
  5
14C4B
  8
0
  6
VERDECKT
 62
     1
 10
51.59999999999755
 20
2776.330000000002201
 30
0.0
 40
13.5999999999976406
210
0.0
220
-0.0000000000000002
230
-1.0
 50
158.8168456069670924
 51
180.0000000000038085
  0
LINE
  5
14C4C
  8
0
  6
VERDECKT
 62
     1
 10
-38.0000000035107632
 20
2690.3887264174168195
 30
-0.0000000000005974
 11
-38.0000000035107632
 21
2776.3300000000008367
 31
-0.0000000000006165
210
0.0
220
1.0
230
-0.0000000000000002
  0
LINE
  5
14C4D
  8
0
  6
VERDECKT
 62
     1
 10
37.999999996489457
 20
2690.3887264174168195
 30
-0.0000000000005974
 11
37.999999996489457
 21
2776.3300000000008367
 31
-0.0000000000006165
210
0.0
220
1.0
230
-0.0000000000000002
  0
ARC
  5
14C4E
  8
0
  6
VERDECKT
 62
     1
 10
-27.5999999964875116
 20
2690.3887264174181837
 30
0.0
 40
10.40000000000183
210
0.0
220
-0.0000000000000002
230
-1.0
 50
180.0000000000023874
 51
212.3280641221589917
  0
ARC
  5
14C4F
  8
0
  6
VERDECKT
 62
     1
 10
27.600000003508729
 20
2690.3887264174181837
 30
0.0
 40
10.4000000000018495
210
0.0
220
-0.0000000000000002
230
-1.0
 50
327.671935877841122
 51
359.9999999999974989
  0
ARC
  5
14C50
  8
0
  6
VERDECKT
 62
     1
 10
-44.4999999964921429
 20
2679.6934003354308516
 30
0.0
 40
9.6000000000028081
210
0.0
220
-0.0000000000000002
230
-1.0
 50
0.0000000000054324
 51
32.3280641221582812
  0
ARC
  5
14C51
  8
0
  6
VERDECKT
 62
     1
 10
44.5000000035112819
 20
2679.6934003354308516
 30
0.0
 40
9.6000000000006498
210
0.0
220
-0.0000000000000002
230
-1.0
 50
147.6719358778371998
 51
180.0
  0
LINE
  5
14C52
  8
0
  6
VERDECKT
 62
     1
 10
33.9123553972581178
 20
0.1984555753427506
 30
0.0
 11
35.5
 21
-0.0000000000000052
 31
0.0
210
0.0
220
1.0
230
-0.0000000000000002
  0
LINE
  5
14C53
  8
0
  6
VERDECKT
 62
     1
 10
-33.9123553972581178
 20
0.1984555753427506
 30
0.0
 11
-35.5
 21
-0.0000000000000052
 31
0.0
210
0.0
220
1.0
230
-0.0000000000000002
  0
ENDBLK
  5
14C55
  8
0
  0
BLOCK
  8
0
  2
A$CC7FD7A36
 70
     0
 10
0.0
 20
0.0
 30
0.0
  3
A$CC7FD7A36
  1

  0
CIRCLE
  5
14C59
  8
0
  6
CONTINUOUS
 62
     3
 10
0.0
 20
0.0
 30
0.0
 40
33.9123553972581178
  0
CIRCLE
  5
14C5A
  8
0
  6
CONTINUOUS
 62
     3
 10
0.000000000000595
 20
0.0000000000000426
 30
0.0
 40
34.9000000000000981
  0
CIRCLE
  5
14C5B
  8
0
  6
CONTINUOUS
 62
     3
 10
0.0000000000008502
 20
0.0000000000000568
 30
0.0
 40
39.4500924592585989
  0
CIRCLE
  5
14C5C
  8
0
  6
CONTINUOUS
 62
     3
 10
0.0000000000008501
 20
0.0000000000000568
 30
0.0
 40
38.0
  0
CIRCLE
  5
14C5D
  8
0
  6
CONTINUOUS
 62
     3
 10
0.0000000000008477
 20
0.0000000000000568
 30
0.0
 40
42.1000000000000227
  0
CIRCLE
  5
14C5E
  8
0
  6
CONTINUOUS
 62
     3
 10
0.0000000000008468
 20
0.0000000000000568
 30
0.0
 40
42.1000932431257269
  0
CIRCLE
  5
14C5F
  8
0
  6
VERDECKT
 62
     1
 10
0.000000000000595
 20
0.0000000000000142
 30
0.0
 40
36.5000000000001066
  0
CIRCLE
  5
14C60
  8
0
  6
VERDECKT
 62
     1
 10
0.0
 20
0.0
 30
0.0
 40
35.5
  0
CIRCLE
  5
14C61
  8
0
  6
VERDECKT
 62
     1
 10
0.0000000000008477
 20
0.0000000000000568
 30
0.0
 40
40.4999999999999929
  0
CIRCLE
  5
14C62
  8
0
  6
VERDECKT
 62
     1
 10
-0.0000000035100331
 20
-0.0000008345004119
 30
0.0
 40
39.6000000000000227
  0
CIRCLE
  5
14C63
  8
0
  6
VERDECKT
 62
     1
 10
0.0000000000008468
 20
0.0000000000000568
 30
0.0
 40
40.5000932431257326
  0
ENDBLK
  5
14C65
  8
0
  0
ENDSEC
  0
SECTION
  2
ENTITIES
  0
INSERT
  5
712A
  8
ADSK_ASSOC_ENTITY_BACKUPS
  2
*S0
 10
0.0
 20
0.0
 30
0.0
  0
INSERT
  5
14C56
  8
STEMPEL
  2
A$CACDF52EF
 10
0.0
 20
0.0
 30
0.0
  0
INSERT
  5
14C66
  8
STEMPEL
  2
A$CC7FD7A36
 10
0.0
 20
-50.0
 30
0.0
  0
VIEWPORT
  5
7108
 67
     1
  8
0
 10
104.749999664877194
 20
148.2499997284419919
 30
0.0
 40
561.5393022953376203
 41
298.0694699084791068
 68
     1
 69
     1
1001
ACAD
1000
MVIEW
1002
{
1070
    16
1010
0.0
1020
0.0
1030
0.0
1010
0.0
1020
0.0
1030
1.0
1040
0.0
1040
298.0694699084791068
1040
104.749999664877194
1040
148.2499997284419919
1040
50.0
1040
0.0
1040
0.0
1070
     0
1070
  1500
1070
     1
1070
     1
1070
     0
1070
     0
1070
     0
1070
     0
1040
0.0
1040
0.0
1040
0.0
1040
10.0
1040
10.0
1040
10.0
1040
10.0
1070
     0
1002
{
1002
}
1002
}
  0
ENDSEC
  0
EOF
