  0
SECTION
  2
HEADER
  9
$ACADVER
  1
AC1009
  9
$INSBASE
 10
0.0
 20
0.0
 30
0.0
  9
$EXTMIN
 10
-55.0
 20
-132.9739074707030966
 30
-0.0000000000000133
  9
$EXTMAX
 10
55.0
 20
60.0
 30
0.0
  9
$LIMMIN
 10
0.0
 20
0.0
  9
$LIMMAX
 10
419.9999999999998863
 20
594.0
  9
$ORTHOMODE
 70
     1
  9
$REGENMODE
 70
     1
  9
$FILLMODE
 70
     1
  9
$QTEXTMODE
 70
     0
  9
$MIRRTEXT
 70
     1
  9
$DRAGMODE
 70
     2
  9
$LTSCALE
 40
20.0
  9
$OSMODE
 70
  3583
  9
$ATTMODE
 70
     1
  9
$TEXTSIZE
 40
3.5
  9
$TRACEWID
 40
0.5
  9
$TEXTSTYLE
  7
STANDARD
  9
$CLAYER
  8
STEMPEL
  9
$CELTYPE
  6
BYLAYER
  9
$CECOLOR
 62
   256
  9
$DIMSCALE
 40
1.0
  9
$DIMASZ
 40
3.5
  9
$DIMEXO
 40
1.0
  9
$DIMDLI
 40
0.38
  9
$DIMRND
 40
0.0
  9
$DIMDLE
 40
0.0
  9
$DIMEXE
 40
1.0
  9
$DIMTP
 40
0.0
  9
$DIMTM
 40
0.000000001
  9
$DIMTXT
 40
3.5
  9
$DIMCEN
 40
0.09
  9
$DIMTSZ
 40
0.0
  9
$DIMTOL
 70
     0
  9
$DIMLIM
 70
     0
  9
$DIMTIH
 70
     0
  9
$DIMTOH
 70
     0
  9
$DIMSE1
 70
     0
  9
$DIMSE2
 70
     0
  9
$DIMTAD
 70
     1
  9
$DIMZIN
 70
     8
  9
$DIMBLK
  1

  9
$DIMASO
 70
     1
  9
$DIMSHO
 70
     0
  9
$DIMPOST
  1

  9
$DIMAPOST
  1

  9
$DIMALT
 70
     0
  9
$DIMALTD
 70
     2
  9
$DIMALTF
 40
25.3999999999999986
  9
$DIMLFAC
 40
1.0
  9
$DIMTOFL
 70
     1
  9
$DIMTVP
 40
0.0
  9
$DIMTIX
 70
     0
  9
$DIMSOXD
 70
     0
  9
$DIMSAH
 70
     0
  9
$DIMBLK1
  1

  9
$DIMBLK2
  1

  9
$DIMSTYLE
  2
LORO
  9
$DIMCLRD
 70
     0
  9
$DIMCLRE
 70
     0
  9
$DIMCLRT
 70
     1
  9
$DIMTFAC
 40
0.5
  9
$DIMGAP
 40
1.5
  9
$LUNITS
 70
     2
  9
$LUPREC
 70
     2
  9
$SKETCHINC
 40
1.0
  9
$FILLETRAD
 40
0.0
  9
$AUNITS
 70
     0
  9
$AUPREC
 70
     0
  9
$MENU
  1
ACAD
  9
$ELEVATION
 40
0.0
  9
$PELEVATION
 40
0.0
  9
$THICKNESS
 40
0.0
  9
$LIMCHECK
 70
     0
  9
$BLIPMODE
 70
     0
  9
$CHAMFERA
 40
2.0
  9
$CHAMFERB
 40
2.0
  9
$SKPOLY
 70
     0
  9
$TDCREATE
 40
2455397.8646990740671754
  9
$TDUPDATE
 40
2460963.3637384260073304
  9
$TDINDWG
 40
2.2035689120000002
  9
$TDUSRTIMER
 40
2.2035689120000002
  9
$USRTIMER
 70
     1
  9
$ANGBASE
 50
0.0
  9
$ANGDIR
 70
     0
  9
$PDMODE
 70
     0
  9
$PDSIZE
 40
0.0
  9
$PLINEWID
 40
0.0
  9
$COORDS
 70
     1
  9
$SPLFRAME
 70
     0
  9
$SPLINETYPE
 70
     6
  9
$SPLINESEGS
 70
     8
  9
$ATTDIA
 70
     1
  9
$ATTREQ
 70
     1
  9
$HANDLING
 70
     1
  9
$HANDSEED
  5
22A73
  9
$SURFTAB1
 70
     6
  9
$SURFTAB2
 70
     6
  9
$SURFTYPE
 70
     6
  9
$SURFU
 70
     6
  9
$SURFV
 70
     6
  9
$UCSNAME
  2

  9
$UCSORG
 10
0.0
 20
0.0
 30
0.0
  9
$UCSXDIR
 10
1.0
 20
0.0
 30
0.0
  9
$UCSYDIR
 10
0.0
 20
1.0
 30
0.0
  9
$PUCSNAME
  2

  9
$PUCSORG
 10
0.0
 20
0.0
 30
0.0
  9
$PUCSXDIR
 10
1.0
 20
0.0
 30
0.0
  9
$PUCSYDIR
 10
0.0
 20
1.0
 30
0.0
  9
$USERI1
 70
     0
  9
$USERI2
 70
     0
  9
$USERI3
 70
     0
  9
$USERI4
 70
     0
  9
$USERI5
 70
     0
  9
$USERR1
 40
0.0
  9
$USERR2
 40
0.0
  9
$USERR3
 40
0.0
  9
$USERR4
 40
0.0
  9
$USERR5
 40
0.0
  9
$WORLDVIEW
 70
     1
  9
$SHADEDGE
 70
     3
  9
$SHADEDIF
 70
    70
  9
$TILEMODE
 70
     1
  9
$MAXACTVP
 70
    16
  9
$PLIMCHECK
 70
     0
  9
$PEXTMIN
 10
1.0000000000000000E+20
 20
1.0000000000000000E+20
 30
1.0000000000000000E+20
  9
$PEXTMAX
 10
-1.0000000000000000E+20
 20
-1.0000000000000000E+20
 30
-1.0000000000000000E+20
  9
$PLIMMIN
 10
-296.75
 20
-296.7447509765623863
  9
$PLIMMAX
 10
123.25
 20
0.2552490234375568
  9
$UNITMODE
 70
     0
  9
$VISRETAIN
 70
     0
  9
$PLINEGEN
 70
     0
  9
$PSLTSCALE
 70
     0
  0
ENDSEC
  0
SECTION
  2
TABLES
  0
TABLE
  2
VPORT
 70
     1
  0
VPORT
  2
*ACTIVE
 70
     0
 10
0.0
 20
0.0
 11
1.0
 21
1.0
 12
-48.6732764284863322
 22
-8.4882365321210216
 13
0.0
 23
0.0
 14
1.0
 24
1.0
 15
10.0
 25
10.0
 16
-0.0000000000001563
 26
0.0
 36
662.6748973245909156
 17
48.6732764284862895
 27
-27.9987172032305409
 37
37.0315856933593892
 40
193.9755021461566002
 41
1.9004329004328999
 42
49.9999999999997513
 43
0.0
 44
0.0
 50
0.0
 51
0.0
 71
     0
 72
  1500
 73
     1
 74
     0
 75
     0
 76
     0
 77
     0
 78
     0
  0
ENDTAB
  0
TABLE
  2
LTYPE
 70
     3
  0
LTYPE
  2
CONTINUOUS
 70
     0
  3
Solid line
 72
    65
 73
     0
 40
0.0
  0
LTYPE
  2
STRICHPUNKT
 70
     0
  3
__ . __ . __ . __ . __ . __ . __ . __ . __ . __
 72
    65
 73
     4
 40
1.0
 49
0.5
 49
-0.25
 49
0.0
 49
-0.25
  0
LTYPE
  2
VERDECKT
 70
     0
  3
Verdeckt __ __ __ __ __ __ __ __ __ __ __ __ __
 72
    65
 73
     2
 40
0.375
 49
0.25
 49
-0.125
  0
ENDTAB
  0
TABLE
  2
LAYER
 70
     6
  0
LAYER
  2
0
 70
     0
 62
     7
  6
CONTINUOUS
  0
LAYER
  2
VOLL
 70
     0
 62
     1
  6
CONTINUOUS
  0
LAYER
  2
STEMPEL
 70
     0
 62
     3
  6
CONTINUOUS
  0
LAYER
  2
DEFPOINTS
 70
     0
 62
     7
  6
CONTINUOUS
  0
LAYER
  2
ADSK_ASSOC_ENTITY_BACKUPS
 70
     1
 62
    -7
  6
CONTINUOUS
  0
LAYER
  2
GUMMI
 70
     0
 62
   250
  6
CONTINUOUS
  0
ENDTAB
  0
TABLE
  2
STYLE
 70
     3
  0
STYLE
  2
STANDARD
 70
     0
 40
0.0
 41
0.8
 50
0.0
 71
     0
 42
3.5
  3
simplex.shx
  4

  0
STYLE
  2
GREEKS
 70
     0
 40
0.0
 41
0.8
 50
0.0
 71
     0
 42
2.5
  3
SIMPLEX.shx
  4

  0
STYLE
  2

 70
     1
 40
0.0
 41
1.0
 50
0.0
 71
     0
 42
2.5
  3
ltypeshp.shx
  4

  0
ENDTAB
  0
TABLE
  2
VIEW
 70
     0
  0
ENDTAB
  0
TABLE
  2
UCS
 70
     0
  0
ENDTAB
  0
TABLE
  2
APPID
 70
    30
  0
APPID
  2
ACAD
 70
     0
  0
APPID
  2
ACAD_NAV_VCDISPLAY
 70
     0
  0
APPID
  2
ACAD_MLEADERVER
 70
     0
  0
APPID
  2
ACAD_EXEMPT_FROM_CAD_STANDARDS
 70
     0
  0
APPID
  2
ACAD_PSEXT
 70
     0
  0
APPID
  2
ACAECLAYERSTANDARD
 70
     0
  0
APPID
  2
ACAD_DSTYLE_DIMJAG
 70
     0
  0
APPID
  2
ACAD_DSTYLE_DIMTALN
 70
     0
  0
APPID
  2
ACCMTRANSPARENCY
 70
     0
  0
APPID
  2
ACADANNOMONITORALERTICONDI
 70
     0
  0
APPID
  2
ACAD_DSTYLE_DIMRADIAL_EXTENSION
 70
     0
  0
APPID
  2
GRADIENTCOLOR1ACI
 70
     0
  0
APPID
  2
GRADIENTCOLOR2ACI
 70
     0
  0
APPID
  2
ACAD_OBJECT_CHANGE_GUID
 70
     0
  0
APPID
  2
ACSYNERGY
 70
     0
  0
APPID
  2
SYNERGY_BODY_TBR_ID
 70
     0
  0
APPID
  2
ACAD_VIEW_EDGE_ID
 70
     0
  0
APPID
  2
ACAD_DIMASSOC_CALC_DIMLFAC
 70
     0
  0
APPID
  2
ACAD_DIMASSOC_DIMLFAC
 70
     0
  0
APPID
  2
ACAD_DIMASSOC_OVERRIDDEN_D
 70
     0
  0
APPID
  2
ACSYNERGYSKETCH
 70
     0
  0
APPID
  2
ACAD_MODELDOC_XFORM
 70
     0
  0
APPID
  2
ACDBDYNAMICBLOCKGUID
 70
     0
  0
APPID
  2
ACAD_DSTYLE_DIMBREAK
 70
     0
  0
APPID
  2
ACADANNOPO
 70
     0
  0
APPID
  2
ACAD_STEPID
 70
     0
  0
APPID
  2
SYNERGY_EXCLUDED_FROM_SNAPSHOT
 70
     0
  0
APPID
  2
ACAD_TC
 70
     0
  0
APPID
  2
ACADANNOTATIVE
 70
     0
  0
APPID
  2
PLOTTRANSPARENCY
 70
     0
  0
ENDTAB
  0
TABLE
  2
DIMSTYLE
 70
     2
  0
DIMSTYLE
  2
LORO
 70
     0
  3

  4

  5

  6

  7

 40
1.0
 41
3.5
 42
1.0
 43
0.38
 44
1.0
 45
0.0
 46
0.0
 47
0.0
 48
0.000000001
140
3.5
141
0.09
142
0.0
143
25.3999999999999986
144
1.0
145
0.0
146
0.5
147
1.5
 71
     0
 72
     0
 73
     0
 74
     0
 75
     0
 76
     0
 77
     1
 78
     8
170
     0
171
     2
172
     1
173
     0
174
     0
175
     0
176
     0
177
     0
178
     1
  0
DIMSTYLE
  2
STANDARD
 70
     0
  3

  4

  5

  6

  7

 40
1.0
 41
0.18
 42
0.0625
 43
0.38
 44
0.18
 45
0.0
 46
0.0
 47
0.0
 48
0.0
140
0.18
141
0.09
142
0.0
143
25.3999999999999986
144
1.0
145
0.0
146
1.0
147
0.09
 71
     0
 72
     0
 73
     1
 74
     1
 75
     0
 76
     0
 77
     0
 78
     0
170
     0
171
     2
172
     0
173
     0
174
     0
175
     0
176
     0
177
     0
178
     0
  0
ENDTAB
  0
ENDSEC
  0
SECTION
  2
BLOCKS
  0
BLOCK
  8
0
  2
$MODEL_SPACE
 70
     0
 10
0.0
 20
0.0
 30
0.0
  3
$MODEL_SPACE
  1

  0
ENDBLK
  5
36
  8
0
  0
BLOCK
 67
     1
  8
0
  2
$PAPER_SPACE
 70
     0
 10
0.0
 20
0.0
 30
0.0
  3
$PAPER_SPACE
  1

  0
ENDBLK
  5
34
 67
     1
  8
0
  0
BLOCK
  8
0
  2
*S0
 70
     1
 10
0.0
 20
0.0
 30
0.0
  3
*S0
  1

  0
ENDBLK
  5
18BD
  8
0
  0
BLOCK
  8
0
  2
A$CFC6DED02
 70
     0
 10
0.0
 20
0.0
 30
0.0
  3
A$CFC6DED02
  1

  0
LINE
  5
229D4
  8
0
  6
CONTINUOUS
 62
     3
 10
-55.0
 20
60.0000000000000284
 30
-0.0000000000000133
 11
55.0
 21
60.0000000000000284
 31
-0.0000000000000133
210
0.0
220
1.0
230
-0.0000000000000002
  0
LINE
  5
229D5
  8
0
  6
CONTINUOUS
 62
     3
 10
-55.0
 20
59.5000000000000213
 30
-0.0000000000000132
 11
55.0
 21
59.5000000000000213
 31
-0.0000000000000132
210
0.0
220
1.0
230
-0.0000000000000002
  0
LINE
  5
229D6
  8
0
  6
CONTINUOUS
 62
     3
 10
-55.0
 20
46.9999999999999574
 30
-0.0000000000000104
 11
55.0
 21
46.9999999999999574
 31
-0.0000000000000104
210
0.0
220
1.0
230
-0.0000000000000002
  0
LINE
  5
229D7
  8
0
  6
CONTINUOUS
 62
     3
 10
-55.0
 20
46.4999999999999574
 30
-0.0000000000000103
 11
55.0
 21
46.4999999999999574
 31
-0.0000000000000103
210
0.0
220
1.0
230
-0.0000000000000002
  0
LINE
  5
229D8
  8
0
  6
CONTINUOUS
 62
     3
 10
-55.0
 20
36.0000000000000213
 30
-0.000000000000008
 11
55.0
 21
36.0000000000000213
 31
-0.000000000000008
210
0.0
220
1.0
230
-0.0000000000000002
  0
LINE
  5
229D9
  8
0
  6
CONTINUOUS
 62
     3
 10
-55.0
 20
35.5000000000003624
 30
-0.0000000000000079
 11
55.0
 21
35.5000000000003624
 31
-0.0000000000000079
210
0.0
220
1.0
230
-0.0000000000000002
  0
LINE
  5
229DA
  8
0
  6
CONTINUOUS
 62
     3
 10
-55.0
 20
25.0000000000000107
 30
-0.0000000000000056
 11
55.0
 21
25.0000000000000107
 31
-0.0000000000000056
210
0.0
220
1.0
230
-0.0000000000000002
  0
LINE
  5
229DB
  8
0
  6
CONTINUOUS
 62
     3
 10
-55.0
 20
24.5000000000000107
 30
-0.0000000000000054
 11
55.0
 21
24.5000000000000107
 31
-0.0000000000000054
210
0.0
220
1.0
230
-0.0000000000000002
  0
LINE
  5
229DC
  8
0
  6
CONTINUOUS
 62
     3
 10
-46.5000000000000497
 20
0.0
 30
0.0
 11
46.5000000000000497
 21
0.0
 31
0.0
210
0.0
220
1.0
230
-0.0000000000000002
  0
LINE
  5
229DD
  8
0
  6
CONTINUOUS
 62
     3
 10
55.0
 20
60.0000000000000284
 30
-0.0000000000000133
 11
55.0
 21
59.5000000000000213
 31
-0.0000000000000132
210
0.0
220
1.0
230
-0.0000000000000002
  0
LINE
  5
229DE
  8
0
  6
CONTINUOUS
 62
     3
 10
-55.0
 20
60.0000000000000284
 30
-0.0000000000000133
 11
-55.0
 21
59.5000000000000213
 31
-0.0000000000000132
210
0.0
220
1.0
230
-0.0000000000000002
  0
LINE
  5
229DF
  8
0
  6
CONTINUOUS
 62
     3
 10
-48.3921976769755275
 20
55.6849835500499921
 30
-0.0000000000000124
 11
-55.0
 21
59.5000000000000426
 31
-0.0000000000000132
210
0.0
220
1.0
230
-0.0000000000000002
  0
LINE
  5
229E0
  8
0
  6
CONTINUOUS
 62
     3
 10
48.3921976769755275
 20
55.6849835500499921
 30
-0.0000000000000124
 11
55.0
 21
59.5000000000000426
 31
-0.0000000000000132
210
0.0
220
1.0
230
-0.0000000000000002
  0
ARC
  5
229E1
  8
0
  6
CONTINUOUS
 62
     3
 10
49.8921976769754423
 20
53.0869073386967685
 30
0.0
 40
2.999999999999893
210
0.0
220
-0.0000000000000002
230
-1.0
 50
119.9999999999994031
 51
176.3698986039798058
  0
ARC
  5
229E2
  8
0
  6
CONTINUOUS
 62
     3
 10
-49.8921976769754423
 20
53.0869073386967685
 30
0.0
 40
2.9999999999998921
210
0.0
220
-0.0000000000000002
230
-1.0
 50
3.6301013960202231
 51
60.0000000000005613
  0
LINE
  5
229E3
  8
0
  6
CONTINUOUS
 62
     3
 10
-46.5674589613994385
 20
48.0633148426150072
 30
-0.0000000000000107
 11
-46.8982168693647665
 21
53.2768518665419322
 31
-0.0000000000000118
210
0.0
220
1.0
230
-0.0000000000000002
  0
LINE
  5
229E4
  8
0
  6
CONTINUOUS
 62
     3
 10
46.5674589613994385
 20
48.0633148426150072
 30
-0.0000000000000107
 11
46.8982168693647665
 21
53.2768518665419322
 31
-0.0000000000000118
210
0.0
220
1.0
230
-0.0000000000000002
  0
ARC
  5
229E5
  8
0
  6
CONTINUOUS
 62
     3
 10
47.5654525639363328
 20
47.9999999999998508
 30
0.0
 40
0.9999999999999459
210
0.0
220
-0.0000000000000002
230
-1.0
 50
176.3698986039746899
 51
270.0
  0
ARC
  5
229E6
  8
0
  6
CONTINUOUS
 62
     3
 10
-47.5654525639363328
 20
47.9999999999998508
 30
0.0
 40
0.999999999999943
210
0.0
220
-0.0000000000000002
230
-1.0
 50
270.0
 51
3.630101396025311
  0
LINE
  5
229E7
  8
0
  6
CONTINUOUS
 62
     3
 10
55.0
 20
46.9999999999999574
 30
-0.0000000000000104
 11
55.0
 21
46.4999999999999574
 31
-0.0000000000000103
210
0.0
220
1.0
230
-0.0000000000000002
  0
LINE
  5
229E8
  8
0
  6
CONTINUOUS
 62
     3
 10
-55.0
 20
46.9999999999999574
 30
-0.0000000000000104
 11
-55.0
 21
46.4999999999999574
 31
-0.0000000000000103
210
0.0
220
1.0
230
-0.0000000000000002
  0
LINE
  5
229E9
  8
0
  6
CONTINUOUS
 62
     3
 10
-48.3565267007197974
 20
42.6643889023064489
 30
-0.0000000000000095
 11
-55.0
 21
46.4999999999999716
 31
-0.0000000000000103
210
0.0
220
1.0
230
-0.0000000000000002
  0
LINE
  5
229EA
  8
0
  6
CONTINUOUS
 62
     3
 10
48.3565267007197974
 20
42.6643889023064489
 30
-0.0000000000000095
 11
55.0
 21
46.4999999999999716
 31
-0.0000000000000103
210
0.0
220
1.0
230
-0.0000000000000002
  0
ARC
  5
229EB
  8
0
  6
CONTINUOUS
 62
     3
 10
49.8565267007202806
 20
40.0663126909528984
 30
0.0
 40
3.0000000000004028
210
0.0
220
-0.0000000000000002
230
-1.0
 50
120.0000000000056986
 51
175.1405874251115051
  0
ARC
  5
229EC
  8
0
  6
CONTINUOUS
 62
     3
 10
-49.8565267007202593
 20
40.0663126909529197
 30
0.0
 40
3.000000000000373
210
0.0
220
-0.0000000000000002
230
-1.0
 50
4.8594125748882311
 51
59.9999999999945288
  0
LINE
  5
229ED
  8
0
  6
CONTINUOUS
 62
     3
 10
-46.5922185526495696
 20
37.0847111064961297
 30
-0.0000000000000082
 11
-46.8673100381265471
 21
40.3204460104417919
 31
-0.000000000000009
210
0.0
220
1.0
230
-0.0000000000000002
  0
LINE
  5
229EE
  8
0
  6
CONTINUOUS
 62
     3
 10
46.5922185526495696
 20
37.0847111064961297
 30
-0.0000000000000082
 11
46.8673100381265471
 21
40.3204460104417919
 31
-0.000000000000009
210
0.0
220
1.0
230
-0.0000000000000002
  0
ARC
  5
229EF
  8
0
  6
CONTINUOUS
 62
     3
 10
47.5886241068473126
 20
36.9999999999998579
 30
0.0
 40
1.0000000000000091
210
0.0
220
-0.0000000000000002
230
-1.0
 50
175.140587425111903
 51
270.000000000002899
  0
ARC
  5
229F0
  8
0
  6
CONTINUOUS
 62
     3
 10
-47.5886241068472984
 20
36.9999999999998508
 30
0.0
 40
0.9999999999999928
210
0.0
220
-0.0000000000000002
230
-1.0
 50
270.0
 51
4.8594125748922368
  0
LINE
  5
229F1
  8
0
  6
CONTINUOUS
 62
     3
 10
55.0
 20
36.0000000000000213
 30
-0.000000000000008
 11
55.0
 21
35.5000000000003624
 31
-0.0000000000000079
210
0.0
220
1.0
230
-0.0000000000000002
  0
LINE
  5
229F2
  8
0
  6
CONTINUOUS
 62
     3
 10
-55.0
 20
36.0000000000000213
 30
-0.000000000000008
 11
-55.0
 21
35.5000000000003624
 31
-0.0000000000000079
210
0.0
220
1.0
230
-0.0000000000000002
  0
LINE
  5
229F3
  8
0
  6
CONTINUOUS
 62
     3
 10
-48.3565267007198187
 20
31.6643889023064098
 30
-0.000000000000007
 11
-55.0
 21
35.5000000000003766
 31
-0.0000000000000079
210
0.0
220
1.0
230
-0.0000000000000002
  0
LINE
  5
229F4
  8
0
  6
CONTINUOUS
 62
     3
 10
48.3565267007198187
 20
31.6643889023064098
 30
-0.000000000000007
 11
55.0
 21
35.5000000000003766
 31
-0.0000000000000079
210
0.0
220
1.0
230
-0.0000000000000002
  0
ARC
  5
229F5
  8
0
  6
CONTINUOUS
 62
     3
 10
49.8565267007198898
 20
29.0663126909530511
 30
0.0
 40
3.0000000000000591
210
0.0
220
-0.0000000000000002
230
-1.0
 50
120.0000000000008953
 51
175.1405874251132104
  0
ARC
  5
229F6
  8
0
  6
CONTINUOUS
 62
     3
 10
-49.8565267007198898
 20
29.0663126909530511
 30
0.0
 40
3.0000000000000591
210
0.0
220
-0.0000000000000002
230
-1.0
 50
4.859412574886754
 51
59.9999999999991189
  0
LINE
  5
229F7
  8
0
  6
CONTINUOUS
 62
     3
 10
-46.5922185526495412
 20
26.0847111064961688
 30
-0.0000000000000058
 11
-46.8673100381264689
 21
29.320446010441831
 31
-0.0000000000000065
210
0.0
220
1.0
230
-0.0000000000000002
  0
LINE
  5
229F8
  8
0
  6
CONTINUOUS
 62
     3
 10
46.5922185526495412
 20
26.0847111064961688
 30
-0.0000000000000058
 11
46.8673100381264689
 21
29.320446010441831
 31
-0.0000000000000065
210
0.0
220
1.0
230
-0.0000000000000002
  0
ARC
  5
229F9
  8
0
  6
CONTINUOUS
 62
     3
 10
47.5886241068472984
 20
25.9999999999998401
 30
0.0
 40
0.9999999999999367
210
0.0
220
-0.0000000000000002
230
-1.0
 50
175.1405874251084072
 51
270.0000000000003979
  0
ARC
  5
229FA
  8
0
  6
CONTINUOUS
 62
     3
 10
-47.5886241068473197
 20
25.9999999999998508
 30
0.0
 40
0.9999999999999538
210
0.0
220
-0.0000000000000002
230
-1.0
 50
270.0
 51
4.85941257488959
  0
LINE
  5
229FB
  8
0
  6
CONTINUOUS
 62
     3
 10
55.0
 20
25.0000000000000107
 30
-0.0000000000000056
 11
55.0
 21
24.5000000000000107
 31
-0.0000000000000054
210
0.0
220
1.0
230
-0.0000000000000002
  0
LINE
  5
229FC
  8
0
  6
CONTINUOUS
 62
     3
 10
-55.0
 20
25.0000000000000107
 30
-0.0000000000000056
 11
-55.0
 21
24.5000000000000107
 31
-0.0000000000000054
210
0.0
220
1.0
230
-0.0000000000000002
  0
LINE
  5
229FD
  8
0
  6
CONTINUOUS
 62
     3
 10
-48.0000000000000071
 20
20.458548115672631
 30
-0.0000000000000045
 11
-55.0
 21
24.5000000000000107
 31
-0.0000000000000054
210
0.0
220
1.0
230
-0.0000000000000002
  0
LINE
  5
229FE
  8
0
  6
CONTINUOUS
 62
     3
 10
48.0000000000000071
 20
20.458548115672631
 30
-0.0000000000000045
 11
55.0
 21
24.5000000000000107
 31
-0.0000000000000054
210
0.0
220
1.0
230
-0.0000000000000002
  0
ARC
  5
229FF
  8
0
  6
CONTINUOUS
 62
     3
 10
49.5000000000000568
 20
17.8604719043192794
 30
0.0
 40
3.0000000000000582
210
0.0
220
-0.0000000000000002
230
-1.0
 50
120.0000000000003979
 51
179.9999999999996021
  0
ARC
  5
22A00
  8
0
  6
CONTINUOUS
 62
     3
 10
-49.5000000000000568
 20
17.8604719043192901
 30
0.0
 40
3.000000000000056
210
0.0
220
-0.0000000000000002
230
-1.0
 50
0.0
 51
59.999999999999261
  0
LINE
  5
22A01
  8
0
  6
CONTINUOUS
 62
     3
 10
46.5
 20
17.8604719043193008
 30
-0.000000000000004
 11
46.5
 21
0.0
 31
0.0
210
0.0
220
1.0
230
-0.0000000000000002
  0
LINE
  5
22A02
  8
0
  6
CONTINUOUS
 62
     3
 10
-46.5
 20
17.8604719043193008
 30
-0.000000000000004
 11
-46.5
 21
0.0
 31
0.0
210
0.0
220
1.0
230
-0.0000000000000002
  0
LINE
  5
22A03
  8
0
  6
VERDECKT
 62
     1
 10
-42.5
 20
7.0000000000000009
 30
-0.0000000000000016
 11
42.5
 21
7.0000000000000009
 31
-0.0000000000000016
210
0.0
220
1.0
230
-0.0000000000000002
  0
LINE
  5
22A04
  8
0
  6
VERDECKT
 62
     1
 10
-44.0000000000000497
 20
2.000000000000028
 30
-0.0000000000000004
 11
44.0000000000000497
 21
2.000000000000028
 31
-0.0000000000000004
210
0.0
220
1.0
230
-0.0000000000000002
  0
LINE
  5
22A05
  8
0
  6
VERDECKT
 62
     1
 10
-44.5000000000000497
 20
58.0000000000000284
 30
-0.0000000000000129
 11
44.5000000000000497
 21
58.0000000000000284
 31
-0.0000000000000129
210
0.0
220
1.0
230
-0.0000000000000002
  0
LINE
  5
22A06
  8
0
  6
VERDECKT
 62
     1
 10
42.5
 20
7.0000000000000009
 30
-0.0000000000000016
 11
42.5
 21
2.5000000000000431
 31
-0.0000000000000006
210
0.0
220
1.0
230
-0.0000000000000002
  0
LINE
  5
22A07
  8
0
  6
VERDECKT
 62
     1
 10
-42.5
 20
7.0000000000000009
 30
-0.0000000000000016
 11
-42.5
 21
2.5000000000000431
 31
-0.0000000000000006
210
0.0
220
1.0
230
-0.0000000000000002
  0
ARC
  5
22A08
  8
0
  6
VERDECKT
 62
     1
 10
42.9999999999999929
 20
2.5000000000000231
 30
0.0
 40
0.4999999999999787
210
0.0
220
-0.0000000000000002
230
-1.0
 50
179.9999999999976978
 51
270.0000000000007958
  0
ARC
  5
22A09
  8
0
  6
VERDECKT
 62
     1
 10
-42.9999999999999929
 20
2.5000000000000231
 30
0.0
 40
0.4999999999999805
210
0.0
220
-0.0000000000000002
230
-1.0
 50
270.0
 51
0.0000000000030533
  0
ARC
  5
22A0A
  8
0
  6
VERDECKT
 62
     1
 10
44.0000000000000426
 20
2.500000000000032
 30
0.0
 40
0.500000000000004
210
0.0
220
-0.0000000000000002
230
-1.0
 50
270.0000000000007958
 51
0.0000000000011564
  0
ARC
  5
22A0B
  8
0
  6
VERDECKT
 62
     1
 10
-44.0000000000000426
 20
2.500000000000032
 30
0.0
 40
0.5000000000000071
210
0.0
220
-0.0000000000000002
230
-1.0
 50
179.9999999999988063
 51
269.9999999999992042
  0
LINE
  5
22A0C
  8
0
  6
VERDECKT
 62
     1
 10
44.5000000000000497
 20
58.0000000000000284
 30
-0.0000000000000129
 11
44.5000000000000497
 21
2.5000000000000431
 31
-0.0000000000000006
210
0.0
220
1.0
230
-0.0000000000000002
  0
LINE
  5
22A0D
  8
0
  6
VERDECKT
 62
     1
 10
-44.5000000000000497
 20
58.0000000000000284
 30
-0.0000000000000129
 11
-44.5000000000000497
 21
2.5000000000000431
 31
-0.0000000000000006
210
0.0
220
1.0
230
-0.0000000000000002
  0
LINE
  5
22A0E
  8
0
  6
VERDECKT
 62
     1
 10
-44.5000000000000711
 20
58.0000000000000071
 30
-0.0000000000000129
 11
-46.5000000000001208
 21
60.0000000000000071
 31
-0.0000000000000133
210
0.0
220
1.0
230
-0.0000000000000002
  0
LINE
  5
22A0F
  8
0
  6
VERDECKT
 62
     1
 10
44.5000000000000711
 20
58.0000000000000071
 30
-0.0000000000000129
 11
46.5000000000001208
 21
60.0000000000000071
 31
-0.0000000000000133
210
0.0
220
1.0
230
-0.0000000000000002
  0
LINE
  5
22A10
  8
0
  6
VERDECKT
 62
     1
 10
40.4999999999999929
 20
7.0000000000000009
 30
-0.0000000000000016
 11
40.4999999999999929
 21
0.0
 31
0.0
210
0.0
220
1.0
230
-0.0000000000000002
  0
LINE
  5
22A11
  8
0
  6
VERDECKT
 62
     1
 10
-40.4999999999999929
 20
7.0000000000000009
 30
-0.0000000000000016
 11
-40.4999999999999929
 21
0.0
 31
0.0
210
0.0
220
1.0
230
-0.0000000000000002
  0
ENDBLK
  5
22A13
  8
0
  0
BLOCK
  8
0
  2
A$C27067967
 70
     0
 10
0.0
 20
0.0
 30
0.0
  3
A$C27067967
  1

  0
CIRCLE
  5
22A17
  8
0
  6
CONTINUOUS
 62
     3
 10
0.0000000000000016
 20
0.0000000000000065
 30
0.0
 40
42.5
  0
CIRCLE
  5
22A18
  8
0
  6
CONTINUOUS
 62
     3
 10
0.0000000000000131
 20
0.0000000000000096
 30
0.0
 40
44.5000000000000497
  0
CIRCLE
  5
22A19
  8
0
  6
CONTINUOUS
 62
     3
 10
0.0000000000000135
 20
0.0000000000000097
 30
0.0
 40
46.5000000000001066
  0
CIRCLE
  5
22A1A
  8
0
  6
CONTINUOUS
 62
     3
 10
0.0000000000000135
 20
0.0000000000000097
 30
0.0
 40
55.0
  0
CIRCLE
  5
22A1B
  8
0
  6
CONTINUOUS
 62
     3
 10
0.0000000000000016
 20
0.0000000000000065
 30
0.0
 40
40.5000000000000568
  0
CIRCLE
  5
22A1C
  8
0
  6
VERDECKT
 62
     1
 10
0.0000000000000108
 20
0.000000000000009
 30
0.0
 40
46.5654525639363897
  0
CIRCLE
  5
22A1D
  8
0
  6
VERDECKT
 62
     1
 10
0.0000000000000083
 20
0.0000000000000083
 30
0.0
 40
46.5886241068472984
  0
ENDBLK
  5
22A1F
  8
0
  0
ENDSEC
  0
SECTION
  2
ENTITIES
  0
TEXT
  5
8F
  8
VOLL
 10
78.076754716981128
 20
31.025947764705851
 30
0.0
 40
1.8
  1

  7
GREEKS
  0
INSERT
  5
18BF
  8
ADSK_ASSOC_ENTITY_BACKUPS
  2
*S0
 10
0.0
 20
0.0
 30
0.0
  0
INSERT
  5
22A14
  8
STEMPEL
  2
A$CFC6DED02
 10
0.0
 20
0.0
 30
0.0
  0
INSERT
  5
22A20
  8
STEMPEL
  2
A$C27067967
 10
-0.0000000000000284
 20
-77.9999999999999716
 30
-0.0000000000000004
  0
VIEWPORT
  5
C68
 67
     1
  8
0
 10
-86.7499999999999858
 20
-148.2447509765623863
 30
0.0
 40
567.3581314878892954
 41
298.5415224913494967
 68
     1
 69
     1
1001
ACAD
1000
MVIEW
1002
{
1070
    16
1010
0.0
1020
0.0
1030
0.0
1010
0.0
1020
0.0
1030
1.0
1040
0.0
1040
298.5415224913494967
1040
-86.7499999999999858
1040
-148.2447509765623863
1040
50.0
1040
0.0
1040
0.0
1070
     0
1070
     0
1070
     1
1070
     1
1070
     0
1070
     0
1070
     0
1070
     0
1040
0.0
1040
0.0
1040
0.0
1040
10.0
1040
10.0
1040
10.0
1040
10.0
1070
     0
1002
{
1002
}
1002
}
  0
TEXT
  5
1986
 67
     1
  8
VOLL
 10
405.6964831740547766
 20
-245.0781761654644981
 30
0.0
 40
3.6000000000000001
  1

  7
GREEKS
  0
ENDSEC
  0
EOF
