  0
SECTION
  2
HEADER
  9
$ACADVER
  1
AC1009
  9
$INSBASE
 10
0.0
 20
0.0
 30
0.0
  9
$EXTMIN
 10
-57.5145710318058718
 20
-165.0328889281180977
 30
-0.0023191589889677
  9
$EXTMAX
 10
57.7146537051468229
 20
81.7549447682153954
 30
0.0034790923859021
  9
$LIMMIN
 10
0.0
 20
0.0
  9
$LIMMAX
 10
419.9999999999998863
 20
594.0
  9
$ORTHOMODE
 70
     1
  9
$REGENMODE
 70
     1
  9
$FILLMODE
 70
     1
  9
$QTEXTMODE
 70
     0
  9
$MIRRTEXT
 70
     1
  9
$DRAGMODE
 70
     2
  9
$LTSCALE
 40
20.0
  9
$OSMODE
 70
  2559
  9
$ATTMODE
 70
     1
  9
$TEXTSIZE
 40
3.5
  9
$TRACEWID
 40
0.5
  9
$TEXTSTYLE
  7
STANDARD
  9
$CLAYER
  8
STEMPEL
  9
$CELTYPE
  6
BYLAYER
  9
$CECOLOR
 62
   256
  9
$DIMSCALE
 40
2.0
  9
$DIMASZ
 40
3.5
  9
$DIMEXO
 40
1.0
  9
$DIMDLI
 40
7.0
  9
$DIMRND
 40
0.0
  9
$DIMDLE
 40
0.0
  9
$DIMEXE
 40
1.0
  9
$DIMTP
 40
0.0
  9
$DIMTM
 40
0.0
  9
$DIMTXT
 40
3.5
  9
$DIMCEN
 40
1.5
  9
$DIMTSZ
 40
0.0
  9
$DIMTOL
 70
     0
  9
$DIMLIM
 70
     0
  9
$DIMTIH
 70
     0
  9
$DIMTOH
 70
     0
  9
$DIMSE1
 70
     0
  9
$DIMSE2
 70
     0
  9
$DIMTAD
 70
     1
  9
$DIMZIN
 70
     8
  9
$DIMBLK
  1

  9
$DIMASO
 70
     1
  9
$DIMSHO
 70
     0
  9
$DIMPOST
  1

  9
$DIMAPOST
  1

  9
$DIMALT
 70
     0
  9
$DIMALTD
 70
     2
  9
$DIMALTF
 40
25.3999999999999986
  9
$DIMLFAC
 40
1.0
  9
$DIMTOFL
 70
     1
  9
$DIMTVP
 40
0.0
  9
$DIMTIX
 70
     0
  9
$DIMSOXD
 70
     0
  9
$DIMSAH
 70
     0
  9
$DIMBLK1
  1

  9
$DIMBLK2
  1

  9
$DIMSTYLE
  2
STANDARD
  9
$DIMCLRD
 70
     0
  9
$DIMCLRE
 70
     0
  9
$DIMCLRT
 70
     1
  9
$DIMTFAC
 40
0.5
  9
$DIMGAP
 40
1.5
  9
$LUNITS
 70
     2
  9
$LUPREC
 70
     2
  9
$SKETCHINC
 40
1.0
  9
$FILLETRAD
 40
1.5
  9
$AUNITS
 70
     0
  9
$AUPREC
 70
     0
  9
$MENU
  1
ACAD
  9
$ELEVATION
 40
0.0
  9
$PELEVATION
 40
0.0
  9
$THICKNESS
 40
0.0
  9
$LIMCHECK
 70
     0
  9
$BLIPMODE
 70
     0
  9
$CHAMFERA
 40
0.0
  9
$CHAMFERB
 40
0.0
  9
$SKPOLY
 70
     0
  9
$TDCREATE
 40
2455397.8646990740671754
  9
$TDUPDATE
 40
2458379.3354629632085562
  9
$TDINDWG
 40
0.1600452431
  9
$TDUSRTIMER
 40
0.1600452431
  9
$USRTIMER
 70
     1
  9
$ANGBASE
 50
0.0
  9
$ANGDIR
 70
     0
  9
$PDMODE
 70
     0
  9
$PDSIZE
 40
0.0
  9
$PLINEWID
 40
0.0
  9
$COORDS
 70
     1
  9
$SPLFRAME
 70
     0
  9
$SPLINETYPE
 70
     6
  9
$SPLINESEGS
 70
     8
  9
$ATTDIA
 70
     1
  9
$ATTREQ
 70
     1
  9
$HANDLING
 70
     1
  9
$HANDSEED
  5
194F
  9
$SURFTAB1
 70
     6
  9
$SURFTAB2
 70
     6
  9
$SURFTYPE
 70
     6
  9
$SURFU
 70
     6
  9
$SURFV
 70
     6
  9
$UCSNAME
  2

  9
$UCSORG
 10
0.0
 20
0.0
 30
0.0
  9
$UCSXDIR
 10
1.0
 20
0.0
 30
0.0
  9
$UCSYDIR
 10
0.0
 20
1.0
 30
0.0
  9
$PUCSNAME
  2

  9
$PUCSORG
 10
0.0
 20
0.0
 30
0.0
  9
$PUCSXDIR
 10
1.0
 20
0.0
 30
0.0
  9
$PUCSYDIR
 10
0.0
 20
1.0
 30
0.0
  9
$USERI1
 70
     0
  9
$USERI2
 70
     0
  9
$USERI3
 70
     0
  9
$USERI4
 70
     0
  9
$USERI5
 70
     0
  9
$USERR1
 40
0.0
  9
$USERR2
 40
0.0
  9
$USERR3
 40
0.0
  9
$USERR4
 40
0.0
  9
$USERR5
 40
0.0
  9
$WORLDVIEW
 70
     1
  9
$SHADEDGE
 70
     3
  9
$SHADEDIF
 70
    70
  9
$TILEMODE
 70
     1
  9
$MAXACTVP
 70
    16
  9
$PLIMCHECK
 70
     0
  9
$PEXTMIN
 10
-0.1429448484621858
 20
-0.1580269945440023
 30
-0.000000000000013
  9
$PEXTMAX
 10
23.6942227890812092
 20
33.6110200078645391
 30
0.0000000000000023
  9
$PLIMMIN
 10
-0.2500002402958907
 20
-0.2499999962453767
  9
$PLIMMAX
 10
10.7499995194082203
 20
8.2499997634587334
  9
$UNITMODE
 70
     0
  9
$VISRETAIN
 70
     0
  9
$PLINEGEN
 70
     0
  9
$PSLTSCALE
 70
     0
  0
ENDSEC
  0
SECTION
  2
TABLES
  0
TABLE
  2
VPORT
 70
     1
  0
VPORT
  2
*ACTIVE
 70
     0
 10
0.0
 20
0.0
 11
1.0
 21
1.0
 12
0.1000413366705573
 22
-50.8889720799513725
 13
0.0
 23
0.0
 14
1.0
 24
1.0
 15
10.0
 25
10.0
 16
-0.0000000000001096
 26
0.0
 36
493.4921504866399005
 17
-0.0000000000001137
 27
9.25
 37
38.0
 40
248.0458855248620011
 41
1.868197278911564
 42
50.0
 43
0.0
 44
0.0
 50
0.0
 51
0.0
 71
     0
 72
  1500
 73
     1
 74
     0
 75
     0
 76
     0
 77
     0
 78
     0
  0
ENDTAB
  0
TABLE
  2
LTYPE
 70
     4
  0
LTYPE
  2
CONTINUOUS
 70
     0
  3
Solid line
 72
    65
 73
     0
 40
0.0
  0
LTYPE
  2
PHANTOM2
 70
     0
  3
Phantom (.5x) ___ _ _ ___ _ _ ___ _ _ ___ _ _
 72
    65
 73
     6
 40
1.25
 49
0.625
 49
-0.125
 49
0.125
 49
-0.125
 49
0.125
 49
-0.125
  0
LTYPE
  2
VERDECKT
 70
     0
  3
_ _ _ _ _ _ _ _ _ _ _ _ _ _ _ _ _ _ _ _ _ _ _
 72
    65
 73
     2
 40
0.375
 49
0.25
 49
-0.125
  0
ENDTAB
  0
TABLE
  2
LAYER
 70
    10
  0
LAYER
  2
0
 70
     0
 62
     7
  6
CONTINUOUS
  0
LAYER
  2
VOLL
 70
     0
 62
     1
  6
CONTINUOUS
  0
LAYER
  2
STEMPEL
 70
     0
 62
     3
  6
CONTINUOUS
  0
LAYER
  2
DEFPOINTS
 70
     0
 62
     7
  6
CONTINUOUS
  0
ENDTAB
  0
TABLE
  2
STYLE
 70
     2
  0
STYLE
  2
STANDARD
 70
     0
 40
0.0
 41
0.8
 50
0.0
 71
     0
 42
3.5
  3
simplex.shx
  4

  0
STYLE
  2
GREEKS
 70
     0
 40
0.0
 41
0.8
 50
0.0
 71
     0
 42
2.5
  3
SIMPLEX.shx
  4

  0
ENDTAB
  0
TABLE
  2
VIEW
 70
     2
  0
ENDTAB
  0
TABLE
  2
UCS
 70
     0
  0
ENDTAB
  0
TABLE
  2
APPID
 70
    14
  0
APPID
  2
ACAD
 70
     0
  0
APPID
  2
ACAD_NAV_VCDISPLAY
 70
     0
  0
APPID
  2
ACAD_MLEADERVER
 70
     0
  0
APPID
  2
ACAD_EXEMPT_FROM_CAD_STANDARDS
 70
     0
  0
APPID
  2
ACADANNOMONITORALERTICONDI
 70
     0
  0
APPID
  2
ACAD_DSTYLE_DIMRADIAL_EXTENSION
 70
     0
  0
APPID
  2
ACAECLAYERSTANDARD
 70
     0
  0
APPID
  2
ACCMTRANSPARENCY
 70
     0
  0
APPID
  2
GRADIENTCOLOR1ACI
 70
     0
  0
APPID
  2
GRADIENTCOLOR2ACI
 70
     0
  0
APPID
  2
ACAD_PSEXT
 70
     0
  0
APPID
  2
ACAD_DSTYLE_DIMJAG
 70
     0
  0
APPID
  2
ACAD_DSTYLE_DIMTALN
 70
     0
  0
APPID
  2
ACAD_OBJECT_CHANGE_GUID
 70
     0
  0
ENDTAB
  0
TABLE
  2
DIMSTYLE
 70
     1
  0
DIMSTYLE
  2
STANDARD
 70
     0
  3

  4

  5

  6

  7

 40
1.0
 41
0.18
 42
0.0625
 43
0.38
 44
0.18
 45
0.0
 46
0.0
 47
0.0
 48
0.0
140
0.18
141
0.09
142
0.0
143
25.3999999999999986
144
1.0
145
0.0
146
1.0
147
0.09
 71
     0
 72
     0
 73
     1
 74
     1
 75
     0
 76
     0
 77
     0
 78
     0
170
     0
171
     2
172
     0
173
     0
174
     0
175
     0
176
     0
177
     0
178
     0
  0
ENDTAB
  0
ENDSEC
  0
SECTION
  2
BLOCKS
  0
BLOCK
  8
0
  2
$MODEL_SPACE
 70
     0
 10
0.0
 20
0.0
 30
0.0
  3
$MODEL_SPACE
  1

  0
ENDBLK
  5
36
  8
0
  0
BLOCK
 67
     1
  8
0
  2
$PAPER_SPACE
 70
     0
 10
0.0
 20
0.0
 30
0.0
  3
$PAPER_SPACE
  1

  0
ENDBLK
  5
34
 67
     1
  8
0
  0
BLOCK
  8
0
  2
A$C72E60476
 70
     0
 10
0.0
 20
0.0
 30
0.0
  3
A$C72E60476
  1

  0
LINE
  5
18CA
  8
0
  6
CONTINUOUS
 62
     3
 10
-57.5000000000002132
 20
69.9999999999998437
 30
-0.0000000000000155
 11
57.5000000000000071
 21
70.0000000000000568
 31
-0.0000000000000155
210
0.0000000000000002
220
1.0
230
-0.0000000000000002
  0
LINE
  5
18CB
  8
0
  6
CONTINUOUS
 62
     3
 10
-49.5000000000002274
 20
0.000000000000011
 30
0.0
 11
49.5000000000002274
 21
0.0000000000001027
 31
0.0
210
0.0000000000000002
220
1.0
230
-0.0000000000000002
  0
ARC
  5
18CC
  8
0
  6
CONTINUOUS
 62
     3
 10
9.9624561498482471
 20
-465.7432348915547777
 30
0.0
 40
541.8348300758302685
210
0.0
220
-0.0000000000000002
230
-1.0
 50
91.0535292781428041
 51
96.9873417601508123
  0
ARC
  5
18CD
  8
0
  6
CONTINUOUS
 62
     3
 10
-9.9624561498435718
 20
-465.7432348914658746
 30
0.0
 40
541.834830075741138
210
0.0
220
-0.0000000000000002
230
-1.0
 50
83.0126582398484629
 51
88.9464707218574375
  0
ARC
  5
18CE
  8
0
  6
CONTINUOUS
 62
     3
 10
55.7373574534056786
 20
70.3178644573083176
 30
0.0
 40
1.7626425465945339
210
0.0
220
-0.0000000000000002
230
-1.0
 50
0.0000000000041729
 51
83.012658239845976
  0
ARC
  5
18CF
  8
0
  6
CONTINUOUS
 62
     3
 10
-55.7373574534055081
 20
70.3178644573084313
 30
0.0
 40
1.762642546594513
210
0.0
220
-0.0000000000000002
230
-1.0
 50
96.9873417601536403
 51
179.9999999999961915
  0
LINE
  5
18D0
  8
0
  6
CONTINUOUS
 62
     3
 10
57.5000000000000071
 20
70.317864457308545
 30
-0.0000000000000156
 11
57.5000000000000071
 21
70.0000000000000711
 31
-0.0000000000000155
210
0.0000000000000002
220
1.0
230
-0.0000000000000002
  0
LINE
  5
18D1
  8
0
  6
CONTINUOUS
 62
     3
 10
-57.5000000000002132
 20
70.3178644573084455
 30
-0.0000000000000156
 11
-57.5000000000002132
 21
69.9999999999999716
 31
-0.0000000000000155
210
0.0000000000000002
220
1.0
230
-0.0000000000000002
  0
LINE
  5
18D2
  8
0
  6
CONTINUOUS
 62
     3
 10
50.9999999999998579
 20
70.0000000000001847
 30
-0.0000000000000155
 11
50.9999999999999289
 21
1.500000000000117
 31
-0.0000000000000003
210
0.0000000000000002
220
1.0
230
-0.0000000000000002
  0
LINE
  5
18D3
  8
0
  6
CONTINUOUS
 62
     3
 10
-51.0000000000001421
 20
70.0000000000000853
 30
-0.0000000000000155
 11
-51.0000000000000711
 21
1.5000000000000111
 31
-0.0000000000000003
210
0.0000000000000002
220
1.0
230
-0.0000000000000002
  0
ARC
  5
18D4
  8
0
  6
CONTINUOUS
 62
     3
 10
49.5000000000000924
 20
1.500000000000058
 30
0.0
 40
1.5000000000000551
210
0.0
220
-0.0000000000000002
230
-1.0
 50
270.0
 51
359.9999999999931219
  0
ARC
  5
18D5
  8
0
  6
CONTINUOUS
 62
     3
 10
-49.5000000000000924
 20
1.500000000000163
 30
0.0
 40
1.5000000000000491
210
0.0
220
-0.0000000000000002
230
-1.0
 50
180.0000000000017906
 51
269.9999999999956231
  0
LINE
  5
18D6
  8
0
  6
VERDECKT
 62
     1
 10
47.7966284049973424
 20
68.9411125052409375
 30
-0.0000000000000153
 11
49.0000000000000284
 21
0.000000000000046
 31
0.0
210
0.0000000000000002
220
1.0
230
-0.0000000000000002
  0
LINE
  5
18D7
  8
0
  6
VERDECKT
 62
     1
 10
-47.7966284049976267
 20
68.9411125052408522
 30
-0.0000000000000153
 11
-49.0000000000001705
 21
-0.000000000000046
 31
0.0
210
0.0000000000000002
220
1.0
230
-0.0000000000000002
  0
ARC
  5
18D8
  8
0
  6
VERDECKT
 62
     1
 10
45.2970091671067934
 20
68.8974814891476797
 30
0.0
 40
2.4999999999999458
210
0.0
220
-0.0000000000000002
230
-1.0
 50
0.9999999999992129
 51
83.4234255993608116
  0
ARC
  5
18D9
  8
0
  6
VERDECKT
 62
     1
 10
-45.2970091671066015
 20
68.8974814891477649
 30
0.0
 40
2.4999999999999498
210
0.0
220
-0.0000000000000002
230
-1.0
 50
96.576574400639231
 51
179.0000000000007958
  0
ARC
  5
18DA
  8
0
  6
VERDECKT
 62
     1
 10
-0.000000000034869
 20
-324.0000000005853735
 30
0.0
 40
398.0000000006199912
210
0.0
220
-0.0000000000000002
230
-1.0
 50
83.4234255993608116
 51
96.5765744006291129
  0
ENDBLK
  5
18DC
  8
0
  0
BLOCK
  8
0
  2
A$C5B391E15
 70
     0
 10
0.0
 20
0.0
 30
0.0
  3
A$C5B391E15
  1

  0
CIRCLE
  5
18E0
  8
0
  6
CONTINUOUS
 62
     3
 10
-0.0000000000000981
 20
0.0000000000000168
 30
0.0
 40
57.5000000000001208
  0
CIRCLE
  5
18E1
  8
0
  6
VERDECKT
 62
     1
 10
-0.0000000000000981
 20
0.0000000000000168
 30
0.0
 40
51.0000000000000071
  0
CIRCLE
  5
18E2
  8
0
  6
VERDECKT
 62
     1
 10
0.0
 20
0.0000000000000125
 30
0.0
 40
49.0000000000002132
  0
ENDBLK
  5
18E4
  8
0
  0
ENDSEC
  0
SECTION
  2
ENTITIES
  0
TEXT
  5
8F
  8
VOLL
 10
78.076754716981128
 20
31.025947764705851
 30
0.0
 40
1.8
  1

  7
GREEKS
  0
INSERT
  5
18DD
  8
STEMPEL
  2
A$C72E60476
 10
0.0
 20
0.0
 30
0.0
  0
INSERT
  5
18E5
  8
STEMPEL
  2
A$C5B391E15
 10
0.0000000000000946
 20
-107.5000000000000995
 30
0.0
  0
VIEWPORT
  5
69C
 67
     1
  8
0
 10
11.7760018098539891
 20
16.7270109809077994
 30
0.0
 40
66.6571518958229632
 41
34.0367528604833112
 68
     1
 69
     1
1001
ACAD
1000
MVIEW
1002
{
1070
    16
1010
0.0
1020
0.0
1030
0.0
1010
0.0
1020
0.0
1030
1.0
1040
0.0
1040
34.0367528604833112
1040
11.7760018098539891
1040
16.7270109809077994
1040
50.0
1040
0.0
1040
0.0
1070
     0
1070
  1500
1070
     1
1070
     1
1070
     0
1070
     0
1070
     0
1070
     0
1040
0.0
1040
0.0
1040
0.0
1040
10.0
1040
10.0
1040
10.0
1040
10.0
1070
     0
1002
{
1002
}
1002
}
  0
VIEWPORT
  5
6A1
 67
     1
  8
DEFPOINTS
 10
11.7758151897367291
 20
16.7263400319040691
 30
0.0
 40
23.8357066428353903
 41
33.7680723148558215
 68
     2
 69
     2
1001
ACAD
1000
MVIEW
1002
{
1070
    16
1010
0.0
1020
0.0
1030
0.0
1010
0.0
1020
0.0
1030
1.0
1040
0.0
1040
622.1984133069179279
1040
213.8803714451300948
1040
304.8164862080863031
1040
50.0
1040
0.0
1040
0.0
1070
     0
1070
  1500
1070
     1
1070
     0
1070
     0
1070
     0
1070
     0
1070
     0
1040
0.0
1040
0.0
1040
0.0
1040
1.0
1040
1.0
1040
10.0
1040
10.0
1070
     0
1002
{
1002
}
1002
}
  0
VIEWPORT
  5
6A5
 67
     1
  8
DEFPOINTS
 10
17.6252326014835887
 20
16.1652112522076088
 30
0.0
 40
8.1331603341574805
 41
7.8455086150200506
 68
     3
 69
     3
1001
ACAD
1000
MVIEW
1002
{
1070
    16
1010
697.537013404048821
1020
232.2018802913493118
1030
27.904893645196239
1010
0.0
1020
-51.8338553305875323
1030
201.6242121181217897
1040
0.0000000000000007
1040
121.4071398498754064
1040
0.0
1040
0.0
1040
50.0
1040
0.0
1040
0.0
1070
     0
1070
  1500
1070
     1
1070
     0
1070
     0
1070
     0
1070
     0
1070
     0
1040
0.0
1040
0.0
1040
0.0
1040
1.0
1040
1.0
1040
10.0
1040
10.0
1070
     0
1002
{
1002
}
1002
}
  0
ENDSEC
  0
EOF
