  0
SECTION
  2
HEADER
  9
$ACADVER
  1
AC1009
  9
$INSBASE
 10
0.0
 20
0.0
 30
0.0
  9
$EXTMIN
 10
-31.5073694328398304
 20
-113.0134728407876992
 30
-0.0012053521217723
  9
$EXTMAX
 10
31.6719135016574
 20
48.9157338134428983
 30
0.0018082121187888
  9
$LIMMIN
 10
0.0
 20
0.0
  9
$LIMMAX
 10
210.0
 20
297.0
  9
$ORTHOMODE
 70
     1
  9
$REGENMODE
 70
     1
  9
$FILLMODE
 70
     1
  9
$QTEXTMODE
 70
     0
  9
$MIRRTEXT
 70
     1
  9
$DRAGMODE
 70
     2
  9
$LTSCALE
 40
10.0
  9
$OSMODE
 70
  2559
  9
$ATTMODE
 70
     1
  9
$TEXTSIZE
 40
3.5
  9
$TRACEWID
 40
0.5
  9
$TEXTSTYLE
  7
STANDARD
  9
$CLAYER
  8
STEMPEL
  9
$CELTYPE
  6
BYLAYER
  9
$CECOLOR
 62
   256
  9
$DIMSCALE
 40
1.0
  9
$DIMASZ
 40
3.5
  9
$DIMEXO
 40
1.0
  9
$DIMDLI
 40
7.0
  9
$DIMRND
 40
0.0
  9
$DIMDLE
 40
0.0
  9
$DIMEXE
 40
1.0
  9
$DIMTP
 40
0.0
  9
$DIMTM
 40
0.0
  9
$DIMTXT
 40
3.5
  9
$DIMCEN
 40
1.5
  9
$DIMTSZ
 40
0.0
  9
$DIMTOL
 70
     0
  9
$DIMLIM
 70
     0
  9
$DIMTIH
 70
     0
  9
$DIMTOH
 70
     0
  9
$DIMSE1
 70
     0
  9
$DIMSE2
 70
     0
  9
$DIMTAD
 70
     1
  9
$DIMZIN
 70
     8
  9
$DIMBLK
  1

  9
$DIMASO
 70
     1
  9
$DIMSHO
 70
     0
  9
$DIMPOST
  1

  9
$DIMAPOST
  1

  9
$DIMALT
 70
     0
  9
$DIMALTD
 70
     2
  9
$DIMALTF
 40
25.3999999999999986
  9
$DIMLFAC
 40
1.0
  9
$DIMTOFL
 70
     1
  9
$DIMTVP
 40
0.0
  9
$DIMTIX
 70
     0
  9
$DIMSOXD
 70
     0
  9
$DIMSAH
 70
     0
  9
$DIMBLK1
  1

  9
$DIMBLK2
  1

  9
$DIMSTYLE
  2
STANDARD
  9
$DIMCLRD
 70
     0
  9
$DIMCLRE
 70
     0
  9
$DIMCLRT
 70
     1
  9
$DIMTFAC
 40
0.5
  9
$DIMGAP
 40
1.5
  9
$LUNITS
 70
     2
  9
$LUPREC
 70
     2
  9
$SKETCHINC
 40
1.0
  9
$FILLETRAD
 40
1.0
  9
$AUNITS
 70
     0
  9
$AUPREC
 70
     0
  9
$MENU
  1
ACAD
  9
$ELEVATION
 40
0.0
  9
$PELEVATION
 40
0.0
  9
$THICKNESS
 40
0.0
  9
$LIMCHECK
 70
     0
  9
$BLIPMODE
 70
     0
  9
$CHAMFERA
 40
0.0
  9
$CHAMFERB
 40
0.0
  9
$SKPOLY
 70
     0
  9
$TDCREATE
 40
2455397.8646990740671754
  9
$TDUPDATE
 40
2458379.3310185191221535
  9
$TDINDWG
 40
0.069985
  9
$TDUSRTIMER
 40
0.069985
  9
$USRTIMER
 70
     1
  9
$ANGBASE
 50
0.0
  9
$ANGDIR
 70
     0
  9
$PDMODE
 70
     0
  9
$PDSIZE
 40
0.0
  9
$PLINEWID
 40
0.0
  9
$COORDS
 70
     1
  9
$SPLFRAME
 70
     0
  9
$SPLINETYPE
 70
     6
  9
$SPLINESEGS
 70
     8
  9
$ATTDIA
 70
     1
  9
$ATTREQ
 70
     1
  9
$HANDLING
 70
     1
  9
$HANDSEED
  5
E75
  9
$SURFTAB1
 70
     6
  9
$SURFTAB2
 70
     6
  9
$SURFTYPE
 70
     6
  9
$SURFU
 70
     6
  9
$SURFV
 70
     6
  9
$UCSNAME
  2

  9
$UCSORG
 10
0.0
 20
0.0
 30
0.0
  9
$UCSXDIR
 10
1.0
 20
0.0
 30
0.0
  9
$UCSYDIR
 10
0.0
 20
1.0
 30
0.0
  9
$PUCSNAME
  2

  9
$PUCSORG
 10
0.0
 20
0.0
 30
0.0
  9
$PUCSXDIR
 10
1.0
 20
0.0
 30
0.0
  9
$PUCSYDIR
 10
0.0
 20
1.0
 30
0.0
  9
$USERI1
 70
     0
  9
$USERI2
 70
     0
  9
$USERI3
 70
     0
  9
$USERI4
 70
     0
  9
$USERI5
 70
     0
  9
$USERR1
 40
0.0
  9
$USERR2
 40
0.0
  9
$USERR3
 40
0.0
  9
$USERR4
 40
0.0
  9
$USERR5
 40
0.0
  9
$WORLDVIEW
 70
     1
  9
$SHADEDGE
 70
     3
  9
$SHADEDIF
 70
    70
  9
$TILEMODE
 70
     1
  9
$MAXACTVP
 70
    16
  9
$PLIMCHECK
 70
     0
  9
$PEXTMIN
 10
-0.1427429731899785
 20
-0.1588306058455515
 30
-0.0000000000112498
  9
$PEXTMAX
 10
12.0168210889649405
 20
16.6752155432587905
 30
0.0000000000002956
  9
$PLIMMIN
 10
-0.2500002402958907
 20
-0.2499999962453767
  9
$PLIMMAX
 10
10.7499995194082203
 20
8.2499997634587334
  9
$UNITMODE
 70
     0
  9
$VISRETAIN
 70
     0
  9
$PLINEGEN
 70
     0
  9
$PSLTSCALE
 70
     0
  0
ENDSEC
  0
SECTION
  2
TABLES
  0
TABLE
  2
VPORT
 70
     1
  0
VPORT
  2
*ACTIVE
 70
     0
 10
0.0
 20
0.0
 11
1.0
 21
1.0
 12
0.0822720344088026
 22
-36.0488695136724004
 13
0.0
 23
0.0
 14
1.0
 24
1.0
 15
10.0
 25
10.0
 16
-0.0000000000000587
 26
0.0
 36
264.3912140846754255
 17
0.0
 27
4.0
 37
19.7454395294189418
 40
162.7546741477949865
 41
1.868197278911564
 42
50.0
 43
0.0
 44
0.0
 50
0.0
 51
0.0
 71
     0
 72
  1500
 73
     1
 74
     0
 75
     0
 76
     0
 77
     0
 78
     0
  0
ENDTAB
  0
TABLE
  2
LTYPE
 70
     4
  0
LTYPE
  2
CONTINUOUS
 70
     0
  3
Solid line
 72
    65
 73
     0
 40
0.0
  0
LTYPE
  2
PHANTOM2
 70
     0
  3
Phantom (.5x) ___ _ _ ___ _ _ ___ _ _ ___ _ _
 72
    65
 73
     6
 40
1.25
 49
0.625
 49
-0.125
 49
0.125
 49
-0.125
 49
0.125
 49
-0.125
  0
LTYPE
  2
VERDECKT
 70
     0
  3
_ _ _ _ _ _ _ _ _ _ _ _ _ _ _ _ _ _ _ _ _ _ _
 72
    65
 73
     2
 40
0.375
 49
0.25
 49
-0.125
  0
ENDTAB
  0
TABLE
  2
LAYER
 70
    10
  0
LAYER
  2
0
 70
     0
 62
     7
  6
CONTINUOUS
  0
LAYER
  2
VOLL
 70
     0
 62
     1
  6
CONTINUOUS
  0
LAYER
  2
STEMPEL
 70
     0
 62
     3
  6
CONTINUOUS
  0
LAYER
  2
DEFPOINTS
 70
     0
 62
     7
  6
CONTINUOUS
  0
ENDTAB
  0
TABLE
  2
STYLE
 70
     2
  0
STYLE
  2
STANDARD
 70
     0
 40
0.0
 41
0.8
 50
0.0
 71
     0
 42
3.5
  3
simplex.shx
  4

  0
STYLE
  2
GREEKS
 70
     0
 40
0.0
 41
0.8
 50
0.0
 71
     0
 42
2.5
  3
SIMPLEX.shx
  4

  0
ENDTAB
  0
TABLE
  2
VIEW
 70
     1
  0
ENDTAB
  0
TABLE
  2
UCS
 70
     0
  0
ENDTAB
  0
TABLE
  2
APPID
 70
    12
  0
APPID
  2
ACAD
 70
     0
  0
APPID
  2
ACAD_NAV_VCDISPLAY
 70
     0
  0
APPID
  2
ACAD_MLEADERVER
 70
     0
  0
APPID
  2
ACAD_EXEMPT_FROM_CAD_STANDARDS
 70
     0
  0
APPID
  2
ACADANNOMONITORALERTICONDI
 70
     0
  0
APPID
  2
ACAD_DSTYLE_DIMRADIAL_EXTENSION
 70
     0
  0
APPID
  2
ACAECLAYERSTANDARD
 70
     0
  0
APPID
  2
ACCMTRANSPARENCY
 70
     0
  0
APPID
  2
GRADIENTCOLOR1ACI
 70
     0
  0
APPID
  2
GRADIENTCOLOR2ACI
 70
     0
  0
APPID
  2
ACAD_PSEXT
 70
     0
  0
APPID
  2
ACAD_OBJECT_CHANGE_GUID
 70
     0
  0
ENDTAB
  0
TABLE
  2
DIMSTYLE
 70
     1
  0
DIMSTYLE
  2
STANDARD
 70
     0
  3

  4

  5

  6

  7

 40
1.0
 41
0.18
 42
0.0625
 43
0.38
 44
0.18
 45
0.0
 46
0.0
 47
0.0
 48
0.0
140
0.18
141
0.09
142
0.0
143
25.3999999999999986
144
1.0
145
0.0
146
1.0
147
0.09
 71
     0
 72
     0
 73
     1
 74
     1
 75
     0
 76
     0
 77
     0
 78
     0
170
     0
171
     2
172
     0
173
     0
174
     0
175
     0
176
     0
177
     0
178
     0
  0
ENDTAB
  0
ENDSEC
  0
SECTION
  2
BLOCKS
  0
BLOCK
  8
0
  2
$MODEL_SPACE
 70
     0
 10
0.0
 20
0.0
 30
0.0
  3
$MODEL_SPACE
  1

  0
ENDBLK
  5
36
  8
0
  0
BLOCK
 67
     1
  8
0
  2
$PAPER_SPACE
 70
     0
 10
0.0
 20
0.0
 30
0.0
  3
$PAPER_SPACE
  1

  0
ENDBLK
  5
34
 67
     1
  8
0
  0
BLOCK
  8
0
  2
A$C21355AA6
 70
     0
 10
0.0
 20
0.0
 30
0.0
  3
A$C21355AA6
  1

  0
LINE
  5
DEE
  8
0
  6
CONTINUOUS
 62
     3
 10
-31.5
 20
34.9999999999999574
 30
-0.0000000000000078
 11
31.5
 21
34.9999999999999574
 31
-0.0000000000000078
210
0.0
220
1.0
230
-0.0000000000000002
  0
LINE
  5
DEF
  8
0
  6
CONTINUOUS
 62
     3
 10
-25.0
 20
0.0
 30
0.0
 11
25.0
 21
0.0
 31
0.0
210
0.0
220
1.0
230
-0.0000000000000002
  0
ARC
  5
DF0
  8
0
  6
CONTINUOUS
 62
     3
 10
-0.0000000000107487
 20
-106.000000000101096
 30
0.0
 40
145.5000000001116973
210
0.0
220
-0.0000000000000002
230
-1.0
 50
77.8147794837155544
 51
102.1852205162761038
  0
ARC
  5
DF1
  8
0
  6
CONTINUOUS
 62
     3
 10
30.5000000000000604
 20
35.244468918255393
 30
0.0
 40
0.9999999999999396
210
0.0
220
-0.0000000000000002
230
-1.0
 50
359.9999999999984084
 51
77.8147794837216367
  0
ARC
  5
DF2
  8
0
  6
CONTINUOUS
 62
     3
 10
-30.5000000000000604
 20
35.244468918255393
 30
0.0
 40
0.9999999999999422
210
0.0
220
-0.0000000000000002
230
-1.0
 50
102.185220516278406
 51
180.0000000000015064
  0
LINE
  5
DF3
  8
0
  6
CONTINUOUS
 62
     3
 10
31.5
 20
35.2444689182553574
 30
-0.0000000000000078
 11
31.5
 21
34.9999999999999574
 31
-0.0000000000000078
210
0.0
220
1.0
230
-0.0000000000000002
  0
LINE
  5
DF4
  8
0
  6
CONTINUOUS
 62
     3
 10
-31.5
 20
35.2444689182553574
 30
-0.0000000000000078
 11
-31.5
 21
34.9999999999999574
 31
-0.0000000000000078
210
0.0
220
1.0
230
-0.0000000000000002
  0
LINE
  5
DF5
  8
0
  6
CONTINUOUS
 62
     3
 10
26.5
 20
34.9999999999999574
 30
-0.0000000000000078
 11
26.5
 21
1.500000000000014
 31
-0.0000000000000003
210
0.0
220
1.0
230
-0.0000000000000002
  0
LINE
  5
DF6
  8
0
  6
CONTINUOUS
 62
     3
 10
-26.5
 20
34.9999999999999574
 30
-0.0000000000000078
 11
-26.5
 21
1.500000000000014
 31
-0.0000000000000003
210
0.0
220
1.0
230
-0.0000000000000002
  0
ARC
  5
DF7
  8
0
  6
CONTINUOUS
 62
     3
 10
25.0
 20
1.5
 30
0.0
 40
1.5
210
0.0
220
-0.0000000000000002
230
-1.0
 50
270.0
 51
0.0000000000005343
  0
ARC
  5
DF8
  8
0
  6
CONTINUOUS
 62
     3
 10
-25.0
 20
1.5
 30
0.0
 40
1.5
210
0.0
220
-0.0000000000000002
230
-1.0
 50
179.9999999999994031
 51
270.0
  0
LINE
  5
DF9
  8
0
  6
VERDECKT
 62
     1
 10
24.3947469177644791
 20
34.674925858171342
 30
-0.0000000000000077
 11
24.9999999999999716
 21
0.0
 31
0.0
210
0.0
220
1.0
230
-0.0000000000000002
  0
LINE
  5
DFA
  8
0
  6
VERDECKT
 62
     1
 10
-24.3947469177644791
 20
34.674925858171342
 30
-0.0000000000000077
 11
-24.9999999999999716
 21
0.0
 31
0.0
210
0.0
220
1.0
230
-0.0000000000000002
  0
ARC
  5
DFB
  8
0
  6
VERDECKT
 62
     1
 10
22.8949753750298513
 20
34.6487472485154129
 30
0.0
 40
1.5000000000000551
210
0.0
220
-0.0000000000000002
230
-1.0
 50
1.000000000000383
 51
80.7544159864399802
  0
ARC
  5
DFC
  8
0
  6
VERDECKT
 62
     1
 10
-22.8949753750298406
 20
34.6487472485153916
 30
0.0
 40
1.5000000000000711
210
0.0
220
-0.0000000000000002
230
-1.0
 50
99.2455840135604603
 51
178.9999999999990905
  0
ARC
  5
DFD
  8
0
  6
VERDECKT
 62
     1
 10
-0.0000000001318821
 20
-106.0000000016211033
 30
0.0
 40
144.0000000017529089
210
0.0
220
-0.0000000000000002
230
-1.0
 50
80.7544159864396676
 51
99.2455840134567637
  0
ENDBLK
  5
DFF
  8
0
  0
BLOCK
  8
0
  2
A$C70BE6F74
 70
     0
 10
0.0
 20
0.0
 30
0.0
  3
A$C70BE6F74
  1

  0
CIRCLE
  5
E03
  8
0
  6
CONTINUOUS
 62
     3
 10
0.0000000000000078
 20
0.0000000000000087
 30
0.0
 40
31.5
  0
CIRCLE
  5
E04
  8
0
  6
VERDECKT
 62
     1
 10
0.0000000000000078
 20
0.0000000000000087
 30
0.0
 40
26.5
  0
CIRCLE
  5
E05
  8
0
  6
VERDECKT
 62
     1
 10
0.0
 20
0.0000000000000065
 30
0.0
 40
25.0
  0
ENDBLK
  5
E07
  8
0
  0
BLOCK
  8
0
  2
*U10
 70
     1
 10
0.0
 20
0.0
 30
0.0
  3
*U10
  1

  0
CIRCLE
  5
E63
  8
STEMPEL
 10
0.0
 20
0.0000000000000065
 30
-31.5170339004975197
 40
24.2424242424247609
210
0.0
220
-0.0000000000000001
230
-1.0
  0
CIRCLE
  5
E64
  8
STEMPEL
 10
0.0
 20
0.0000000000000065
 30
-31.5170339004975197
 40
24.2424242424247609
210
0.0
220
-0.0000000000000001
230
-1.0
  0
CIRCLE
  5
E65
  8
STEMPEL
 10
0.0
 20
0.0000000000000065
 30
-30.5468635614927315
 40
25.0000000000000604
210
0.0
220
-0.0000000000000001
230
-1.0
  0
CIRCLE
  5
E66
  8
STEMPEL
 10
0.0
 20
0.0000000000000065
 30
-30.5468635614927315
 40
25.0000000000000604
210
0.0
220
-0.0000000000000001
230
-1.0
  0
CIRCLE
  5
E67
  8
STEMPEL
 10
0.0
 20
0.0000000000000065
 30
-30.0
 40
25.0
210
0.0
220
-0.0000000000000001
230
-1.0
  0
CIRCLE
  5
E68
  8
STEMPEL
 10
0.0
 20
0.0000000000000065
 30
-30.0
 40
25.0
210
0.0
220
-0.0000000000000001
230
-1.0
  0
CIRCLE
  5
E69
  8
STEMPEL
 10
0.0
 20
0.0000000000000065
 30
-29.9999999999999716
 40
21.0000000000000604
210
0.0
220
-0.0000000000000001
230
-1.0
  0
CIRCLE
  5
E6A
  8
STEMPEL
 10
0.0
 20
0.0000000000000065
 30
-29.9999999999999716
 40
21.0000000000000604
210
0.0
220
-0.0000000000000001
230
-1.0
  0
CIRCLE
  5
E6B
  8
STEMPEL
 10
0.0
 20
0.0000000000000065
 30
-1.5
 40
21.0
210
0.0
220
-0.0000000000000001
230
-1.0
  0
CIRCLE
  5
E6C
  8
STEMPEL
 10
0.0
 20
0.0000000000000065
 30
-1.5
 40
21.0
210
0.0
220
-0.0000000000000001
230
-1.0
  0
CIRCLE
  5
E6D
  8
STEMPEL
 10
0.0
 20
0.0000000000000065
 30
0.0
 40
19.5
210
0.0
220
-0.0000000000000001
230
-1.0
  0
CIRCLE
  5
E6E
  8
STEMPEL
 10
0.0
 20
0.0000000000000065
 30
0.0
 40
19.5
210
0.0
220
-0.0000000000000001
230
-1.0
  0
CIRCLE
  5
E6F
  8
STEMPEL
 10
0.0
 20
0.0000000000000065
 30
-29.9386087063011814
 40
18.9774196411710783
210
0.0
220
-0.0000000000000001
230
-1.0
  0
CIRCLE
  5
E70
  8
STEMPEL
 10
0.0
 20
0.0000000000000065
 30
-29.9386087063011814
 40
18.9774196411710783
210
0.0
220
-0.0000000000000001
230
-1.0
  0
CIRCLE
  5
E71
  8
STEMPEL
 10
0.0
 20
0.0000000000000065
 30
-31.3878800465936401
 40
17.7479210071739395
210
0.0
220
-0.0000000000000001
230
-1.0
  0
CIRCLE
  5
E72
  8
STEMPEL
 10
0.0
 20
0.0000000000000065
 30
-31.3878800465936401
 40
17.7479210071739395
210
0.0
220
-0.0000000000000001
230
-1.0
  0
ENDBLK
  5
E74
  8
0
  0
ENDSEC
  0
SECTION
  2
ENTITIES
  0
TEXT
  5
8F
  8
VOLL
 10
78.076754716981128
 20
31.025947764705851
 30
0.0
 40
1.8
  1

  7
GREEKS
  0
INSERT
  5
E00
  8
STEMPEL
  2
A$C21355AA6
 10
0.0
 20
0.0
 30
0.0
  0
INSERT
  5
E08
  8
STEMPEL
  2
A$C70BE6F74
 10
0.0
 20
-81.5
 30
0.0
  0
VIEWPORT
  5
69C
 67
     1
  8
0
 10
5.9369570999286072
 20
8.2582550149134377
 30
0.0
 40
33.2281615812552573
 41
16.9671024276130815
 68
     1
 69
     1
1001
ACAD
1000
MVIEW
1002
{
1070
    16
1010
0.0
1020
0.0
1030
0.0
1010
0.0
1020
0.0
1030
1.0
1040
0.0
1040
16.9671024276130815
1040
5.9369570999286072
1040
8.2582550149134377
1040
50.0
1040
0.0
1040
0.0
1070
     0
1070
  1500
1070
     1
1070
     1
1070
     0
1070
     0
1070
     0
1070
     0
1040
0.0
1040
0.0
1040
0.0
1040
10.0
1040
10.0
1040
10.0
1040
10.0
1070
     0
1002
{
1002
}
1002
}
  0
VIEWPORT
  5
6A1
 67
     1
  8
DEFPOINTS
 10
5.9372978602341169
 20
8.258630538344061
 30
0.0
 40
12.1586719838301391
 41
16.832653327735791
 68
     2
 69
     2
1001
ACAD
1000
MVIEW
1002
{
1070
    16
1010
0.0
1020
0.0
1030
0.0
1010
0.0
1020
0.0
1030
1.0
1040
0.0
1040
310.1524450258613115
1040
106.3019410091317951
1040
148.793502067557796
1040
50.0
1040
0.0
1040
0.0
1070
     0
1070
  1500
1070
     1
1070
     0
1070
     0
1070
     0
1070
     0
1070
     0
1040
0.0
1040
0.0
1040
0.0
1040
1.0
1040
1.0
1040
10.0
1040
10.0
1070
     0
1002
{
1002
}
1002
}
  0
VIEWPORT
  5
6A5
 67
     1
  8
DEFPOINTS
 10
9.1585305956942804
 20
5.60643539790654
 30
0.0
 40
3.5797568938953499
 41
2.9617145534359031
 68
     3
 69
     3
1001
ACAD
1000
MVIEW
1002
{
1070
    16
1010
340.1111887748058962
1020
123.1348282763253934
1030
-0.134227927010529
1010
0.0
1020
-38.1747586682759632
1030
148.4928255905471985
1040
0.0000000000000007
1040
53.966968417176993
1040
-0.8730028245094487
1040
1.4904801669705039
1040
50.0
1040
0.0
1040
0.0
1070
     0
1070
  1500
1070
     1
1070
     0
1070
     0
1070
     0
1070
     0
1070
     0
1040
0.0
1040
0.0
1040
0.0
1040
1.0
1040
1.0
1040
10.0
1040
10.0
1070
     0
1002
{
1002
}
1002
}
  0
ENDSEC
  0
EOF
