  0
SECTION
  2
HEADER
  9
$ACADVER
  1
AC1009
  9
$INSBASE
 10
0.0
 20
0.0
 30
0.0
  9
$EXTMIN
 10
-13.7449838700097207
 20
-65.5624095929953654
 30
-0.0000000000000056
  9
$EXTMAX
 10
88.7139414565889837
 20
77.2893377175608833
 30
0.0000000000000018
  9
$LIMMIN
 10
0.0
 20
0.0
  9
$LIMMAX
 10
210.0
 20
297.0
  9
$ORTHOMODE
 70
     1
  9
$REGENMODE
 70
     1
  9
$FILLMODE
 70
     1
  9
$QTEXTMODE
 70
     0
  9
$MIRRTEXT
 70
     1
  9
$DRAGMODE
 70
     2
  9
$LTSCALE
 40
10.0
  9
$OSMODE
 70
    39
  9
$ATTMODE
 70
     1
  9
$TEXTSIZE
 40
3.5
  9
$TRACEWID
 40
0.5
  9
$TEXTSTYLE
  7
STANDARD
  9
$CLAYER
  8
0
  9
$CELTYPE
  6
BYLAYER
  9
$CECOLOR
 62
   256
  9
$DIMSCALE
 40
1.0
  9
$DIMASZ
 40
3.5
  9
$DIMEXO
 40
1.0
  9
$DIMDLI
 40
7.0
  9
$DIMRND
 40
0.0
  9
$DIMDLE
 40
0.0
  9
$DIMEXE
 40
1.0
  9
$DIMTP
 40
0.0
  9
$DIMTM
 40
0.0
  9
$DIMTXT
 40
3.5
  9
$DIMCEN
 40
1.5
  9
$DIMTSZ
 40
0.0
  9
$DIMTOL
 70
     0
  9
$DIMLIM
 70
     0
  9
$DIMTIH
 70
     0
  9
$DIMTOH
 70
     0
  9
$DIMSE1
 70
     0
  9
$DIMSE2
 70
     0
  9
$DIMTAD
 70
     1
  9
$DIMZIN
 70
     8
  9
$DIMBLK
  1

  9
$DIMASO
 70
     1
  9
$DIMSHO
 70
     0
  9
$DIMPOST
  1

  9
$DIMAPOST
  1

  9
$DIMALT
 70
     0
  9
$DIMALTD
 70
     2
  9
$DIMALTF
 40
25.3999999999999986
  9
$DIMLFAC
 40
1.0
  9
$DIMTOFL
 70
     1
  9
$DIMTVP
 40
0.0
  9
$DIMTIX
 70
     0
  9
$DIMSOXD
 70
     0
  9
$DIMSAH
 70
     0
  9
$DIMBLK1
  1

  9
$DIMBLK2
  1

  9
$DIMSTYLE
  2
STANDARD
  9
$DIMCLRD
 70
     0
  9
$DIMCLRE
 70
     0
  9
$DIMCLRT
 70
     1
  9
$DIMTFAC
 40
0.5
  9
$DIMGAP
 40
1.5
  9
$LUNITS
 70
     2
  9
$LUPREC
 70
     2
  9
$SKETCHINC
 40
1.0
  9
$FILLETRAD
 40
0.8
  9
$AUNITS
 70
     0
  9
$AUPREC
 70
     0
  9
$MENU
  1
ACAD
  9
$ELEVATION
 40
0.0
  9
$PELEVATION
 40
0.0
  9
$THICKNESS
 40
0.0
  9
$LIMCHECK
 70
     0
  9
$BLIPMODE
 70
     0
  9
$CHAMFERA
 40
0.0
  9
$CHAMFERB
 40
0.0
  9
$SKPOLY
 70
     0
  9
$TDCREATE
 40
2455397.8646990740671754
  9
$TDUPDATE
 40
2458418.3502199067734182
  9
$TDINDWG
 40
0.1351566898
  9
$TDUSRTIMER
 40
0.1351566898
  9
$USRTIMER
 70
     1
  9
$ANGBASE
 50
0.0
  9
$ANGDIR
 70
     0
  9
$PDMODE
 70
     0
  9
$PDSIZE
 40
0.0
  9
$PLINEWID
 40
0.0
  9
$COORDS
 70
     1
  9
$SPLFRAME
 70
     0
  9
$SPLINETYPE
 70
     6
  9
$SPLINESEGS
 70
     8
  9
$ATTDIA
 70
     1
  9
$ATTREQ
 70
     1
  9
$HANDLING
 70
     1
  9
$HANDSEED
  5
1703
  9
$SURFTAB1
 70
     6
  9
$SURFTAB2
 70
     6
  9
$SURFTYPE
 70
     6
  9
$SURFU
 70
     6
  9
$SURFV
 70
     6
  9
$UCSNAME
  2

  9
$UCSORG
 10
0.0
 20
0.0
 30
0.0
  9
$UCSXDIR
 10
1.0
 20
0.0
 30
0.0
  9
$UCSYDIR
 10
0.0
 20
1.0
 30
0.0
  9
$PUCSNAME
  2

  9
$PUCSORG
 10
0.0
 20
0.0
 30
0.0
  9
$PUCSXDIR
 10
1.0
 20
0.0
 30
0.0
  9
$PUCSYDIR
 10
0.0
 20
1.0
 30
0.0
  9
$USERI1
 70
     0
  9
$USERI2
 70
     0
  9
$USERI3
 70
     0
  9
$USERI4
 70
     0
  9
$USERI5
 70
     0
  9
$USERR1
 40
0.0
  9
$USERR2
 40
0.0
  9
$USERR3
 40
0.0
  9
$USERR4
 40
0.0
  9
$USERR5
 40
0.0
  9
$WORLDVIEW
 70
     1
  9
$SHADEDGE
 70
     3
  9
$SHADEDIF
 70
    70
  9
$TILEMODE
 70
     1
  9
$MAXACTVP
 70
    16
  9
$PLIMCHECK
 70
     0
  9
$PEXTMIN
 10
-0.1189377574799337
 20
-0.0884549757805502
 30
-0.0000000349181948
  9
$PEXTMAX
 10
16.3321821507293699
 20
22.866449864581309
 30
0.0000000814935746
  9
$PLIMMIN
 10
-0.2500002402958907
 20
-0.2499999962453767
  9
$PLIMMAX
 10
10.7499995194082203
 20
8.2499997634587334
  9
$UNITMODE
 70
     0
  9
$VISRETAIN
 70
     0
  9
$PLINEGEN
 70
     0
  9
$PSLTSCALE
 70
     0
  0
ENDSEC
  0
SECTION
  2
TABLES
  0
TABLE
  2
VPORT
 70
     1
  0
VPORT
  2
*ACTIVE
 70
     0
 10
0.0
 20
0.0
 11
1.0
 21
1.0
 12
15.9672687793425006
 22
23.6787848925062505
 13
0.0
 23
0.0
 14
1.0
 24
1.0
 15
10.0
 25
10.0
 16
-0.0000000000000853
 26
0.0
 36
385.2633809382140839
 17
37.2067081990049999
 27
-14.5624084472656197
 37
3.096868410003335
 40
230.3269331729563021
 41
2.0800000000000001
 42
50.0
 43
0.0
 44
0.0
 50
0.0
 51
0.0
 71
     0
 72
  1500
 73
     1
 74
     0
 75
     0
 76
     0
 77
     0
 78
     0
  0
ENDTAB
  0
TABLE
  2
LTYPE
 70
     3
  0
LTYPE
  2
CONTINUOUS
 70
     0
  3
Solid line
 72
    65
 73
     0
 40
0.0
  0
LTYPE
  2
PHANTOM2
 70
     0
  3
Phantom (.5x) ___ _ _ ___ _ _ ___ _ _ ___ _ _
 72
    65
 73
     6
 40
1.25
 49
0.625
 49
-0.125
 49
0.125
 49
-0.125
 49
0.125
 49
-0.125
  0
LTYPE
  2
VERDECKT
 70
     0
  3
Verdeckt __ __ __ __ __ __ __ __ __ __ __ __ __
 72
    65
 73
     2
 40
0.375
 49
0.25
 49
-0.125
  0
ENDTAB
  0
TABLE
  2
LAYER
 70
     3
  0
LAYER
  2
0
 70
     0
 62
     7
  6
CONTINUOUS
  0
LAYER
  2
VOLL
 70
     0
 62
     1
  6
CONTINUOUS
  0
LAYER
  2
DEFPOINTS
 70
     0
 62
     7
  6
CONTINUOUS
  0
ENDTAB
  0
TABLE
  2
STYLE
 70
     3
  0
STYLE
  2
STANDARD
 70
     0
 40
0.0
 41
0.8
 50
0.0
 71
     0
 42
3.5
  3
simplex.shx
  4

  0
STYLE
  2
ANNOTATIVE
 70
     0
 40
0.0
 41
1.0
 50
0.0
 71
     0
 42
0.2
  3
txt
  4

  0
STYLE
  2
GREEKS
 70
     0
 40
0.0
 41
0.8
 50
0.0
 71
     0
 42
2.5
  3
SIMPLEX.shx
  4

  0
ENDTAB
  0
TABLE
  2
VIEW
 70
     0
  0
ENDTAB
  0
TABLE
  2
UCS
 70
     0
  0
ENDTAB
  0
TABLE
  2
APPID
 70
    13
  0
APPID
  2
ACAD
 70
     0
  0
APPID
  2
ACADANNOTATIVE
 70
     0
  0
APPID
  2
ACAD_NAV_VCDISPLAY
 70
     0
  0
APPID
  2
ACAD_MLEADERVER
 70
     0
  0
APPID
  2
ACAD_EXEMPT_FROM_CAD_STANDARDS
 70
     0
  0
APPID
  2
ACAD_DSTYLE_DIMRADIAL_EXTENSION
 70
     0
  0
APPID
  2
ACAECLAYERSTANDARD
 70
     0
  0
APPID
  2
ACCMTRANSPARENCY
 70
     0
  0
APPID
  2
GRADIENTCOLOR1ACI
 70
     0
  0
APPID
  2
GRADIENTCOLOR2ACI
 70
     0
  0
APPID
  2
ACAD_PSEXT
 70
     0
  0
APPID
  2
ACAD_OBJECT_CHANGE_GUID
 70
     0
  0
APPID
  2
ACADANNOMONITORALERTICONDI
 70
     0
  0
ENDTAB
  0
TABLE
  2
DIMSTYLE
 70
     2
  0
DIMSTYLE
  2
STANDARD
 70
     0
  3

  4

  5

  6

  7

 40
1.0
 41
0.18
 42
0.0625
 43
0.38
 44
0.18
 45
0.0
 46
0.0
 47
0.0
 48
0.0
140
0.18
141
0.09
142
0.0
143
25.3999999999999986
144
1.0
145
0.0
146
1.0
147
0.09
 71
     0
 72
     0
 73
     1
 74
     1
 75
     0
 76
     0
 77
     0
 78
     0
170
     0
171
     2
172
     0
173
     0
174
     0
175
     0
176
     0
177
     0
178
     0
  0
DIMSTYLE
  2
ANNOTATIVE
 70
     0
  3

  4

  5

  6

  7

 40
1.0
 41
0.18
 42
0.0625
 43
0.38
 44
0.18
 45
0.0
 46
0.0
 47
0.0
 48
0.0
140
0.18
141
0.09
142
0.0
143
25.3999999999999986
144
1.0
145
0.0
146
1.0
147
0.09
 71
     0
 72
     0
 73
     1
 74
     1
 75
     0
 76
     0
 77
     0
 78
     0
170
     0
171
     2
172
     0
173
     0
174
     0
175
     0
176
     0
177
     0
178
     0
  0
ENDTAB
  0
ENDSEC
  0
SECTION
  2
BLOCKS
  0
BLOCK
  8
0
  2
$MODEL_SPACE
 70
     0
 10
0.0
 20
0.0
 30
0.0
  3
$MODEL_SPACE
  1

  0
ENDBLK
  5
1682
  8
0
  0
BLOCK
 67
     1
  8
0
  2
$PAPER_SPACE
 70
     0
 10
0.0
 20
0.0
 30
0.0
  3
$PAPER_SPACE
  1

  0
ENDBLK
  5
167E
 67
     1
  8
0
  0
BLOCK
  8
0
  2
A$C1D252FFD
 70
     0
 10
0.0
 20
0.0
 30
0.0
  3
A$C1D252FFD
  1

  0
CIRCLE
  5
157F
  8
0
  6
CONTINUOUS
 62
     3
 10
37.255016129990338
 20
-14.5624095929953707
 30
0.0000000000000084
 40
40.0
  0
CIRCLE
  5
1580
  8
0
  6
CONTINUOUS
 62
     3
 10
37.2550161299903522
 20
-14.5624095929953707
 30
0.0000000000000071
 40
45.0
  0
CIRCLE
  5
1581
  8
0
  6
CONTINUOUS
 62
     3
 10
37.2550161299903522
 20
-14.5624095929953707
 30
0.0000000000000071
 40
51.0
  0
CIRCLE
  5
1582
  8
0
  6
VERDECKT
 62
     1
 10
37.255016129990338
 20
-14.5624095929953707
 30
0.0000000000000084
 40
46.8989794855663575
  0
CIRCLE
  5
1583
  8
0
  6
VERDECKT
 62
     1
 10
37.255016129990338
 20
-14.5624095929953707
 30
0.0000000000000089
 40
49.5000000000000568
  0
CIRCLE
  5
1584
  8
0
  6
VERDECKT
 62
     1
 10
37.255016129990338
 20
-14.5624095929953707
 30
0.0000000000000084
 40
48.9999999999999503
  0
CIRCLE
  5
1585
  8
0
  6
VERDECKT
 62
     1
 10
37.255016129990338
 20
-14.5624095929953707
 30
0.0000000000000084
 40
47.8452994616207405
  0
CIRCLE
  5
1586
  8
0
  6
VERDECKT
 62
     1
 10
37.2550161299903522
 20
-14.5624095929953707
 30
0.0000000000000071
 40
46.7140740033710529
  0
ENDBLK
  5
1588
  8
0
  0
BLOCK
  8
0
  2
A$C2643340A
 70
     0
 10
0.0
 20
0.0
 30
0.0
  3
A$C2643340A
  1

  0
LINE
  5
158C
  8
0
  6
CONTINUOUS
 62
     3
 10
-4.744983870009662
 20
0.0
 30
0.0
 11
79.255016129990338
 21
0.0
 31
0.0
210
0.0
220
1.0
230
-0.0000000000000002
  0
LINE
  5
158D
  8
0
  6
CONTINUOUS
 62
     3
 10
-13.7449838700097207
 20
19.0
 30
-0.0000000000000042
 11
88.2550161299903948
 21
19.0
 31
-0.0000000000000042
210
0.0
220
1.0
230
-0.0000000000000002
  0
LINE
  5
158E
  8
0
  6
CONTINUOUS
 62
     3
 10
-12.2449838700097207
 20
10.7575677416360804
 30
-0.0000000000000024
 11
86.7550161299903806
 21
10.7575677416360804
 31
-0.0000000000000024
210
0.0
220
1.0
230
-0.0000000000000002
  0
LINE
  5
158F
  8
0
  6
CONTINUOUS
 62
     3
 10
-12.2449838700097207
 20
10.4999999999999698
 30
-0.0000000000000023
 11
86.7550161299903806
 21
10.4999999999999698
 31
-0.0000000000000023
210
0.0
220
1.0
230
-0.0000000000000002
  0
LINE
  5
1590
  8
0
  6
CONTINUOUS
 62
     3
 10
-13.7449838700097207
 20
8.9999999999999876
 30
-0.000000000000002
 11
88.2550161299903948
 21
8.9999999999999876
 31
-0.000000000000002
210
0.0
220
1.0
230
-0.0000000000000002
  0
LINE
  5
1591
  8
0
  6
CONTINUOUS
 62
     3
 10
-13.7449838700096603
 20
7.9999999999999929
 30
-0.0000000000000018
 11
88.2550161299903237
 21
7.9999999999999929
 31
-0.0000000000000018
210
0.0
220
1.0
230
-0.0000000000000002
  0
LINE
  5
1592
  8
0
  6
CONTINUOUS
 62
     3
 10
-12.2449838700097207
 20
6.5000000000000231
 30
-0.0000000000000014
 11
86.7550161299903806
 21
6.5000000000000231
 31
-0.0000000000000014
210
0.0
220
1.0
230
-0.0000000000000002
  0
LINE
  5
1593
  8
0
  6
CONTINUOUS
 62
     3
 10
-12.2449838700097207
 20
4.598076211353308
 30
-0.000000000000001
 11
86.7550161299903806
 21
4.598076211353308
 31
-0.000000000000001
210
0.0
220
1.0
230
-0.0000000000000002
  0
LINE
  5
1594
  8
0
  6
CONTINUOUS
 62
     3
 10
-13.7449838700096603
 20
2.0
 30
-0.0000000000000004
 11
88.2550161299903237
 21
2.0
 31
-0.0000000000000004
210
0.0
220
1.0
230
-0.0000000000000002
  0
ARC
  5
1595
  8
0
  6
CONTINUOUS
 62
     3
 10
4.7449838700097198
 20
4.999999999999952
 30
0.0
 40
4.9999999999999512
210
0.0
220
-0.0000000000000002
230
-1.0
 50
270.0
 51
323.130102354156918
  0
ARC
  5
1596
  8
0
  6
CONTINUOUS
 62
     3
 10
-79.2550161299903806
 20
4.9999999999999796
 30
0.0
 40
4.9999999999999769
210
0.0
220
-0.0000000000000002
230
-1.0
 50
216.8698976458439063
 51
270.0000000000005116
  0
ARC
  5
1597
  8
0
  6
CONTINUOUS
 62
     3
 10
10.3879552050064401
 20
24.0000000000000213
 30
0.0
 40
0.9999999999999682
210
0.0
220
-0.0000000000000002
230
-1.0
 50
29.797297779531501
 51
89.9999999999998153
  0
ARC
  5
1598
  8
0
  6
CONTINUOUS
 62
     3
 10
-84.8979874649871249
 20
24.0000000000000284
 30
0.0
 40
0.9999999999999571
210
0.0
220
-0.0000000000000002
230
-1.0
 50
89.9999999999992042
 51
150.202702220469007
  0
LINE
  5
1599
  8
0
  6
CONTINUOUS
 62
     3
 10
84.8979874649871249
 20
24.9999999999999787
 30
-0.0000000000000056
 11
-10.3879552050064508
 21
24.9999999999999893
 31
-0.0000000000000056
210
0.0
220
1.0
230
-0.0000000000000002
  0
LINE
  5
159A
  8
0
  6
CONTINUOUS
 62
     3
 10
85.7657763559971329
 20
24.4969330343614899
 30
-0.0000000000000054
 11
87.7261716940301852
 21
21.0735154333990486
 31
-0.0000000000000047
210
0.0
220
1.0
230
-0.0000000000000002
  0
LINE
  5
159B
  8
0
  6
CONTINUOUS
 62
     3
 10
-11.2557440960164605
 20
24.4969330343614899
 30
-0.0000000000000054
 11
-13.2161394340495004
 21
21.0735154333990486
 31
-0.0000000000000047
210
0.0
220
1.0
230
-0.0000000000000002
  0
ARC
  5
159C
  8
0
  6
CONTINUOUS
 62
     3
 10
9.7449838700097224
 20
19.0857832959532097
 30
0.0
 40
3.9999999999999361
210
0.0
220
-0.0000000000000002
230
-1.0
 50
359.9999999999988063
 51
29.7972977795325598
  0
ARC
  5
159D
  8
0
  6
CONTINUOUS
 62
     3
 10
-84.2550161299903806
 20
19.085783295953199
 30
0.0
 40
3.9999999999999409
210
0.0
220
-0.0000000000000002
230
-1.0
 50
150.2027022204673017
 51
180.0000000000009095
  0
LINE
  5
159E
  8
0
  6
CONTINUOUS
 62
     3
 10
88.2550161299903948
 20
19.0857832959531315
 30
-0.0000000000000042
 11
88.2550161299903948
 21
19.0
 31
-0.0000000000000042
210
0.0
220
1.0
230
-0.0000000000000002
  0
LINE
  5
159F
  8
0
  6
CONTINUOUS
 62
     3
 10
-13.7449838700097207
 20
19.0857832959531315
 30
-0.0000000000000042
 11
-13.7449838700097207
 21
19.0
 31
-0.0000000000000042
210
0.0
220
1.0
230
-0.0000000000000002
  0
ARC
  5
15A0
  8
0
  6
CONTINUOUS
 62
     3
 10
9.9590578733807433
 20
18.4999999999999716
 30
0.0
 40
0.5000000000000285
210
0.0
220
-0.0000000000000002
230
-1.0
 50
90.0000000000001847
 51
199.9999999999951967
  0
ARC
  5
15A1
  8
0
  6
CONTINUOUS
 62
     3
 10
-84.4690901333614192
 20
18.4999999999999716
 30
0.0
 40
0.500000000000029
210
0.0
220
-0.0000000000000002
230
-1.0
 50
340.0000000000046043
 51
90.0000000000000284
  0
LINE
  5
15A2
  8
0
  6
CONTINUOUS
 62
     3
 10
83.999243822968424
 20
18.3289899283371689
 30
-0.0000000000000041
 11
86.7550161299903806
 21
10.7575677416360804
 31
-0.0000000000000024
210
0.0
220
1.0
230
-0.0000000000000002
  0
LINE
  5
15A3
  8
0
  6
CONTINUOUS
 62
     3
 10
-9.4892115629877463
 20
18.3289899283371689
 30
-0.0000000000000041
 11
-12.2449838700097207
 21
10.7575677416360804
 31
-0.0000000000000024
210
0.0
220
1.0
230
-0.0000000000000002
  0
LINE
  5
15A4
  8
0
  6
CONTINUOUS
 62
     3
 10
86.7550161299903806
 20
10.7575677416360804
 30
-0.0000000000000024
 11
86.7550161299903806
 21
10.4999999999999698
 31
-0.0000000000000023
210
0.0
220
1.0
230
-0.0000000000000002
  0
LINE
  5
15A5
  8
0
  6
CONTINUOUS
 62
     3
 10
-12.2449838700097207
 20
10.7575677416360804
 30
-0.0000000000000024
 11
-12.2449838700097207
 21
10.4999999999999698
 31
-0.0000000000000023
210
0.0
220
1.0
230
-0.0000000000000002
  0
LINE
  5
15A6
  8
0
  6
CONTINUOUS
 62
     3
 10
86.7550161299903806
 20
10.4999999999999698
 30
-0.0000000000000023
 11
88.2550161299903948
 21
8.9999999999999876
 31
-0.000000000000002
210
0.0
220
1.0
230
-0.0000000000000002
  0
LINE
  5
15A7
  8
0
  6
CONTINUOUS
 62
     3
 10
-12.2449838700097207
 20
10.4999999999999698
 30
-0.0000000000000023
 11
-13.7449838700097207
 21
8.9999999999999876
 31
-0.000000000000002
210
0.0
220
1.0
230
-0.0000000000000002
  0
LINE
  5
15A8
  8
0
  6
CONTINUOUS
 62
     3
 10
88.2550161299903948
 20
8.9999999999999876
 30
-0.000000000000002
 11
88.2550161299903948
 21
7.9999999999999929
 31
-0.0000000000000018
210
0.0
220
1.0
230
-0.0000000000000002
  0
LINE
  5
15A9
  8
0
  6
CONTINUOUS
 62
     3
 10
-13.7449838700097207
 20
8.9999999999999876
 30
-0.000000000000002
 11
-13.7449838700097207
 21
7.9999999999999929
 31
-0.0000000000000018
210
0.0
220
1.0
230
-0.0000000000000002
  0
LINE
  5
15AA
  8
0
  6
CONTINUOUS
 62
     3
 10
-12.2449838700097295
 20
6.5000000000000071
 30
-0.0000000000000014
 11
-13.7449838700096691
 21
7.9999999999999787
 31
-0.0000000000000018
210
0.0
220
1.0
230
-0.0000000000000002
  0
LINE
  5
15AB
  8
0
  6
CONTINUOUS
 62
     3
 10
86.7550161299903806
 20
6.5000000000000071
 30
-0.0000000000000014
 11
88.2550161299903522
 21
7.9999999999999787
 31
-0.0000000000000018
210
0.0
220
1.0
230
-0.0000000000000002
  0
LINE
  5
15AC
  8
0
  6
CONTINUOUS
 62
     3
 10
86.7550161299903806
 20
6.5000000000000231
 30
-0.0000000000000014
 11
86.7550161299903806
 21
4.598076211353308
 31
-0.000000000000001
210
0.0
220
1.0
230
-0.0000000000000002
  0
LINE
  5
15AD
  8
0
  6
CONTINUOUS
 62
     3
 10
-12.2449838700097207
 20
6.5000000000000231
 30
-0.0000000000000014
 11
-12.2449838700097207
 21
4.598076211353308
 31
-0.000000000000001
210
0.0
220
1.0
230
-0.0000000000000002
  0
LINE
  5
15AE
  8
0
  6
CONTINUOUS
 62
     3
 10
86.7550161299903948
 20
4.5980762113533213
 30
-0.000000000000001
 11
88.2550161299903948
 21
2.000000000000012
 31
-0.0000000000000004
210
0.0
220
1.0
230
-0.0000000000000002
  0
LINE
  5
15AF
  8
0
  6
CONTINUOUS
 62
     3
 10
-12.2449838700097402
 20
4.5980762113533213
 30
-0.000000000000001
 11
-13.7449838700096798
 21
2.000000000000012
 31
-0.0000000000000004
210
0.0
220
1.0
230
-0.0000000000000002
  0
LINE
  5
15B0
  8
0
  6
VERDECKT
 62
     1
 10
-2.744983870009662
 20
1.5
 30
-0.0000000000000003
 11
77.255016129990338
 21
1.5
 31
-0.0000000000000003
210
0.0
220
1.0
230
-0.0000000000000002
  0
LINE
  5
15B1
  8
0
  6
VERDECKT
 62
     1
 10
-7.744983870009662
 20
18.0
 30
-0.000000000000004
 11
82.255016129990338
 21
18.0
 31
-0.000000000000004
210
0.0
220
1.0
230
-0.0000000000000002
  0
LINE
  5
15B2
  8
0
  6
VERDECKT
 62
     1
 10
-10.5902833316304097
 20
3.999999999999992
 30
-0.0000000000000009
 11
85.1003155916110785
 21
3.999999999999992
 31
-0.0000000000000009
210
0.0
220
1.0
230
-0.0000000000000002
  0
ARC
  5
15B3
  8
0
  6
VERDECKT
 62
     1
 10
4.7449838700097526
 20
4.9999999999999387
 30
0.0
 40
4.9999999999999147
210
0.0
220
-0.0000000000000002
230
-1.0
 50
323.1301023541561221
 51
348.4630409671847815
  0
ARC
  5
15B4
  8
0
  6
VERDECKT
 62
     1
 10
-79.2550161299905938
 20
4.9999999999998659
 30
0.0
 40
4.9999999999997282
210
0.0
220
-0.0000000000000002
230
-1.0
 50
191.5369590328147922
 51
216.8698976458445031
  0
LINE
  5
15B5
  8
0
  6
VERDECKT
 62
     1
 10
77.2550161299903806
 20
1.5
 30
-0.0000000000000003
 11
77.2550161299903806
 21
0.0
 31
0.0
210
0.0
220
1.0
230
-0.0000000000000002
  0
LINE
  5
15B6
  8
0
  6
VERDECKT
 62
     1
 10
-2.744983870009718
 20
1.5
 30
-0.0000000000000003
 11
-2.744983870009718
 21
0.0
 31
0.0
210
0.0
220
1.0
230
-0.0000000000000002
  0
ARC
  5
15B7
  8
0
  6
VERDECKT
 62
     1
 10
2.7449838700096039
 20
6.5000000000000497
 30
0.0
 40
5.000000000000048
210
0.0
220
-0.0000000000000002
230
-1.0
 50
270.0
 51
359.9999999999988063
  0
ARC
  5
15B8
  8
0
  6
VERDECKT
 62
     1
 10
-77.2550161299902669
 20
6.500000000000056
 30
0.0
 40
5.000000000000056
210
0.0
220
-0.0000000000000002
230
-1.0
 50
180.0000000000005969
 51
269.9999999999993179
  0
LINE
  5
15B9
  8
0
  6
VERDECKT
 62
     1
 10
82.255016129990338
 20
18.0
 30
-0.000000000000004
 11
82.255016129990338
 21
6.5
 31
-0.0000000000000014
210
0.0
220
1.0
230
-0.0000000000000002
  0
LINE
  5
15BA
  8
0
  6
VERDECKT
 62
     1
 10
-7.744983870009662
 20
18.0
 30
-0.000000000000004
 11
-7.744983870009662
 21
6.5
 31
-0.0000000000000014
210
0.0
220
1.0
230
-0.0000000000000002
  0
LINE
  5
15BB
  8
0
  6
VERDECKT
 62
     1
 10
-7.7449838700096354
 20
18.0000000000000107
 30
-0.000000000000004
 11
-9.4220293787173848
 21
24.2588190451025305
 31
-0.0000000000000054
210
0.0
220
1.0
230
-0.0000000000000002
  0
LINE
  5
15BC
  8
0
  6
VERDECKT
 62
     1
 10
82.2550161299902811
 20
18.0000000000000107
 30
-0.000000000000004
 11
83.9320616386980447
 21
24.2588190451025305
 31
-0.0000000000000054
210
0.0
220
1.0
230
-0.0000000000000002
  0
ARC
  5
15BD
  8
0
  6
VERDECKT
 62
     1
 10
10.3879552050064401
 20
24.0000000000000284
 30
0.0
 40
0.9999999999999607
210
0.0
220
-0.0000000000000002
230
-1.0
 50
89.9999999999996732
 51
165.0000000000009095
  0
ARC
  5
15BE
  8
0
  6
VERDECKT
 62
     1
 10
-84.8979874649871249
 20
24.0000000000000391
 30
0.0
 40
0.9999999999999463
210
0.0
220
-0.0000000000000002
230
-1.0
 50
14.9999999999984492
 51
90.00000000000081
  0
LINE
  5
15BF
  8
0
  6
VERDECKT
 62
     1
 10
85.1003155916110785
 20
3.9999999999999929
 30
-0.0000000000000009
 11
86.2550161299902953
 21
2.0
 31
-0.0000000000000004
210
0.0
220
1.0
230
-0.0000000000000002
  0
LINE
  5
15C0
  8
0
  6
VERDECKT
 62
     1
 10
-10.5902833316304203
 20
3.9999999999999929
 30
-0.0000000000000009
 11
-11.7449838700095999
 21
2.0
 31
-0.0000000000000004
210
0.0
220
1.0
230
-0.0000000000000002
  0
ENDBLK
  5
15C2
  8
0
  0
ENDSEC
  0
SECTION
  2
ENTITIES
  0
TEXT
  5
8F
  8
VOLL
 10
78.076754716981128
 20
31.025947764705851
 30
0.0
 40
1.8
  1

  7
GREEKS
  0
INSERT
  5
1589
  8
0
  2
A$C1D252FFD
 10
0.0
 20
0.0
 30
-0.0000000000000071
  0
INSERT
  5
15C3
  8
0
  2
A$C2643340A
 10
0.0
 20
52.0393471238391427
 30
0.0
  0
VIEWPORT
  5
BE9
 67
     1
  8
0
 10
8.1063671610732246
 20
12.1369135610706493
 30
0.0
 40
45.6037580669273481
 41
24.6315645391832803
 68
     1
 69
     1
1001
ACAD
1000
MVIEW
1002
{
1070
    16
1010
0.0
1020
0.0
1030
0.0
1010
0.0
1020
0.0
1030
1.0
1040
0.0
1040
24.6315645391832803
1040
8.1063671610732246
1040
12.1369135610706493
1040
50.0
1040
0.0
1040
0.0
1070
     0
1070
  1500
1070
     1
1070
     1
1070
     0
1070
     0
1070
     0
1070
     0
1040
0.0
1040
0.0
1040
0.0
1040
10.0
1040
10.0
1040
10.0
1040
10.0
1070
     0
1002
{
1002
}
1002
}
  0
ENDSEC
  0
EOF
